999
DXF file: C:\Users\sesa63760\Dev\_Creo\CAD\MCADID0004738_3D-CAD\drw0001_7.dxf
999
Pro/ENGINEER 2019471 by Parametric Technology Corporation
  0
SECTION
  2
HEADER
  9
$ACADVER
  1
AC1024
  9
$DWGCODEPAGE
  3
ANSI_1252
  9
$EXTMAX
 10
35.9212012136
 20
50.8028417163
 30
0.0
  9
$EXTMIN
 10
0.0
 20
0.0
 30
0.0
  9
$LIMMIN
 10
0.0
 20
0.0
  9
$LIMMAX
 10
35.9212012136
 20
50.8028417163
  9
$VIEWCTR
 10
17.9606006068
 20
25.4014208582
  9
$VIEWSIZE
 40
50.8028417163
  9
$CLAYER
  8
0
  9
$LTSCALE
 40
3.3115926452
  9
$CELTYPE
  6
BYLAYER
  9
$DIMSCALE
 40
1.0
  9
$DIMASZ
 40
0.4276333478
  9
$DIMEXO
 40
1.0
  9
$DIMDLI
 40
2.288009464
  9
$DIMEXE
 40
1.0
  9
$DIMCEN
 40
0.5418969783
  9
$DIMLFAC
 40
1.0
  9
$DIMBLK
  1
_FILLED
  9
$DIMALT
 70
0
  9
$DIMALTF
 40
0.0393700787
  9
$DIMTXT
 40
0.5986866869
  9
$DIMTOL
 70
1
  9
$DIMLIM
 70
0
  9
$DIMTFAC
 40
1.0
  9
$DIMTP
 40
0.01
  9
$DIMTM
 40
0.01
  9
$DIMGAP
 40
0.625
  9
$DIMDSEP
 70
46
  9
$AUNITS
 70
0
  9
$PDMODE
 70
3
  9
$PDSIZE
 40
0.3125
  9
$HANDSEED
  5
364
  9
$TILEMODE
 70
1
  9
$MEASUREMENT
 70
1
  9
$INSUNITS
 70
4
  0
ENDSEC
  0
SECTION
  2
CLASSES
  0
CLASS
  1
ACDBDICTIONARYWDFLT
  2
AcDbDictionaryWithDefault
  3
AutoCAD 2000
 90
0
 91
1
280
0
281
0
  0
CLASS
  1
ACDBPLACEHOLDER
  2
AcDbPlaceHolder
  3
AutoCAD 2000
 90
0
 91
1
280
0
281
0
  0
CLASS
  1
LAYOUT
  2
AcDbLayout
  3
AutoCAD 2000
 90
0
 91
0
280
0
281
0
  0
ENDSEC
  0
SECTION
  2
TABLES
  0
TABLE
  2
VPORT
  5
8
100
AcDbSymbolTable
 70
2
  0
VPORT
  5
1F4
100
AcDbSymbolTableRecord
100
AcDbViewportTableRecord
  2
*ACTIVE
 70
0
 10
0.0
 20
0.0
 11
1.0
 21
1.0
 12
17.9606006068
 22
25.4014208582
 13
0.0
 23
0.0
 14
1.0
 24
1.0
 15
0.0
 25
0.0
 16
0.0
 26
0.0
 36
1.0
 17
0.0
 27
0.0
 37
0.0
 40
50.8028417163
 41
0.7070707071
 42
50.0
 43
0.0
 44
0.0
 50
0.0
 51
0.0
 71
0
 72
100
 73
1
 74
1
 75
0
 76
0
 77
0
 78
0
  0
ENDTAB
  0
TABLE
  2
LTYPE
  5
5
100
AcDbSymbolTable
 70
6
  0
LTYPE
  5
14
100
AcDbSymbolTableRecord
100
AcDbLinetypeTableRecord
  2
BYBLOCK
 70
0
  3

 72
65
 73
0
 40
0.0
  0
LTYPE
  5
15
100
AcDbSymbolTableRecord
100
AcDbLinetypeTableRecord
  2
BYLAYER
 70
0
  3

 72
65
 73
0
 40
0.0
  0
LTYPE
  5
16
100
AcDbSymbolTableRecord
100
AcDbLinetypeTableRecord
  2
CONTINUOUS
 70
64
  3
Solid line
 72
65
 73
0
 40
0.0
  0
LTYPE
  5
1F5
100
AcDbSymbolTableRecord
100
AcDbLinetypeTableRecord
  2
CENTER
 70
64
  3
____ _ ____ _ ____ _ ____ _ ____ _ ____ _ ____
 72
65
 73
4
 40
0.6
 49
0.375
 74
0
 49
-0.075
 74
0
 49
0.075
 74
0
 49
-0.075
 74
0
  0
LTYPE
  5
1F6
100
AcDbSymbolTableRecord
100
AcDbLinetypeTableRecord
  2
HIDDEN
 70
64
  3
- - - - - - - - - - - - - - - - - - - -
 72
65
 73
2
 40
0.2
 49
0.1
 74
0
 49
-0.1
 74
0
  0
LTYPE
  5
1F7
100
AcDbSymbolTableRecord
100
AcDbLinetypeTableRecord
  2
PHANTOM
 70
64
  3
_____ _ _ _____ _ _ _____ _ _ _____
 72
65
 73
6
 40
0.8
 49
0.45
 74
0
 49
-0.05
 74
0
 49
0.1
 74
0
 49
-0.05
 74
0
 49
0.1
 74
0
 49
-0.05
 74
0
  0
LTYPE
  5
1F8
100
AcDbSymbolTableRecord
100
AcDbLinetypeTableRecord
  2
DOT
 70
64
  3
. . . . . . . . . . . . . . . . . . . .
 72
65
 73
2
 40
0.2
 49
0.1
 74
0
 49
-0.1
 74
0
  0
LTYPE
  5
1F9
100
AcDbSymbolTableRecord
100
AcDbLinetypeTableRecord
  2
DASHED
 70
64
  3
- - - - - - - - - - - - - - - - - - - -
 72
65
 73
2
 40
0.2
 49
0.1
 74
0
 49
-0.1
 74
0
  0
ENDTAB
  0
TABLE
  2
LAYER
  5
2
100
AcDbSymbolTable
 70
36
  0
LAYER
  5
10
100
AcDbSymbolTableRecord
100
AcDbLayerTableRecord
  2
0
 70
0
 62
7
  6
CONTINUOUS
370
-3
390
F
  0
LAYER
  5
1FA
100
AcDbSymbolTableRecord
100
AcDbLayerTableRecord
  2
DEFAULT_1
 70
0
 62
7
  6
CENTER
370
-3
390
F
  0
LAYER
  5
1FB
100
AcDbSymbolTableRecord
100
AcDbLayerTableRecord
  2
DEFAULT_2
 70
0
 62
7
  6
HIDDEN
370
-3
390
F
  0
LAYER
  5
1FC
100
AcDbSymbolTableRecord
100
AcDbLayerTableRecord
  2
DEFAULT_3
 70
0
 62
7
  6
PHANTOM
370
-3
390
F
  0
LAYER
  5
1FD
100
AcDbSymbolTableRecord
100
AcDbLayerTableRecord
  2
00_COMPONENTS
 70
0
 62
7
  6
CONTINUOUS
370
-3
390
F
  0
LAYER
  5
1FE
100
AcDbSymbolTableRecord
100
AcDbLayerTableRecord
  2
01_1_DEFAULT_DATUMS
 70
0
 62
7
  6
CONTINUOUS
370
-3
390
F
  0
LAYER
  5
1FF
100
AcDbSymbolTableRecord
100
AcDbLayerTableRecord
  2
01_PLANES
 70
0
 62
7
  6
CONTINUOUS
370
-3
390
F
  0
LAYER
  5
200
100
AcDbSymbolTableRecord
100
AcDbLayerTableRecord
  2
02_COORD_SYS
 70
0
 62
7
  6
CONTINUOUS
370
-3
390
F
  0
LAYER
  5
201
100
AcDbSymbolTableRecord
100
AcDbLayerTableRecord
  2
03_AXES
 70
0
 62
7
  6
CONTINUOUS
370
-3
390
F
  0
LAYER
  5
202
100
AcDbSymbolTableRecord
100
AcDbLayerTableRecord
  2
04_POINTS
 70
0
 62
7
  6
CONTINUOUS
370
-3
390
F
  0
LAYER
  5
203
100
AcDbSymbolTableRecord
100
AcDbLayerTableRecord
  2
05_CURVES
 70
0
 62
7
  6
CONTINUOUS
370
-3
390
F
  0
LAYER
  5
204
100
AcDbSymbolTableRecord
100
AcDbLayerTableRecord
  2
06_SURFS
 70
0
 62
7
  6
CONTINUOUS
370
-3
390
F
  0
LAYER
  5
205
100
AcDbSymbolTableRecord
100
AcDbLayerTableRecord
  2
07_COSMETICS
 70
0
 62
7
  6
CONTINUOUS
370
-3
390
F
  0
LAYER
  5
206
100
AcDbSymbolTableRecord
100
AcDbLayerTableRecord
  2
10_NOTES
 70
0
 62
7
  6
CONTINUOUS
370
-3
390
F
  0
LAYER
  5
207
100
AcDbSymbolTableRecord
100
AcDbLayerTableRecord
  2
11_NOTES_PUB
 70
0
 62
7
  6
CONTINUOUS
370
-3
390
F
  0
LAYER
  5
208
100
AcDbSymbolTableRecord
100
AcDbLayerTableRecord
  2
13_REF_GTOL
 70
0
 62
7
  6
CONTINUOUS
370
-3
390
F
  0
LAYER
  5
209
100
AcDbSymbolTableRecord
100
AcDbLayerTableRecord
  2
16_MISC
 70
0
 62
7
  6
CONTINUOUS
370
-3
390
F
  0
LAYER
  5
20A
100
AcDbSymbolTableRecord
100
AcDbLayerTableRecord
  2
17_NO_PRINT
 70
0
 62
7
  6
CONTINUOUS
370
-3
390
F
  0
LAYER
  5
20B
100
AcDbSymbolTableRecord
100
AcDbLayerTableRecord
  2
18_DATUM_CAMS_JOINTS
 70
0
 62
7
  6
CONTINUOUS
370
-3
390
F
  0
LAYER
  5
20C
100
AcDbSymbolTableRecord
100
AcDbLayerTableRecord
  2
19_DATUM_FUNCTIONAL
 70
0
 62
7
  6
CONTINUOUS
370
-3
390
F
  0
LAYER
  5
20D
100
AcDbSymbolTableRecord
100
AcDbLayerTableRecord
  2
20_DATUM_KINEMATIC_SCHEME
 70
0
 62
7
  6
CONTINUOUS
370
-3
390
F
  0
ENDTAB
  0
TABLE
  2
STYLE
  5
3
100
AcDbSymbolTable
 70
1
  0
STYLE
  5
11
100
AcDbSymbolTableRecord
100
AcDbTextStyleTableRecord
  2
STANDARD
 70
0
 40
0.0
 41
1.0
 50
0.0
 71
0
 42
0.2
  3
ARIAL.TTF
  4

  0
STYLE
  5
20E
100
AcDbSymbolTableRecord
100
AcDbTextStyleTableRecord
  2
TEXTSTYLE_1
 70
0
 40
0.0
 41
0.8
 50
0.0
 71
0
 42
0.2
  3
gdt
  4

  0
ENDTAB
  0
TABLE
  2
VIEW
  5
6
100
AcDbSymbolTable
 70
0
  0
ENDTAB
  0
TABLE
  2
UCS
  5
7
100
AcDbSymbolTable
 70
0
  0
ENDTAB
  0
TABLE
  2
APPID
  5
9
100
AcDbSymbolTable
 70
1
  0
APPID
  5
20F
100
AcDbSymbolTableRecord
100
AcDbRegAppTableRecord
  2
ACAD
 70
0
  0
ENDTAB
  0
TABLE
  2
BLOCK_RECORD
  5
1
100
AcDbSymbolTable
 70
0
  0
BLOCK_RECORD
  5
210
100
AcDbSymbolTableRecord
100
AcDbBlockTableRecord
  2
*Model_Space
  0
BLOCK_RECORD
  5
211
100
AcDbSymbolTableRecord
100
AcDbBlockTableRecord
  2
*Paper_Space
  0
BLOCK_RECORD
  5
212
100
AcDbSymbolTableRecord
100
AcDbBlockTableRecord
  2
_FILLED
  0
ENDTAB
  0
TABLE
  2
DIMSTYLE
  5
A
100
AcDbSymbolTable
 70
1
100
AcDbDimStyleTable
 71
0
  0
DIMSTYLE
105
213
100
AcDbSymbolTableRecord
100
AcDbDimStyleTableRecord
  2
STANDARD
 70
0
  3

  4

 40
1.0
 41
0.4276333478
 42
1.0
 43
0.38
 44
1.0
 45
0.0
 46
0.0
 47
0.01
 48
0.01
140
0.5986866869
141
0.09
142
0.0
143
25.4
144
1.0
145
0.0
146
1.0
147
0.625
 71
1
 72
0
 73
0
 74
0
 75
0
 76
0
 77
1
 78
8
 79
2
170
0
171
1
172
0
173
0
174
0
175
0
176
0
177
0
178
0
270
2
179
2
271
2
272
2
273
2
274
2
275
0
280
0
281
0
282
0
283
1
284
8
285
0
286
0
287
3
288
0
340
11
278
46
341
212
342
212
343
212
344
212
  0
ENDTAB
  0
ENDSEC
  0
SECTION
  2
BLOCKS
  0
BLOCK
  5
20
100
AcDbEntity
  8
0
100
AcDbBlockBegin
  2
*Model_Space
 70
0
 10
0.0
 20
0.0
 30
0.0
  3
*Model_Space
  1

  0
ENDBLK
  5
21
100
AcDbEntity
  8
0
100
AcDbBlockEnd
  0
BLOCK
  5
1C
100
AcDbEntity
  8
0
100
AcDbBlockBegin
  2
*Paper_Space
 70
0
 10
0.0
 20
0.0
 30
0.0
  3
*Paper_Space
  1

  0
ENDBLK
  5
1D
100
AcDbEntity
  8
0
100
AcDbBlockEnd
  0
BLOCK
  5
214
100
AcDbEntity
  8
0
100
AcDbBlockBegin
  2
_FILLED
 70
64
 10
0.0
 20
0.0
  3
_FILLED
  1

  0
SOLID
  5
215
100
AcDbEntity
  8
0
  6
BYBLOCK
 62
0
100
AcDbTrace
 10
0.0
 20
0.0
 11
-1.0
 21
0.25
 12
-1.0
 22
-0.25
 13
-1.0
 23
-0.25
  0
ENDBLK
  5
216
100
AcDbEntity
  8
0
  6
BYBLOCK
 62
0
100
AcDbBlockEnd
  0
ENDSEC
  0
SECTION
  2
ENTITIES
  0
LINE
  5
217
100
AcDbEntity
  8
0
100
AcDbLine
 62
7
  6
BYLAYER
 10
3.814154474
 20
24.9754306018
 11
3.814154474
 21
26.0761397084
  0
LINE
  5
218
100
AcDbEntity
  8
0
100
AcDbLine
 62
7
  6
BYLAYER
 10
3.994154474
 20
20.7401571058
 11
3.994154474
 21
30.244411615
  0
LINE
  5
219
100
AcDbEntity
  8
0
100
AcDbLine
 62
7
  6
BYLAYER
 10
4.194154474
 20
20.5431745261
 11
4.194154474
 21
20.6051179467
  0
LINE
  5
21A
100
AcDbEntity
  8
0
100
AcDbLine
 62
7
  6
BYLAYER
 10
4.194154474
 20
20.8207877902
 11
4.194154474
 21
21.0023967101
  0
LINE
  5
21B
100
AcDbEntity
  8
0
100
AcDbLine
 62
7
  6
BYLAYER
 10
4.194154474
 20
21.4190388537
 11
4.194154474
 21
21.7079369253
  0
LINE
  5
21C
100
AcDbEntity
  8
0
100
AcDbLine
 62
7
  6
BYLAYER
 10
4.194154474
 20
22.2971578953
 11
4.194154474
 21
22.6736571923
  0
LINE
  5
21D
100
AcDbEntity
  8
0
100
AcDbLine
 62
7
  6
BYLAYER
 10
4.194154474
 20
23.3953025536
 11
4.194154474
 21
23.8337452711
  0
LINE
  5
21E
100
AcDbEntity
  8
0
100
AcDbLine
 62
7
  6
BYLAYER
 10
4.194154474
 20
24.6386360847
 11
4.194154474
 21
25.1091430762
  0
LINE
  5
21F
100
AcDbEntity
  8
0
100
AcDbLine
 62
7
  6
BYLAYER
 10
4.194154474
 20
25.9424273633
 11
4.194154474
 21
26.4129343548
  0
LINE
  5
220
100
AcDbEntity
  8
0
100
AcDbLine
 62
7
  6
BYLAYER
 10
4.194154474
 20
27.2178251684
 11
4.194154474
 21
27.656267886
  0
LINE
  5
221
100
AcDbEntity
  8
0
100
AcDbLine
 62
7
  6
BYLAYER
 10
4.194154474
 20
28.3779132472
 11
4.194154474
 21
28.7544125442
  0
LINE
  5
222
100
AcDbEntity
  8
0
100
AcDbLine
 62
7
  6
BYLAYER
 10
4.194154474
 20
29.3436335143
 11
4.194154474
 21
29.6325315858
  0
LINE
  5
223
100
AcDbEntity
  8
0
100
AcDbLine
 62
7
  6
BYLAYER
 10
4.194154474
 20
30.0491737294
 11
4.194154474
 21
30.2307826493
  0
LINE
  5
224
100
AcDbEntity
  8
0
100
AcDbLine
 62
7
  6
BYLAYER
 10
4.194154474
 20
30.4464524928
 11
4.194154474
 21
30.5083959134
  0
LINE
  5
225
100
AcDbEntity
  8
0
100
AcDbLine
 62
7
  6
BYLAYER
 10
5.794154474
 20
20.0557852198
 11
5.794154474
 21
30.9957852198
  0
LINE
  5
226
100
AcDbEntity
  8
0
100
AcDbLine
 62
7
  6
BYLAYER
 10
6.294154474
 20
33.5257852198
 11
6.294154474
 21
17.5257852198
  0
LINE
  5
227
100
AcDbEntity
  8
0
100
AcDbLine
 62
7
  6
BYLAYER
 10
6.687964739
 20
18.0318799024
 11
6.687964739
 21
33.0196905371
  0
LWPOLYLINE
  5
228
100
AcDbEntity
  8
0
100
AcDbPolyline
 62
7
  6
BYLAYER
 90
6
 70
0
 10
24.2941544832
 20
17.5260550693
 10
26.5643033473
 20
17.854928063
 10
28.6576189334
 20
18.8208479022
 10
30.3941842308
 20
20.3501329594
 10
31.6187879494
 20
22.3087711132
 10
32.231410027
 20
24.5257980719
  0
LINE
  5
229
100
AcDbEntity
  8
0
100
AcDbLine
 62
7
  6
BYLAYER
 10
10.494154474
 20
18.0907852198
 11
10.494154474
 21
32.9607852198
  0
LINE
  5
22A
100
AcDbEntity
  8
0
100
AcDbLine
 62
7
  6
BYLAYER
 10
24.294154474
 20
17.5257852198
 11
6.294154474
 21
17.5257852198
  0
LINE
  5
22B
100
AcDbEntity
  8
0
100
AcDbLine
 62
7
  6
BYLAYER
 10
6.294154474
 20
17.8114995055
 11
22.1752542557
 21
17.8114995055
  0
LINE
  5
22C
100
AcDbEntity
  8
0
100
AcDbLine
 62
7
  6
BYLAYER
 10
10.494154474
 20
18.0907852198
 11
6.687964739
 21
18.0318799024
  0
LINE
  5
22D
100
AcDbEntity
  8
0
100
AcDbLine
 62
7
  6
BYLAYER
 10
14.1402316571
 20
18.1007744723
 11
10.494154474
 21
18.0907852198
  0
LINE
  5
22E
100
AcDbEntity
  8
0
100
AcDbLine
 62
7
  6
BYLAYER
 10
14.1402316571
 20
18.5257852198
 11
18.094154474
 21
18.5257852198
  0
LINE
  5
22F
100
AcDbEntity
  8
0
100
AcDbLine
 62
7
  6
BYLAYER
 10
16.394154474
 20
18.7257852198
 11
14.394154474
 21
18.7257852198
  0
LINE
  5
230
100
AcDbEntity
  8
0
100
AcDbLine
 62
7
  6
BYLAYER
 10
18.094154474
 20
18.8347113477
 11
14.1402316571
 21
18.8347113477
  0
LINE
  5
231
100
AcDbEntity
  8
0
100
AcDbLine
 62
7
  6
BYLAYER
 10
24.294154474
 20
19.1217448157
 11
6.294154474
 21
19.1217448157
  0
LINE
  5
232
100
AcDbEntity
  8
0
100
AcDbLine
 62
7
  6
BYLAYER
 10
14.394154474
 20
20.0557852198
 11
5.794154474
 21
20.0557852198
  0
LINE
  5
233
100
AcDbEntity
  8
0
100
AcDbLine
 62
7
  6
BYLAYER
 10
28.6054049366
 20
20.9257852198
 11
25.6115518279
 21
20.9101092983
  0
LINE
  5
234
100
AcDbEntity
  8
0
100
AcDbLine
 62
7
  6
BYLAYER
 10
23.0251637157
 20
20.8965668781
 11
19.294154474
 21
20.8770311808
  0
LINE
  5
235
100
AcDbEntity
  8
0
100
AcDbLine
 62
7
  6
BYLAYER
 10
4.194154474
 20
20.5431745261
 11
5.794154474
 21
20.5431745261
  0
LINE
  5
236
100
AcDbEntity
  8
0
100
AcDbLine
 62
7
  6
BYLAYER
 10
5.794154474
 20
20.6051179467
 11
4.194154474
 21
20.6051179467
  0
LINE
  5
237
100
AcDbEntity
  8
0
100
AcDbLine
 62
7
  6
BYLAYER
 10
16.5941777398
 20
20.6319793259
 11
18.094154474
 21
20.6319793259
  0
LINE
  5
238
100
AcDbEntity
  8
0
100
AcDbLine
 62
7
  6
BYLAYER
 10
18.094154474
 20
20.660581075
 11
16.594154474
 21
20.660581075
  0
LINE
  5
239
100
AcDbEntity
  8
0
100
AcDbLine
 62
7
  6
BYLAYER
 10
18.094154474
 20
20.7757129663
 11
16.6353551366
 21
20.7757129663
  0
LINE
  5
23A
100
AcDbEntity
  8
0
100
AcDbLine
 62
7
  6
BYLAYER
 10
4.194154474
 20
20.8207877902
 11
5.794154474
 21
20.8207877902
  0
LINE
  5
23B
100
AcDbEntity
  8
0
100
AcDbLine
 62
7
  6
BYLAYER
 10
18.094154474
 20
20.8770311808
 11
19.294154474
 21
20.8770311808
  0
LINE
  5
23C
100
AcDbEntity
  8
0
100
AcDbLine
 62
7
  6
BYLAYER
 10
17.994154474
 20
21.0007852198
 11
28.494154474
 21
21.0007852198
  0
LINE
  5
23D
100
AcDbEntity
  8
0
100
AcDbLine
 62
7
  6
BYLAYER
 10
5.794154474
 20
21.0023967101
 11
4.194154474
 21
21.0023967101
  0
LINE
  5
23E
100
AcDbEntity
  8
0
100
AcDbLine
 62
7
  6
BYLAYER
 10
17.094154474
 20
21.0647917706
 11
18.094154474
 21
21.0647917706
  0
LINE
  5
23F
100
AcDbEntity
  8
0
100
AcDbLine
 62
7
  6
BYLAYER
 10
16.394154474
 20
21.2222544835
 11
17.994154474
 21
21.2222544835
  0
LINE
  5
240
100
AcDbEntity
  8
0
100
AcDbLine
 62
7
  6
BYLAYER
 10
14.1402316571
 20
18.1007839702
 11
14.1402316571
 21
32.9507865382
  0
LINE
  5
241
100
AcDbEntity
  8
0
100
AcDbLine
 62
7
  6
BYLAYER
 10
14.1441544583
 20
31.489435653
 11
14.1441544583
 21
26.6548436712
  0
LINE
  5
242
100
AcDbEntity
  8
0
100
AcDbLine
 62
7
  6
BYLAYER
 10
14.1441544583
 20
19.5621347865
 11
14.1441544583
 21
24.3967267683
  0
LINE
  5
243
100
AcDbEntity
  8
0
100
AcDbLine
 62
7
  6
BYLAYER
 10
14.394154474
 20
18.7257852198
 11
14.394154474
 21
32.3257852198
  0
LINE
  5
244
100
AcDbEntity
  8
0
100
AcDbLine
 62
7
  6
BYLAYER
 10
28.8180378584
 20
23.9212872182
 11
30.294154474
 21
24.2267014027
  0
LINE
  5
245
100
AcDbEntity
  8
0
100
AcDbLine
 62
7
  6
BYLAYER
 10
31.0395427822
 20
22.482803693
 11
30.360051238
 21
22.4531364515
  0
LINE
  5
246
100
AcDbEntity
  8
0
100
AcDbLine
 62
7
  6
BYLAYER
 10
4.194154474
 20
21.4190388537
 11
5.794154474
 21
21.4190388537
  0
LINE
  5
247
100
AcDbEntity
  8
0
100
AcDbLine
 62
7
  6
BYLAYER
 10
16.601290172
 20
21.6460896288
 11
18.094154474
 21
21.6460896288
  0
LINE
  5
248
100
AcDbEntity
  8
0
100
AcDbLine
 62
7
  6
BYLAYER
 10
5.794154474
 20
21.7079369253
 11
4.194154474
 21
21.7079369253
  0
LINE
  5
249
100
AcDbEntity
  8
0
100
AcDbLine
 62
7
  6
BYLAYER
 10
18.094154474
 20
21.8938111204
 11
17.094154474
 21
21.8938111204
  0
LINE
  5
24A
100
AcDbEntity
  8
0
100
AcDbLine
 62
7
  6
BYLAYER
 10
4.194154474
 20
22.2971578953
 11
5.794154474
 21
22.2971578953
  0
LINE
  5
24B
100
AcDbEntity
  8
0
100
AcDbLine
 62
7
  6
BYLAYER
 10
28.444154474
 20
22.3214912258
 11
28.144154474
 21
22.3214912258
  0
LINE
  5
24C
100
AcDbEntity
  8
0
100
AcDbLine
 62
7
  6
BYLAYER
 10
20.444154474
 20
22.3214912258
 11
20.144154474
 21
22.3214912258
  0
LINE
  5
24D
100
AcDbEntity
  8
0
100
AcDbLine
 62
7
  6
BYLAYER
 10
5.794154474
 20
22.6736571923
 11
4.194154474
 21
22.6736571923
  0
LINE
  5
24E
100
AcDbEntity
  8
0
100
AcDbLine
 62
7
  6
BYLAYER
 10
27.9941544683
 20
22.8792315212
 11
29.9941544064
 21
22.8792315212
  0
LINE
  5
24F
100
AcDbEntity
  8
0
100
AcDbLine
 62
7
  6
BYLAYER
 10
27.994154474
 20
22.899667947
 11
29.994154474
 21
22.899667947
  0
LINE
  5
250
100
AcDbEntity
  8
0
100
AcDbLine
 62
7
  6
BYLAYER
 10
27.9941544683
 20
23.0792315212
 11
29.9941544064
 21
23.0792315212
  0
LINE
  5
251
100
AcDbEntity
  8
0
100
AcDbLine
 62
7
  6
BYLAYER
 10
3.994154474
 20
23.2260196811
 11
5.794154474
 21
23.2260196811
  0
LINE
  5
252
100
AcDbEntity
  8
0
100
AcDbLine
 62
7
  6
BYLAYER
 10
4.194154474
 20
23.3953025536
 11
5.794154474
 21
23.3953025536
  0
LINE
  5
253
100
AcDbEntity
  8
0
100
AcDbLine
 62
7
  6
BYLAYER
 10
27.494154474
 20
23.4185062016
 11
27.694154474
 21
23.4185062016
  0
LWPOLYLINE
  5
254
100
AcDbEntity
  8
0
100
AcDbPolyline
 62
7
  6
BYLAYER
 90
5
 70
0
 10
29.9941547612
 20
22.8792325499
 10
30.0509741937
 20
22.8772661248
 10
30.1348461506
 20
22.8669254055
 10
30.2385439479
 20
22.8403751149
 10
30.294154474
 20
22.8173973984
  0
LINE
  5
255
100
AcDbEntity
  8
0
100
AcDbLine
 62
7
  6
BYLAYER
 10
18.22825771
 20
22.4531364515
 11
17.5487661659
 21
22.482803693
  0
LINE
  5
256
100
AcDbEntity
  8
0
100
AcDbLine
 62
7
  6
BYLAYER
 10
16.394154474
 20
32.3257852198
 11
16.394154474
 21
18.7257852198
  0
LINE
  5
257
100
AcDbEntity
  8
0
100
AcDbLine
 62
7
  6
BYLAYER
 10
16.594154474
 20
30.4192573566
 11
16.594154474
 21
29.4737705752
  0
LINE
  5
258
100
AcDbEntity
  8
0
100
AcDbLine
 62
7
  6
BYLAYER
 10
16.594154474
 20
21.5777998644
 11
16.594154474
 21
20.6323130829
  0
LINE
  5
259
100
AcDbEntity
  8
0
100
AcDbLine
 62
7
  6
BYLAYER
 10
17.656901378
 20
26.9951015336
 11
17.0027433116
 21
26.7888462875
  0
LINE
  5
25A
100
AcDbEntity
  8
0
100
AcDbLine
 62
7
  6
BYLAYER
 10
17.3132649421
 20
26.8208455826
 11
17.6396177972
 21
26.9237442425
  0
LINE
  5
25B
100
AcDbEntity
  8
0
100
AcDbLine
 62
7
  6
BYLAYER
 10
14.1441544583
 20
24.3967267683
 11
18.094154474
 21
24.4047753257
  0
LINE
  5
25C
100
AcDbEntity
  8
0
100
AcDbLine
 62
7
  6
BYLAYER
 10
5.794154474
 20
23.8337452711
 11
4.194154474
 21
23.8337452711
  0
LINE
  5
25D
100
AcDbEntity
  8
0
100
AcDbLine
 62
7
  6
BYLAYER
 10
19.7922271981
 20
23.8607553642
 11
18.594154474
 21
23.8598207669
  0
LINE
  5
25E
100
AcDbEntity
  8
0
100
AcDbLine
 62
7
  6
BYLAYER
 10
3.994154474
 20
24.213978562
 11
5.794154474
 21
24.213978562
  0
LINE
  5
25F
100
AcDbEntity
  8
0
100
AcDbLine
 62
7
  6
BYLAYER
 10
18.594154474
 20
24.4148445762
 11
19.6244979486
 21
24.4148445762
  0
LINE
  5
260
100
AcDbEntity
  8
0
100
AcDbLine
 62
7
  6
BYLAYER
 10
28.9638237221
 20
24.4148445762
 11
30.294154474
 21
24.4148445762
  0
LINE
  5
261
100
AcDbEntity
  8
0
100
AcDbLine
 62
7
  6
BYLAYER
 10
17.6396881099
 20
24.1278040275
 11
16.9910281258
 21
24.3323257349
  0
LINE
  5
262
100
AcDbEntity
  8
0
100
AcDbLine
 62
7
  6
BYLAYER
 10
17.094154474
 20
21.0647917706
 11
17.094154474
 21
21.8938111204
  0
LINE
  5
263
100
AcDbEntity
  8
0
100
AcDbLine
 62
7
  6
BYLAYER
 10
17.094154474
 20
29.1577593192
 11
17.094154474
 21
29.986778669
  0
LINE
  5
264
100
AcDbEntity
  8
0
100
AcDbLine
 62
7
  6
BYLAYER
 10
17.994154474
 20
21.0008200466
 11
17.994154474
 21
21.2222544835
  0
LINE
  5
265
100
AcDbEntity
  8
0
100
AcDbLine
 62
7
  6
BYLAYER
 10
17.994154474
 20
29.829315956
 11
17.994154474
 21
30.0507503531
  0
LINE
  5
266
100
AcDbEntity
  8
0
100
AcDbLine
 62
7
  6
BYLAYER
 10
18.094154474
 20
32.5257852198
 11
18.094154474
 21
18.5257852198
  0
LWPOLYLINE
  5
267
100
AcDbEntity
  8
0
100
AcDbPolyline
 62
7
  6
BYLAYER
 90
3
 70
0
 10
17.5953379276
 20
25.6517128479
 10
17.5963992552
 20
25.6992229249
 10
17.5970567998
 20
25.7229804421
  0
LWPOLYLINE
  5
268
100
AcDbEntity
  8
0
100
AcDbPolyline
 62
7
  6
BYLAYER
 90
3
 70
0
 10
17.774204342
 20
27.0685911947
 10
17.7858014313
 20
27.116804158
 10
17.7909882342
 20
27.1378741592
  0
LINE
  5
269
100
AcDbEntity
  8
0
100
AcDbLine
 62
7
  6
BYLAYER
 10
17.5046093955
 20
25.153828728
 11
16.9309860774
 21
24.7883903711
  0
LINE
  5
26A
100
AcDbEntity
  8
0
100
AcDbLine
 62
7
  6
BYLAYER
 10
14.1402316571
 20
24.6257894051
 11
18.094154474
 21
24.6257894051
  0
LINE
  5
26B
100
AcDbEntity
  8
0
100
AcDbLine
 62
7
  6
BYLAYER
 10
4.194154474
 20
24.6386360847
 11
5.794154474
 21
24.6386360847
  0
LINE
  5
26C
100
AcDbEntity
  8
0
100
AcDbLine
 62
7
  6
BYLAYER
 10
3.814154474
 20
24.9754179621
 11
3.994154474
 21
24.9754179621
  0
LINE
  5
26D
100
AcDbEntity
  8
0
100
AcDbLine
 62
7
  6
BYLAYER
 10
3.994154474
 20
24.984464069
 11
3.814154474
 21
24.984464069
  0
LINE
  5
26E
100
AcDbEntity
  8
0
100
AcDbLine
 62
7
  6
BYLAYER
 10
5.794154474
 20
25.1091430762
 11
4.194154474
 21
25.1091430762
  0
LINE
  5
26F
100
AcDbEntity
  8
0
100
AcDbLine
 62
7
  6
BYLAYER
 10
3.994154474
 20
25.2913348988
 11
5.794154474
 21
25.2913348988
  0
LINE
  5
270
100
AcDbEntity
  8
0
100
AcDbLine
 62
7
  6
BYLAYER
 10
3.814154474
 20
25.3848313267
 11
3.994154474
 21
25.3848313267
  0
LINE
  5
271
100
AcDbEntity
  8
0
100
AcDbLine
 62
7
  6
BYLAYER
 10
3.994154474
 20
25.6667391129
 11
3.814154474
 21
25.6667391129
  0
LINE
  5
272
100
AcDbEntity
  8
0
100
AcDbLine
 62
7
  6
BYLAYER
 10
17.5027738691
 20
25.8243817578
 11
16.9242878627
 21
26.1929179887
  0
LINE
  5
273
100
AcDbEntity
  8
0
100
AcDbLine
 62
7
  6
BYLAYER
 10
17.2159466982
 20
26.0816401314
 11
17.5045478712
 21
25.8977809069
  0
LINE
  5
274
100
AcDbEntity
  8
0
100
AcDbLine
 62
7
  6
BYLAYER
 10
18.594154474
 20
27.1917496727
 11
18.594154474
 21
23.8598207669
  0
LINE
  5
275
100
AcDbEntity
  8
0
100
AcDbLine
 62
7
  6
BYLAYER
 10
5.794154474
 20
25.7602355407
 11
3.994154474
 21
25.7602355407
  0
LINE
  5
276
100
AcDbEntity
  8
0
100
AcDbLine
 62
7
  6
BYLAYER
 10
4.194154474
 20
25.9424273633
 11
5.794154474
 21
25.9424273633
  0
LINE
  5
277
100
AcDbEntity
  8
0
100
AcDbLine
 62
7
  6
BYLAYER
 10
3.814154474
 20
26.0671063706
 11
3.994154474
 21
26.0671063706
  0
LINE
  5
278
100
AcDbEntity
  8
0
100
AcDbLine
 62
7
  6
BYLAYER
 10
3.814154474
 20
26.0761524775
 11
3.994154474
 21
26.0761524775
  0
LINE
  5
279
100
AcDbEntity
  8
0
100
AcDbLine
 62
7
  6
BYLAYER
 10
5.794154474
 20
26.4129343548
 11
4.194154474
 21
26.4129343548
  0
LINE
  5
27A
100
AcDbEntity
  8
0
100
AcDbLine
 62
7
  6
BYLAYER
 10
18.094154474
 20
26.4257810345
 11
14.1402316571
 21
26.4257810345
  0
LINE
  5
27B
100
AcDbEntity
  8
0
100
AcDbLine
 62
7
  6
BYLAYER
 10
19.6244979486
 20
26.6367258634
 11
18.594154474
 21
26.6367258634
  0
LINE
  5
27C
100
AcDbEntity
  8
0
100
AcDbLine
 62
7
  6
BYLAYER
 10
28.9638237221
 20
26.6367258634
 11
30.294154474
 21
26.6367258634
  0
LINE
  5
27D
100
AcDbEntity
  8
0
100
AcDbLine
 62
7
  6
BYLAYER
 10
18.094154474
 20
26.6467951138
 11
14.1441544583
 21
26.6548436712
  0
LINE
  5
27E
100
AcDbEntity
  8
0
100
AcDbLine
 62
7
  6
BYLAYER
 10
19.294154474
 20
20.8770311808
 11
19.294154474
 21
30.1745392587
  0
LINE
  5
27F
100
AcDbEntity
  8
0
100
AcDbLine
 62
7
  6
BYLAYER
 10
20.144154474
 20
22.3214912258
 11
20.144154474
 21
23.1138358007
  0
LINE
  5
280
100
AcDbEntity
  8
0
100
AcDbLine
 62
7
  6
BYLAYER
 10
20.144154474
 20
27.9377346388
 11
20.144154474
 21
28.7300792138
  0
LINE
  5
281
100
AcDbEntity
  8
0
100
AcDbLine
 62
7
  6
BYLAYER
 10
17.832226958
 20
23.4092392642
 11
17.372731787
 21
22.907788278
  0
LWPOLYLINE
  5
282
100
AcDbEntity
  8
0
100
AcDbPolyline
 62
7
  6
BYLAYER
 90
4
 70
0
 10
27.9042556597
 20
28.1637743518
 10
27.6981267328
 20
28.0687067699
 10
27.5464901038
 20
27.8749858351
 10
27.494161647
 20
27.6330642473
  0
LWPOLYLINE
  5
283
100
AcDbEntity
  8
0
100
AcDbPolyline
 62
7
  6
BYLAYER
 90
5
 70
0
 10
30.294154474
 20
28.2341749459
 10
30.2399170661
 20
28.2116701972
 10
30.1389279872
 20
28.1853852255
 10
30.0525856973
 20
28.1744174366
 10
29.9941559849
 20
28.1723378651
  0
LWPOLYLINE
  5
284
100
AcDbEntity
  8
0
100
AcDbPolyline
 62
7
  6
BYLAYER
 90
3
 70
0
 10
27.9941544518
 20
28.1723375771
 10
27.948487043
 20
28.1701703569
 10
27.9042650048
 20
28.1637675413
  0
LINE
  5
285
100
AcDbEntity
  8
0
100
AcDbLine
 62
7
  6
BYLAYER
 10
5.794154474
 20
26.8375918775
 11
3.994154474
 21
26.8375918775
  0
LINE
  5
286
100
AcDbEntity
  8
0
100
AcDbLine
 62
7
  6
BYLAYER
 10
4.194154474
 20
27.2178251684
 11
5.794154474
 21
27.2178251684
  0
LINE
  5
287
100
AcDbEntity
  8
0
100
AcDbLine
 62
7
  6
BYLAYER
 10
27.694154474
 20
27.633064237
 11
27.494154474
 21
27.633064237
  0
LINE
  5
288
100
AcDbEntity
  8
0
100
AcDbLine
 62
7
  6
BYLAYER
 10
5.794154474
 20
27.656267886
 11
4.194154474
 21
27.656267886
  0
LINE
  5
289
100
AcDbEntity
  8
0
100
AcDbLine
 62
7
  6
BYLAYER
 10
5.794154474
 20
27.8255507584
 11
3.994154474
 21
27.8255507584
  0
LINE
  5
28A
100
AcDbEntity
  8
0
100
AcDbLine
 62
7
  6
BYLAYER
 10
18.594154474
 20
27.1917496727
 11
19.7922271981
 21
27.1908150754
  0
LINE
  5
28B
100
AcDbEntity
  8
0
100
AcDbLine
 62
7
  6
BYLAYER
 10
17.372731787
 20
28.1437821616
 11
17.832226958
 21
27.6423311753
  0
LINE
  5
28C
100
AcDbEntity
  8
0
100
AcDbLine
 62
7
  6
BYLAYER
 10
20.444154474
 20
28.7300792138
 11
20.444154474
 21
28.5506525698
  0
LINE
  5
28D
100
AcDbEntity
  8
0
100
AcDbLine
 62
7
  6
BYLAYER
 10
20.444154474
 20
22.5009178698
 11
20.444154474
 21
22.3214912258
  0
LINE
  5
28E
100
AcDbEntity
  8
0
100
AcDbLine
 62
7
  6
BYLAYER
 10
18.22825771
 20
28.5984339881
 11
17.5487661659
 21
28.5687667465
  0
LINE
  5
28F
100
AcDbEntity
  8
0
100
AcDbLine
 62
7
  6
BYLAYER
 10
29.9941545615
 20
27.9723389183
 11
27.9941544682
 21
27.9723389183
  0
LINE
  5
290
100
AcDbEntity
  8
0
100
AcDbLine
 62
7
  6
BYLAYER
 10
29.994154474
 20
28.1519024926
 11
27.994154474
 21
28.1519024926
  0
LINE
  5
291
100
AcDbEntity
  8
0
100
AcDbLine
 62
7
  6
BYLAYER
 10
29.9941545615
 20
28.1723389183
 11
27.9941544682
 21
28.1723389183
  0
LINE
  5
292
100
AcDbEntity
  8
0
100
AcDbLine
 62
7
  6
BYLAYER
 10
4.194154474
 20
28.3779132472
 11
5.794154474
 21
28.3779132472
  0
LINE
  5
293
100
AcDbEntity
  8
0
100
AcDbLine
 62
7
  6
BYLAYER
 10
28.444154474
 20
28.7300792138
 11
28.144154474
 21
28.7300792138
  0
LINE
  5
294
100
AcDbEntity
  8
0
100
AcDbLine
 62
7
  6
BYLAYER
 10
20.444154474
 20
28.7300792138
 11
20.144154474
 21
28.7300792138
  0
LINE
  5
295
100
AcDbEntity
  8
0
100
AcDbLine
 62
7
  6
BYLAYER
 10
5.794154474
 20
28.7544125442
 11
4.194154474
 21
28.7544125442
  0
LINE
  5
296
100
AcDbEntity
  8
0
100
AcDbLine
 62
7
  6
BYLAYER
 10
21.544154474
 20
21.0363503928
 11
21.544154474
 21
19.8021500113
  0
LINE
  5
297
100
AcDbEntity
  8
0
100
AcDbLine
 62
7
  6
BYLAYER
 10
22.194154474
 20
19.5330813225
 11
22.194154474
 21
20.697998453
  0
LINE
  5
298
100
AcDbEntity
  8
0
100
AcDbLine
 62
7
  6
BYLAYER
 10
17.094154474
 20
29.1577593192
 11
18.094154474
 21
29.1577593192
  0
LINE
  5
299
100
AcDbEntity
  8
0
100
AcDbLine
 62
7
  6
BYLAYER
 10
4.194154474
 20
29.3436335143
 11
5.794154474
 21
29.3436335143
  0
LINE
  5
29A
100
AcDbEntity
  8
0
100
AcDbLine
 62
7
  6
BYLAYER
 10
18.094154474
 20
29.4054808107
 11
16.601290172
 21
29.4054808107
  0
LINE
  5
29B
100
AcDbEntity
  8
0
100
AcDbLine
 62
7
  6
BYLAYER
 10
5.794154474
 20
29.6325315858
 11
4.194154474
 21
29.6325315858
  0
LINE
  5
29C
100
AcDbEntity
  8
0
100
AcDbLine
 62
7
  6
BYLAYER
 10
17.994154474
 20
29.829315956
 11
16.394154474
 21
29.829315956
  0
LINE
  5
29D
100
AcDbEntity
  8
0
100
AcDbLine
 62
7
  6
BYLAYER
 10
18.094154474
 20
29.986778669
 11
17.094154474
 21
29.986778669
  0
LINE
  5
29E
100
AcDbEntity
  8
0
100
AcDbLine
 62
7
  6
BYLAYER
 10
31.0395427822
 20
28.5687667465
 11
30.360051238
 21
28.5984339881
  0
LINE
  5
29F
100
AcDbEntity
  8
0
100
AcDbLine
 62
7
  6
BYLAYER
 10
30.294154474
 20
26.8248690369
 11
28.8180378584
 21
27.1302832213
  0
LINE
  5
2A0
100
AcDbEntity
  8
0
100
AcDbLine
 62
7
  6
BYLAYER
 10
21.444154474
 20
20.5894404182
 11
21.294154474
 21
20.3296327971
  0
LINE
  5
2A1
100
AcDbEntity
  8
0
100
AcDbLine
 62
7
  6
BYLAYER
 10
27.144154474
 20
30.4621300213
 11
27.294154474
 21
30.7219376425
  0
LINE
  5
2A2
100
AcDbEntity
  8
0
100
AcDbLine
 62
7
  6
BYLAYER
 10
30.9486904529
 20
24.127825977
 11
31.2750440059
 21
24.230724857
  0
LINE
  5
2A3
100
AcDbEntity
  8
0
100
AcDbLine
 62
7
  6
BYLAYER
 10
31.5855656364
 20
24.262724152
 11
30.9314112318
 21
24.0564700605
  0
LINE
  5
2A4
100
AcDbEntity
  8
0
100
AcDbLine
 62
7
  6
BYLAYER
 10
4.194154474
 20
30.0491737294
 11
5.794154474
 21
30.0491737294
  0
LINE
  5
2A5
100
AcDbEntity
  8
0
100
AcDbLine
 62
7
  6
BYLAYER
 10
17.994154474
 20
30.0507852198
 11
28.494154474
 21
30.0507852198
  0
LINE
  5
2A6
100
AcDbEntity
  8
0
100
AcDbLine
 62
7
  6
BYLAYER
 10
18.094154474
 20
30.1745392587
 11
19.294154474
 21
30.1745392587
  0
LINE
  5
2A7
100
AcDbEntity
  8
0
100
AcDbLine
 62
7
  6
BYLAYER
 10
5.794154474
 20
30.2307826493
 11
4.194154474
 21
30.2307826493
  0
LINE
  5
2A8
100
AcDbEntity
  8
0
100
AcDbLine
 62
7
  6
BYLAYER
 10
16.6353551366
 20
30.2758574732
 11
18.094154474
 21
30.2758574732
  0
LINE
  5
2A9
100
AcDbEntity
  8
0
100
AcDbLine
 62
7
  6
BYLAYER
 10
16.594154474
 20
30.3909893646
 11
18.094154474
 21
30.3909893646
  0
LINE
  5
2AA
100
AcDbEntity
  8
0
100
AcDbLine
 62
7
  6
BYLAYER
 10
18.094154474
 20
30.419536443
 11
16.5941662603
 21
30.419536443
  0
LINE
  5
2AB
100
AcDbEntity
  8
0
100
AcDbLine
 62
7
  6
BYLAYER
 10
4.194154474
 20
30.4464524928
 11
5.794154474
 21
30.4464524928
  0
LINE
  5
2AC
100
AcDbEntity
  8
0
100
AcDbLine
 62
7
  6
BYLAYER
 10
5.794154474
 20
30.5083959134
 11
4.194154474
 21
30.5083959134
  0
LINE
  5
2AD
100
AcDbEntity
  8
0
100
AcDbLine
 62
7
  6
BYLAYER
 10
5.794154474
 20
30.9957852198
 11
14.394154474
 21
30.9957852198
  0
LINE
  5
2AE
100
AcDbEntity
  8
0
100
AcDbLine
 62
7
  6
BYLAYER
 10
28.6054049366
 20
30.1257852198
 11
25.6115518279
 21
30.1414611412
  0
LINE
  5
2AF
100
AcDbEntity
  8
0
100
AcDbLine
 62
7
  6
BYLAYER
 10
23.0251637157
 20
30.1550035615
 11
19.294154474
 21
30.1745392587
  0
LINE
  5
2B0
100
AcDbEntity
  8
0
100
AcDbLine
 62
7
  6
BYLAYER
 10
31.5972808222
 20
26.7192447046
 11
30.9486208381
 21
26.923766412
  0
LINE
  5
2B1
100
AcDbEntity
  8
0
100
AcDbLine
 62
7
  6
BYLAYER
 10
27.144154474
 20
20.5894404182
 11
27.294154474
 21
20.3296327971
  0
LINE
  5
2B2
100
AcDbEntity
  8
0
100
AcDbLine
 62
7
  6
BYLAYER
 10
21.444154474
 20
30.4621300213
 11
21.294154474
 21
30.7219376425
  0
LINE
  5
2B3
100
AcDbEntity
  8
0
100
AcDbLine
 62
7
  6
BYLAYER
 10
24.294154474
 20
33.5257851839
 11
24.294154474
 21
31.929822644
  0
LINE
  5
2B4
100
AcDbEntity
  8
0
100
AcDbLine
 62
7
  6
BYLAYER
 10
24.294154474
 20
19.1217463989
 11
24.294154474
 21
17.5257852557
  0
LINE
  5
2B5
100
AcDbEntity
  8
0
100
AcDbLine
 62
7
  6
BYLAYER
 10
6.294154474
 20
31.9298256238
 11
24.294154474
 21
31.9298256238
  0
LINE
  5
2B6
100
AcDbEntity
  8
0
100
AcDbLine
 62
7
  6
BYLAYER
 10
31.6573228707
 20
26.2631800684
 11
31.0836995525
 21
25.8977417115
  0
LINE
  5
2B7
100
AcDbEntity
  8
0
100
AcDbLine
 62
7
  6
BYLAYER
 10
14.1402316571
 20
32.2168590918
 11
18.094154474
 21
32.2168590918
  0
LINE
  5
2B8
100
AcDbEntity
  8
0
100
AcDbLine
 62
7
  6
BYLAYER
 10
14.394154474
 20
32.3257852198
 11
16.394154474
 21
32.3257852198
  0
LINE
  5
2B9
100
AcDbEntity
  8
0
100
AcDbLine
 62
7
  6
BYLAYER
 10
14.1402316571
 20
32.5257852198
 11
18.094154474
 21
32.5257852198
  0
LINE
  5
2BA
100
AcDbEntity
  8
0
100
AcDbLine
 62
7
  6
BYLAYER
 10
22.1752542555
 20
33.2400709341
 11
6.294154474
 21
33.2400709341
  0
LINE
  5
2BB
100
AcDbEntity
  8
0
100
AcDbLine
 62
7
  6
BYLAYER
 10
14.1402316571
 20
32.9507959672
 11
10.494154474
 21
32.9607852198
  0
LINE
  5
2BC
100
AcDbEntity
  8
0
100
AcDbLine
 62
7
  6
BYLAYER
 10
10.494154474
 20
32.9607852198
 11
6.687964739
 21
33.0196905371
  0
LINE
  5
2BD
100
AcDbEntity
  8
0
100
AcDbLine
 62
7
  6
BYLAYER
 10
31.0837635318
 20
25.1537879688
 11
31.3723622498
 21
24.9699303082
  0
LINE
  5
2BE
100
AcDbEntity
  8
0
100
AcDbLine
 62
7
  6
BYLAYER
 10
31.6640210853
 20
24.8586524508
 11
31.0855438907
 21
25.2271830681
  0
LINE
  5
2BF
100
AcDbEntity
  8
0
100
AcDbLine
 62
7
  6
BYLAYER
 10
26.394154474
 20
20.697998453
 11
26.394154474
 21
19.5330813225
  0
LINE
  5
2C0
100
AcDbEntity
  8
0
100
AcDbLine
 62
7
  6
BYLAYER
 10
31.2155771611
 20
28.1437821616
 11
30.7560819901
 21
27.6423311753
  0
LINE
  5
2C1
100
AcDbEntity
  8
0
100
AcDbLine
 62
7
  6
BYLAYER
 10
24.294154474
 20
33.5257852198
 11
6.294154474
 21
33.5257852198
  0
LINE
  5
2C2
100
AcDbEntity
  8
0
100
AcDbLine
 62
7
  6
BYLAYER
 10
31.2155771611
 20
22.907788278
 11
30.7560819901
 21
23.4092392642
  0
LWPOLYLINE
  5
2C3
100
AcDbEntity
  8
0
100
AcDbPolyline
 62
7
  6
BYLAYER
 90
5
 70
0
 10
27.4941693068
 20
23.4185061912
 10
27.5808226316
 20
23.113350363
 10
27.7420408191
 20
22.9520192357
 10
27.8804437307
 20
22.8930356427
 10
27.9941544518
 20
22.8792324877
  0
LINE
  5
2C4
100
AcDbEntity
  8
0
100
AcDbLine
 62
7
  6
BYLAYER
 10
27.044154474
 20
19.8021500113
 11
27.044154474
 21
21.0363503928
  0
LINE
  5
2C5
100
AcDbEntity
  8
0
100
AcDbLine
 62
7
  6
BYLAYER
 10
27.494154474
 20
27.633064237
 11
27.494154474
 21
23.4185062016
  0
LINE
  5
2C6
100
AcDbEntity
  8
0
100
AcDbLine
 62
7
  6
BYLAYER
 10
27.694154474
 20
27.633064237
 11
27.694154474
 21
23.4185062016
  0
LINE
  5
2C7
100
AcDbEntity
  8
0
100
AcDbLine
 62
7
  6
BYLAYER
 10
30.094154474
 20
21.9245456505
 11
28.494154474
 21
21.0007852198
  0
LINE
  5
2C8
100
AcDbEntity
  8
0
100
AcDbLine
 62
7
  6
BYLAYER
 10
30.294154474
 20
21.9007852198
 11
28.6054049366
 21
20.9257852198
  0
LINE
  5
2C9
100
AcDbEntity
  8
0
100
AcDbLine
 62
7
  6
BYLAYER
 10
30.094154474
 20
29.1270247891
 11
28.494154474
 21
30.0507852198
  0
LINE
  5
2CA
100
AcDbEntity
  8
0
100
AcDbLine
 62
7
  6
BYLAYER
 10
30.294154474
 20
29.1507852198
 11
28.6054049366
 21
30.1257852198
  0
LINE
  5
2CB
100
AcDbEntity
  8
0
100
AcDbLine
 62
7
  6
BYLAYER
 10
27.9941544683
 20
22.8792315212
 11
27.9941544682
 21
28.1723389183
  0
LINE
  5
2CC
100
AcDbEntity
  8
0
100
AcDbLine
 62
7
  6
BYLAYER
 10
28.144154474
 20
28.7300792138
 11
28.144154474
 21
28.5506525698
  0
LINE
  5
2CD
100
AcDbEntity
  8
0
100
AcDbLine
 62
7
  6
BYLAYER
 10
28.144154474
 20
22.5009178698
 11
28.144154474
 21
22.3214912258
  0
LINE
  5
2CE
100
AcDbEntity
  8
0
100
AcDbLine
 62
7
  6
BYLAYER
 10
28.444154474
 20
28.7300792138
 11
28.444154474
 21
27.9377346388
  0
LINE
  5
2CF
100
AcDbEntity
  8
0
100
AcDbLine
 62
7
  6
BYLAYER
 10
28.444154474
 20
23.1138358007
 11
28.444154474
 21
22.3214912258
  0
LINE
  5
2D0
100
AcDbEntity
  8
0
100
AcDbLine
 62
7
  6
BYLAYER
 10
28.494154474
 20
30.0507852198
 11
28.494154474
 21
21.0007852198
  0
LINE
  5
2D1
100
AcDbEntity
  8
0
100
AcDbLine
 62
7
  6
BYLAYER
 10
28.6054049366
 20
20.9257852198
 11
28.6054049366
 21
30.1257852198
  0
LINE
  5
2D2
100
AcDbEntity
  8
0
100
AcDbLine
 62
7
  6
BYLAYER
 10
29.9941544064
 20
22.8792315212
 11
29.994154474
 21
24.4148445762
  0
LINE
  5
2D3
100
AcDbEntity
  8
0
100
AcDbLine
 62
7
  6
BYLAYER
 10
29.994154474
 20
26.6367258634
 11
29.9941545615
 21
28.1723389183
  0
LINE
  5
2D4
100
AcDbEntity
  8
0
100
AcDbLine
 62
7
  6
BYLAYER
 10
30.094154474
 20
29.1270200251
 11
30.094154474
 21
21.9245504145
  0
LINE
  5
2D5
100
AcDbEntity
  8
0
100
AcDbLine
 62
7
  6
BYLAYER
 10
30.294154474
 20
29.1507852198
 11
30.294154474
 21
21.9007852198
  0
LINE
  5
2D6
100
AcDbEntity
  8
0
100
AcDbLine
 62
7
  6
BYLAYER
 10
30.9929700207
 20
25.399807953
 11
30.9922056212
 21
25.3642261048
  0
LINE
  5
2D7
100
AcDbEntity
  8
0
100
AcDbLine
 62
7
  6
BYLAYER
 10
30.9922056212
 20
25.3642261048
 11
30.9912505965
 21
25.3285391522
  0
LWPOLYLINE
  5
2D8
100
AcDbEntity
  8
0
100
AcDbPolyline
 62
7
  6
BYLAYER
 90
3
 70
0
 10
30.8141102016
 20
23.9830022742
 10
30.8034909831
 20
23.9387949315
 10
30.7973209479
 20
23.9136978079
  0
LINE
  5
2D9
100
AcDbEntity
  8
0
100
AcDbLine
 62
7
  6
BYLAYER
 10
32.2314084072
 20
26.5257852198
 11
32.2314084072
 21
24.5257852198
  0
LWPOLYLINE
  5
2DA
100
AcDbEntity
  8
0
100
AcDbPolyline
 62
7
  6
BYLAYER
 90
6
 70
0
 10
32.2314086456
 20
26.5257833465
 10
31.6187796982
 20
28.7428172106
 10
30.3941472559
 20
30.7014814122
 10
28.6576936972
 20
32.2306747113
 10
26.5647470723
 20
33.1965113348
 10
24.2941544835
 20
33.5255153699
  0
ARC
  5
2DB
100
AcDbEntity
  8
0
100
AcDbCircle
 62
7
  6
BYLAYER
 10
6.694154474
 20
17.6319277963
 40
0.4
100
AcDbArc
 50
90.8866496139
 51
180.0
  0
ARC
  5
2DC
100
AcDbEntity
  8
0
100
AcDbCircle
 62
7
  6
BYLAYER
 10
18.2195338326
 20
22.2533268072
 40
0.2
100
AcDbArc
 50
28.3117871708
 51
87.5000000011
  0
ARC
  5
2DD
100
AcDbEntity
  8
0
100
AcDbCircle
 62
7
  6
BYLAYER
 10
17.6847714906
 20
23.5443573058
 40
0.2
100
AcDbArc
 50
317.4999999992
 51
16.6882128295
  0
ARC
  5
2DE
100
AcDbEntity
  8
0
100
AcDbCircle
 62
7
  6
BYLAYER
 10
17.57954695
 20
23.9370606374
 40
0.2
100
AcDbArc
 50
13.3117871702
 51
72.5000000006
  0
ARC
  5
2DF
100
AcDbEntity
  8
0
100
AcDbCircle
 62
7
  6
BYLAYER
 10
17.3971494739
 20
25.3225070172
 40
0.2
100
AcDbArc
 50
302.5
 51
1.6882128298
  0
ARC
  5
2E0
100
AcDbEntity
  8
0
100
AcDbCircle
 62
7
  6
BYLAYER
 10
6.694154474
 20
33.4196426432
 40
0.4
100
AcDbArc
 50
180.0
 51
269.1133503861
  0
ARC
  5
2E1
100
AcDbEntity
  8
0
100
AcDbCircle
 62
7
  6
BYLAYER
 10
17.5793172791
 20
27.1147190075
 40
0.2002685564
100
AcDbArc
 50
287.523526479
 51
346.6986375991
  0
ARC
  5
2E2
100
AcDbEntity
  8
0
100
AcDbCircle
 62
7
  6
BYLAYER
 10
17.3969256488
 20
25.7289473226
 40
0.2002204282
100
AcDbArc
 50
358.3038770883
 51
57.4855811356
  0
ARC
  5
2E3
100
AcDbEntity
  8
0
100
AcDbCircle
 62
7
  6
BYLAYER
 10
17.6847714906
 20
27.5072131338
 40
0.2
100
AcDbArc
 50
343.3117871705
 51
42.5000000011
  0
ARC
  5
2E4
100
AcDbEntity
  8
0
100
AcDbCircle
 62
7
  6
BYLAYER
 10
18.2195338326
 20
28.7982436324
 40
0.2
100
AcDbArc
 50
272.4999999991
 51
331.6882128292
  0
ARC
  5
2E5
100
AcDbEntity
  8
0
100
AcDbCircle
 62
7
  6
BYLAYER
 10
24.1618508669
 20
25.3708029362
 40
6.9251759612
100
AcDbArc
 50
358.6451216662
 51
358.8117025331
  0
ARC
  5
2E6
100
AcDbEntity
  8
0
100
AcDbCircle
 62
7
  6
BYLAYER
 10
26.144154474
 20
22.3214912258
 40
2.3
100
AcDbArc
 50
300.0
 51
360.0
  0
ARC
  5
2E7
100
AcDbEntity
  8
0
100
AcDbCircle
 62
7
  6
BYLAYER
 10
22.444154474
 20
22.3214912258
 40
2.3
100
AcDbArc
 50
180.0
 51
240.0
  0
ARC
  5
2E8
100
AcDbEntity
  8
0
100
AcDbCircle
 62
7
  6
BYLAYER
 10
22.444154474
 20
22.3214912258
 40
2.0
100
AcDbArc
 50
180.0
 51
240.0
  0
ARC
  5
2E9
100
AcDbEntity
  8
0
100
AcDbCircle
 62
7
  6
BYLAYER
 10
26.144154474
 20
22.3214912258
 40
2.0
100
AcDbArc
 50
300.0
 51
360.0
  0
ARC
  5
2EA
100
AcDbEntity
  8
0
100
AcDbCircle
 62
7
  6
BYLAYER
 10
31.1932036968
 20
25.3960583747
 40
0.2002720586
100
AcDbArc
 50
178.9253727819
 51
237.4798865189
  0
ARC
  5
2EB
100
AcDbEntity
  8
0
100
AcDbCircle
 62
7
  6
BYLAYER
 10
31.0089856803
 20
23.9368569777
 40
0.2002613868
100
AcDbArc
 50
107.5226302692
 51
166.700150308
  0
ARC
  5
2EC
100
AcDbEntity
  8
0
100
AcDbCircle
 62
7
  6
BYLAYER
 10
31.1913813628
 20
25.3226220895
 40
0.2002185345
100
AcDbArc
 50
178.303800368
 51
237.4858485793
  0
ARC
  5
2ED
100
AcDbEntity
  8
0
100
AcDbCircle
 62
7
  6
BYLAYER
 10
30.9035374574
 20
23.5443573058
 40
0.2
100
AcDbArc
 50
163.3117871705
 51
222.5000000011
  0
ARC
  5
2EE
100
AcDbEntity
  8
0
100
AcDbCircle
 62
7
  6
BYLAYER
 10
30.3687751155
 20
22.2533268072
 40
0.2
100
AcDbArc
 50
92.4999999991
 51
151.6882128292
  0
ARC
  5
2EF
100
AcDbEntity
  8
0
100
AcDbCircle
 62
7
  6
BYLAYER
 10
24.294154474
 20
25.5257852198
 40
8.0
100
AcDbArc
 50
7.1806014287
 51
352.8193752775
  0
ARC
  5
2F0
100
AcDbEntity
  8
0
100
AcDbCircle
 62
7
  6
BYLAYER
 10
24.294154474
 20
25.5257852198
 40
7.4
100
AcDbArc
 50
155.7188983855
 51
159.2811016145
  0
ARC
  5
2F1
100
AcDbEntity
  8
0
100
AcDbCircle
 62
7
  6
BYLAYER
 10
24.294154474
 20
25.5257852198
 40
7.4
100
AcDbArc
 50
20.7188983855
 51
24.2811016145
  0
ARC
  5
2F2
100
AcDbEntity
  8
0
100
AcDbCircle
 62
7
  6
BYLAYER
 10
24.294154474
 20
25.5257852198
 40
7.4
100
AcDbArc
 50
5.7188983855
 51
9.2811016145
  0
ARC
  5
2F3
100
AcDbEntity
  8
0
100
AcDbCircle
 62
7
  6
BYLAYER
 10
24.294154474
 20
25.5257852198
 40
7.4
100
AcDbArc
 50
350.1724135501
 51
354.8275864499
  0
ARC
  5
2F4
100
AcDbEntity
  8
0
100
AcDbCircle
 62
7
  6
BYLAYER
 10
24.294154474
 20
25.5257852198
 40
7.4
100
AcDbArc
 50
335.7188983855
 51
339.2811016145
  0
ARC
  5
2F5
100
AcDbEntity
  8
0
100
AcDbCircle
 62
7
  6
BYLAYER
 10
24.294154474
 20
25.5257852198
 40
7.4
100
AcDbArc
 50
200.7188983855
 51
204.2811016145
  0
ARC
  5
2F6
100
AcDbEntity
  8
0
100
AcDbCircle
 62
7
  6
BYLAYER
 10
24.294154474
 20
25.5257852198
 40
7.4
100
AcDbArc
 50
185.7188983855
 51
189.2811016145
  0
ARC
  5
2F7
100
AcDbEntity
  8
0
100
AcDbCircle
 62
7
  6
BYLAYER
 10
24.294154474
 20
25.5257852198
 40
7.4
100
AcDbArc
 50
170.1724135501
 51
174.8275864499
  0
ARC
  5
2F8
100
AcDbEntity
  8
0
100
AcDbCircle
 62
7
  6
BYLAYER
 10
24.294154474
 20
25.5257852198
 40
7.1
100
AcDbArc
 50
154.4902485403
 51
160.5097514597
  0
ARC
  5
2F9
100
AcDbEntity
  8
0
100
AcDbCircle
 62
7
  6
BYLAYER
 10
24.294154474
 20
25.5257852198
 40
7.1
100
AcDbArc
 50
19.4902485403
 51
25.5097514597
  0
ARC
  5
2FA
100
AcDbEntity
  8
0
100
AcDbCircle
 62
7
  6
BYLAYER
 10
24.294154474
 20
25.5257852198
 40
7.1
100
AcDbArc
 50
4.4902485403
 51
10.5097514597
  0
ARC
  5
2FB
100
AcDbEntity
  8
0
100
AcDbCircle
 62
7
  6
BYLAYER
 10
24.294154474
 20
25.5257852198
 40
7.1
100
AcDbArc
 50
349.4902485403
 51
355.5097514597
  0
ARC
  5
2FC
100
AcDbEntity
  8
0
100
AcDbCircle
 62
7
  6
BYLAYER
 10
24.294154474
 20
25.5257852198
 40
7.1
100
AcDbArc
 50
334.4902485403
 51
340.5097514597
  0
ARC
  5
2FD
100
AcDbEntity
  8
0
100
AcDbCircle
 62
7
  6
BYLAYER
 10
24.294154474
 20
25.5257852198
 40
7.1
100
AcDbArc
 50
199.4902485403
 51
205.5097514597
  0
ARC
  5
2FE
100
AcDbEntity
  8
0
100
AcDbCircle
 62
7
  6
BYLAYER
 10
24.294154474
 20
25.5257852198
 40
7.1
100
AcDbArc
 50
184.4902485403
 51
190.5097514597
  0
ARC
  5
2FF
100
AcDbEntity
  8
0
100
AcDbCircle
 62
7
  6
BYLAYER
 10
24.294154474
 20
25.5257852198
 40
7.1
100
AcDbArc
 50
169.4902485403
 51
175.5097514597
  0
CIRCLE
  5
300
100
AcDbEntity
  8
0
100
AcDbCircle
 62
7
  6
BYLAYER
 10
24.294154474
 20
25.5257852198
 40
6.7
  0
CIRCLE
  5
301
100
AcDbEntity
  8
0
100
AcDbCircle
 62
7
  6
BYLAYER
 10
24.294154474
 20
25.5257852198
 40
6.35
  0
ARC
  5
302
100
AcDbEntity
  8
0
100
AcDbCircle
 62
7
  6
BYLAYER
 10
24.294154474
 20
25.5257852198
 40
6.3
100
AcDbArc
 50
341.2598878116
 51
18.0729028096
  0
ARC
  5
303
100
AcDbEntity
  8
0
100
AcDbCircle
 62
7
  6
BYLAYER
 10
24.294154474
 20
25.5257852198
 40
6.3
100
AcDbArc
 50
40.5027344313
 51
131.3969592929
  0
ARC
  5
304
100
AcDbEntity
  8
0
100
AcDbCircle
 62
7
  6
BYLAYER
 10
24.294154474
 20
25.5257852198
 40
6.3
100
AcDbArc
 50
219.9417635606
 51
312.3583079077
  0
ARC
  5
305
100
AcDbEntity
  8
0
100
AcDbCircle
 62
7
  6
BYLAYER
 10
24.294154474
 20
25.5257852198
 40
6.15
100
AcDbArc
 50
250.0339417029
 51
289.9660582971
  0
ARC
  5
306
100
AcDbEntity
  8
0
100
AcDbCircle
 62
7
  6
BYLAYER
 10
24.294154474
 20
25.5257852198
 40
6.15
100
AcDbArc
 50
296.5612638402
 51
243.4387361598
  0
ARC
  5
307
100
AcDbEntity
  8
0
100
AcDbCircle
 62
7
  6
BYLAYER
 10
24.294154474
 20
25.5257852198
 40
6.0
100
AcDbArc
 50
60.0
 51
120.0
  0
ARC
  5
308
100
AcDbEntity
  8
0
100
AcDbCircle
 62
7
  6
BYLAYER
 10
24.294154474
 20
25.5257852198
 40
6.0
100
AcDbArc
 50
240.0
 51
300.0
  0
ARC
  5
309
100
AcDbEntity
  8
0
100
AcDbCircle
 62
7
  6
BYLAYER
 10
24.294154474
 20
25.5257852198
 40
5.8
100
AcDbArc
 50
248.7726872381
 51
291.2273127619
  0
ARC
  5
30A
100
AcDbEntity
  8
0
100
AcDbCircle
 62
7
  6
BYLAYER
 10
24.294154474
 20
25.5257852198
 40
5.8
100
AcDbArc
 50
298.303235635
 51
241.696764365
  0
ARC
  5
30B
100
AcDbEntity
  8
0
100
AcDbCircle
 62
7
  6
BYLAYER
 10
24.294154474
 20
25.5257852198
 40
5.7
100
AcDbArc
 50
53.4701142609
 51
126.4094099624
  0
ARC
  5
30C
100
AcDbEntity
  8
0
100
AcDbCircle
 62
7
  6
BYLAYER
 10
24.294154474
 20
25.5257852198
 40
5.7
100
AcDbArc
 50
233.4701142609
 51
306.4094099624
  0
CIRCLE
  5
30D
100
AcDbEntity
  8
0
100
AcDbCircle
 62
7
  6
BYLAYER
 10
24.294154474
 20
25.5257852198
 40
5.6
  0
CIRCLE
  5
30E
100
AcDbEntity
  8
0
100
AcDbCircle
 62
7
  6
BYLAYER
 10
24.294154474
 20
25.5257852198
 40
5.5
  0
ARC
  5
30F
100
AcDbEntity
  8
0
100
AcDbCircle
 62
7
  6
BYLAYER
 10
24.294154474
 20
25.5257852198
 40
5.425
100
AcDbArc
 50
300.4583870395
 51
239.5416129605
  0
ARC
  5
310
100
AcDbEntity
  8
0
100
AcDbCircle
 62
7
  6
BYLAYER
 10
24.294154474
 20
25.5257852198
 40
5.425
100
AcDbArc
 50
247.2260275993
 51
292.7739724007
  0
ARC
  5
311
100
AcDbEntity
  8
0
100
AcDbCircle
 62
7
  6
BYLAYER
 10
24.294154474
 20
25.5257852198
 40
5.2647435897
100
AcDbArc
 50
238.5104780912
 51
246.4918304322
  0
ARC
  5
312
100
AcDbEntity
  8
0
100
AcDbCircle
 62
7
  6
BYLAYER
 10
24.294154474
 20
25.5257852198
 40
5.2647435897
100
AcDbArc
 50
293.5081695678
 51
301.4895219088
  0
ARC
  5
313
100
AcDbEntity
  8
0
100
AcDbCircle
 62
7
  6
BYLAYER
 10
24.294154474
 20
25.5257852198
 40
5.0083333333
100
AcDbArc
 50
325.9571329324
 51
34.0428670676
  0
ARC
  5
314
100
AcDbEntity
  8
0
100
AcDbCircle
 62
7
  6
BYLAYER
 10
24.294154474
 20
25.5257852198
 40
5.0083333333
100
AcDbArc
 50
145.9571329324
 51
214.0428670676
  0
CIRCLE
  5
315
100
AcDbEntity
  8
0
100
AcDbCircle
 62
7
  6
BYLAYER
 10
24.294154474
 20
25.5257852198
 40
4.8
  0
ARC
  5
316
100
AcDbEntity
  8
0
100
AcDbCircle
 62
7
  6
BYLAYER
 10
22.444154474
 20
28.7300792138
 40
2.3
100
AcDbArc
 50
120.0
 51
180.0
  0
ARC
  5
317
100
AcDbEntity
  8
0
100
AcDbCircle
 62
7
  6
BYLAYER
 10
26.144154474
 20
28.7300792138
 40
2.3
100
AcDbArc
 50
0.0
 51
60.0
  0
ARC
  5
318
100
AcDbEntity
  8
0
100
AcDbCircle
 62
7
  6
BYLAYER
 10
26.144154474
 20
28.7300792138
 40
2.0
100
AcDbArc
 50
0.0
 51
60.0
  0
ARC
  5
319
100
AcDbEntity
  8
0
100
AcDbCircle
 62
7
  6
BYLAYER
 10
22.444154474
 20
28.7300792138
 40
2.0
100
AcDbArc
 50
120.0
 51
180.0
  0
ARC
  5
31A
100
AcDbEntity
  8
0
100
AcDbCircle
 62
7
  6
BYLAYER
 10
31.008761998
 20
27.1145098022
 40
0.2
100
AcDbArc
 50
193.3117871702
 51
252.5000000006
  0
ARC
  5
31B
100
AcDbEntity
  8
0
100
AcDbCircle
 62
7
  6
BYLAYER
 10
31.1911594742
 20
25.7290634224
 40
0.2
100
AcDbArc
 50
122.5
 51
181.6882128298
  0
ARC
  5
31C
100
AcDbEntity
  8
0
100
AcDbCircle
 62
7
  6
BYLAYER
 10
30.3687751155
 20
28.7982436324
 40
0.2
100
AcDbArc
 50
208.3117871708
 51
267.5000000011
  0
ARC
  5
31D
100
AcDbEntity
  8
0
100
AcDbCircle
 62
7
  6
BYLAYER
 10
30.9035374574
 20
27.5072131338
 40
0.2
100
AcDbArc
 50
137.4999999992
 51
196.6882128295
  0
SPLINE
  5
31E
100
AcDbEntity
  8
0
100
AcDbSpline
 62
7
  6
BYLAYER
 70
0
 71
3
 72
11
 73
7
 74
0
 42
0.0000001
 43
0.0000001
 44
0.0000000001
 40
0.0
 40
0.0
 40
0.0
 40
0.0
 40
0.2470981804
 40
0.4958135018
 40
0.7469790612
 40
1.0
 40
1.0
 40
1.0
 40
1.0
 10
3.994154474
 20
20.7401571058
 30
0.0
 10
3.994154474
 20
20.7146399256
 30
0.0
 10
4.004515616
 20
20.6628679899
 30
0.0
 10
4.0489250824
 20
20.5974124705
 30
0.0
 10
4.1153920665
 20
20.5534519172
 30
0.0
 10
4.1680256661
 20
20.5431745261
 30
0.0
 10
4.194154474
 20
20.5431745261
 30
0.0
  0
SPLINE
  5
31F
100
AcDbEntity
  8
0
100
AcDbSpline
 62
7
  6
BYLAYER
 70
0
 71
3
 72
14
 73
10
 74
0
 42
0.0000001
 43
0.0000001
 44
0.0000000001
 40
0.0
 40
0.0
 40
0.0
 40
0.0
 40
0.1173635679
 40
0.236135377
 40
0.3569452758
 40
0.4806011574
 40
0.6072788556
 40
0.7367185527
 40
1.0
 40
1.0
 40
1.0
 40
1.0
 10
3.994154474
 20
20.9992880345
 30
0.0
 10
3.994154474
 20
20.9876794622
 30
0.0
 10
3.9967537242
 20
20.9642476499
 30
0.0
 10
4.0081636379
 20
20.9305629553
 30
0.0
 10
4.0267531757
 20
20.8995061013
 30
0.0
 10
4.0517637464
 20
20.8723093021
 30
0.0
 10
4.082247959
 20
20.8499472774
 30
0.0
 10
4.1287873651
 20
20.8276976547
 30
0.0
 10
4.1681129882
 20
20.8207877902
 30
0.0
 10
4.194154474
 20
20.8207877902
 30
0.0
  0
SPLINE
  5
320
100
AcDbEntity
  8
0
100
AcDbSpline
 62
7
  6
BYLAYER
 70
0
 71
3
 72
13
 73
9
 74
0
 42
0.0000001
 43
0.0000001
 44
0.0000000001
 40
0.0
 40
0.0
 40
0.0
 40
0.0
 40
0.1056323181
 40
0.2147060388
 40
0.3294571906
 40
0.451474793
 40
0.7160805538
 40
1.0
 40
1.0
 40
1.0
 40
1.0
 10
3.994154474
 20
21.5668922659
 30
0.0
 10
3.994154474
 20
21.5572505379
 30
0.0
 10
3.9968186644
 20
21.5375650637
 30
0.0
 10
4.0084175633
 20
21.5095013865
 30
0.0
 10
4.0271779994
 20
21.4837735971
 30
0.0
 10
4.0615108145
 20
21.4530902809
 30
0.0
 10
4.1178788922
 20
21.4261571225
 30
0.0
 10
4.1682393552
 20
21.4190388537
 30
0.0
 10
4.194154474
 20
21.4190388537
 30
0.0
  0
SPLINE
  5
321
100
AcDbEntity
  8
0
100
AcDbSpline
 62
7
  6
BYLAYER
 70
0
 71
3
 72
15
 73
11
 74
0
 42
0.0000001
 43
0.0000001
 44
0.0000000001
 40
0.0
 40
0.0
 40
0.0
 40
0.0
 40
0.0857311844
 40
0.1790552703
 40
0.2847598795
 40
0.4049987965
 40
0.5393072875
 40
0.6855844892
 40
0.8406927056
 40
1.0
 40
1.0
 40
1.0
 40
1.0
 10
3.994154474
 20
22.4042885097
 30
0.0
 10
3.994154474
 20
22.3972478612
 30
0.0
 10
3.9970069795
 20
22.3824413289
 30
0.0
 10
4.0089990855
 20
22.3619680111
 30
0.0
 10
4.0279309615
 20
22.3434821824
 30
0.0
 10
4.0529807965
 20
22.3274498691
 30
0.0
 10
4.0832827628
 20
22.3142995547
 30
0.0
 10
4.1178003954
 20
22.3045276787
 30
0.0
 10
4.1552294465
 20
22.2985207802
 30
0.0
 10
4.1810714089
 20
22.2971578953
 30
0.0
 10
4.194154474
 20
22.2971578953
 30
0.0
  0
SPLINE
  5
322
100
AcDbEntity
  8
0
100
AcDbSpline
 62
7
  6
BYLAYER
 70
0
 71
3
 72
17
 73
13
 74
0
 42
0.0000001
 43
0.0000001
 44
0.0000000001
 40
0.0
 40
0.0
 40
0.0
 40
0.0
 40
0.0266552761
 40
0.0558462671
 40
0.0893629358
 40
0.1283240448
 40
0.2243011141
 40
0.3447584742
 40
0.4872011296
 40
0.6475480766
 40
0.820705986
 40
1.0
 40
1.0
 40
1.0
 40
1.0
 10
3.994154474
 20
23.4544095959
 30
0.0
 10
3.994154474
 20
23.4524664707
 30
0.0
 10
3.9948736521
 20
23.4483724679
 30
0.0
 10
3.997918267
 20
23.442529514
 30
0.0
 10
4.0028025808
 20
23.4368878339
 30
0.0
 10
4.0123773799
 20
23.4291272746
 30
0.0
 10
4.0290062949
 20
23.4204315327
 30
0.0
 10
4.0537469525
 20
23.4118028991
 30
0.0
 10
4.0838119863
 20
23.4046629059
 30
0.0
 10
4.118123782
 20
23.399332759
 30
0.0
 10
4.1553849231
 20
23.3960477676
 30
0.0
 10
4.1810842394
 20
23.3953025536
 30
0.0
 10
4.194154474
 20
23.3953025536
 30
0.0
  0
SPLINE
  5
323
100
AcDbEntity
  8
0
100
AcDbSpline
 62
7
  6
BYLAYER
 70
0
 71
3
 72
21
 73
17
 74
0
 42
0.0000001
 43
0.0000001
 44
0.0000000001
 40
0.0
 40
0.0
 40
0.0
 40
0.0
 40
0.0020879924
 40
0.0060502771
 40
0.0206663076
 40
0.0444263452
 40
0.0772662993
 40
0.1189073322
 40
0.1689684596
 40
0.2270542071
 40
0.2926323705
 40
0.3650475812
 40
0.4436379662
 40
0.6164008371
 40
0.8045209022
 40
1.0
 40
1.0
 40
1.0
 40
1.0
 10
3.994154474
 20
24.6456915076
 30
0.0
 10
3.994154474
 20
24.6455519583
 30
0.0
 10
3.9944973674
 20
24.6452236526
 30
0.0
 10
3.9957528827
 20
24.6447576207
 30
0.0
 10
3.9985739845
 20
24.644165163
 30
0.0
 10
4.0032686392
 20
24.6435538047
 30
0.0
 10
4.0098167192
 20
24.6429244973
 30
0.0
 10
4.0181144236
 20
24.6423197265
 30
0.0
 10
4.0281102529
 20
24.6417376582
 30
0.0
 10
4.0397078184
 20
24.6411910028
 30
0.0
 10
4.0528030999
 20
24.6406842175
 30
0.0
 10
4.0672709967
 20
24.6402227776
 30
0.0
 10
4.0889025581
 20
24.6396580222
 30
0.0
 10
4.1182698459
 20
24.6391153979
 30
0.0
 10
4.1554521251
 20
24.6387246483
 30
0.0
 10
4.1810897781
 20
24.6386360847
 30
0.0
 10
4.194154474
 20
24.6386360847
 30
0.0
  0
SPLINE
  5
324
100
AcDbEntity
  8
0
100
AcDbSpline
 62
7
  6
BYLAYER
 70
0
 71
3
 72
21
 73
17
 74
0
 42
0.0000001
 43
0.0000001
 44
0.0000000001
 40
0.0
 40
0.0
 40
0.0
 40
0.0
 40
0.1954776216
 40
0.3835943738
 40
0.55635631
 40
0.6349467958
 40
0.7073626751
 40
0.772941499
 40
0.8310275009
 40
0.8810895128
 40
0.9227316353
 40
0.955572192
 40
0.9793328296
 40
0.9939494791
 40
0.9979119582
 40
1.0
 40
1.0
 40
1.0
 40
1.0
 10
4.194154474
 20
26.4129343548
 30
0.0
 10
4.1810898775
 20
26.4129343548
 30
0.0
 10
4.1554525459
 20
26.4128457997
 30
0.0
 10
4.1182706514
 20
26.4124550474
 30
0.0
 10
4.088903642
 20
26.4119124434
 30
0.0
 10
4.0672720927
 20
26.4113476891
 30
0.0
 10
4.0528041009
 20
26.410886257
 30
0.0
 10
4.0397087138
 20
26.4103794811
 30
0.0
 10
4.0281110288
 20
26.4098328216
 30
0.0
 10
4.0181150505
 20
26.4092507539
 30
0.0
 10
4.0098171744
 20
26.4086459871
 30
0.0
 10
4.0032689403
 20
26.4080166606
 30
0.0
 10
3.9985741708
 20
26.4074052869
 30
0.0
 10
3.9957529644
 20
26.406812819
 30
0.0
 10
3.9944973996
 20
26.4063467916
 30
0.0
 10
3.994154474
 20
26.4060184846
 30
0.0
 10
3.994154474
 20
26.4058789319
 30
0.0
  0
SPLINE
  5
325
100
AcDbEntity
  8
0
100
AcDbSpline
 62
7
  6
BYLAYER
 70
0
 71
3
 72
17
 73
13
 74
0
 42
0.0000001
 43
0.0000001
 44
0.0000000001
 40
0.0
 40
0.0
 40
0.0
 40
0.0
 40
0.1792926807
 40
0.3524475629
 40
0.5127936023
 40
0.6552368869
 40
0.7756949491
 40
0.8716737206
 40
0.9106355735
 40
0.9441529874
 40
0.9733445495
 40
1.0
 40
1.0
 40
1.0
 40
1.0
 10
4.194154474
 20
27.656267886
 30
0.0
 10
4.1810843391
 20
27.656267886
 30
0.0
 10
4.1553853435
 20
27.6555227391
 30
0.0
 10
4.118124596
 20
27.6522377406
 30
0.0
 10
4.0838130342
 20
27.6469077325
 30
0.0
 10
4.0537479454
 20
27.6397678383
 30
0.0
 10
4.0290070716
 20
27.6311392106
 30
0.0
 10
4.0123778418
 20
27.6224435541
 30
0.0
 10
4.0028028818
 20
27.6146828187
 30
0.0
 10
3.9979184701
 20
27.6090410335
 30
0.0
 10
3.9948737187
 20
27.6031980351
 30
0.0
 10
3.994154474
 20
27.5991039812
 30
0.0
 10
3.994154474
 20
27.5971608437
 30
0.0
  0
SPLINE
  5
326
100
AcDbEntity
  8
0
100
AcDbSpline
 62
7
  6
BYLAYER
 70
0
 71
3
 72
15
 73
11
 74
0
 42
0.0000001
 43
0.0000001
 44
0.0000000001
 40
0.0
 40
0.0
 40
0.0
 40
0.0
 40
0.1593060885
 40
0.314411577
 40
0.4606878168
 40
0.5949966776
 40
0.7152359524
 40
0.820941948
 40
0.9142679219
 40
1.0
 40
1.0
 40
1.0
 40
1.0
 10
4.194154474
 20
28.7544125442
 30
0.0
 10
4.1810715095
 20
28.7544125442
 30
0.0
 10
4.1552298658
 20
28.7530497809
 30
0.0
 10
4.1178012295
 20
28.7470428729
 30
0.0
 10
4.0832838222
 20
28.7372712567
 30
0.0
 10
4.0529817997
 20
28.724121109
 30
0.0
 10
4.0279317491
 20
28.7080888567
 30
0.0
 10
4.0089994104
 20
28.6896030298
 30
0.0
 10
3.9970072531
 20
28.6691293615
 30
0.0
 10
3.994154474
 20
28.6543226509
 30
0.0
 10
3.994154474
 20
28.6472819298
 30
0.0
  0
SPLINE
  5
327
100
AcDbEntity
  8
0
100
AcDbSpline
 62
7
  6
BYLAYER
 70
0
 71
3
 72
13
 73
9
 74
0
 42
0.0000001
 43
0.0000001
 44
0.0000000001
 40
0.0
 40
0.0
 40
0.0
 40
0.0
 40
0.2839158331
 40
0.5485207148
 40
0.6705383987
 40
0.7852907454
 40
0.8943666502
 40
1.0
 40
1.0
 40
1.0
 40
1.0
 10
4.194154474
 20
29.6325315858
 30
0.0
 10
4.1682396864
 20
29.6325315858
 30
0.0
 10
4.1178796661
 20
29.6254134187
 30
0.0
 10
4.0615118044
 20
29.5984807873
 30
0.0
 10
4.0271787788
 20
29.5677976852
 30
0.0
 10
4.0084178548
 20
29.5420698264
 30
0.0
 10
3.996818939
 20
29.5140057238
 30
0.0
 10
3.994154474
 20
29.4943199953
 30
0.0
 10
3.994154474
 20
29.4846781737
 30
0.0
  0
SPLINE
  5
328
100
AcDbEntity
  8
0
100
AcDbSpline
 62
7
  6
BYLAYER
 70
0
 71
3
 72
14
 73
10
 74
0
 42
0.0000001
 43
0.0000001
 44
0.0000000001
 40
0.0
 40
0.0
 40
0.0
 40
0.0
 40
0.2632780644
 40
0.3927166685
 40
0.5193943524
 40
0.6430501405
 40
0.7638611336
 40
0.8826353121
 40
1.0
 40
1.0
 40
1.0
 40
1.0
 10
4.194154474
 20
30.2307826493
 30
0.0
 10
4.1681133239
 20
30.2307826493
 30
0.0
 10
4.1287881768
 20
30.2238729074
 30
0.0
 10
4.0822490345
 20
30.2016237931
 30
0.0
 10
4.0517647569
 20
30.1792620516
 30
0.0
 10
4.0267539471
 20
30.1520653605
 30
0.0
 10
4.0081639133
 20
30.1210083845
 30
0.0
 10
3.9967540001
 20
30.0873232111
 30
0.0
 10
3.994154474
 20
30.0638910876
 30
0.0
 10
3.994154474
 20
30.0522824051
 30
0.0
  0
SPLINE
  5
329
100
AcDbEntity
  8
0
100
AcDbSpline
 62
7
  6
BYLAYER
 70
0
 71
3
 72
11
 73
7
 74
0
 42
0.0000001
 43
0.0000001
 44
0.0000000001
 40
0.0
 40
0.0
 40
0.0
 40
0.0
 40
0.2530176579
 40
0.5041819856
 40
0.7528981552
 40
1.0
 40
1.0
 40
1.0
 40
1.0
 10
4.194154474
 20
30.5083959134
 30
0.0
 10
4.1680260049
 20
30.5083959134
 30
0.0
 10
4.1153929066
 20
30.4981187025
 30
0.0
 10
4.0489259645
 20
30.4541588452
 30
0.0
 10
4.0045158371
 20
30.388703325
 30
0.0
 10
3.994154474
 20
30.3369308924
 30
0.0
 10
3.994154474
 20
30.3114133337
 30
0.0
  0
SPLINE
  5
32A
100
AcDbEntity
  8
0
100
AcDbSpline
 62
7
  6
BYLAYER
 70
0
 71
3
 72
18
 73
14
 74
0
 42
0.0000001
 43
0.0000001
 44
0.0000000001
 40
0.0
 40
0.0
 40
0.0
 40
0.0
 40
0.1846474453
 40
0.3627126097
 40
0.5270458134
 40
0.6720782141
 40
0.7931897261
 40
0.843700769
 40
0.8872567138
 40
0.9238910176
 40
0.9540071011
 40
0.978680071
 40
1.0
 40
1.0
 40
1.0
 40
1.0
 10
4.194154474
 20
25.1091430762
 30
0.0
 10
4.1810866313
 20
25.1091430762
 30
0.0
 10
4.1554128651
 20
25.1097153309
 30
0.0
 10
4.1181854907
 20
25.1122392725
 30
0.0
 10
4.083912289
 20
25.1163288885
 30
0.0
 10
4.0539248086
 20
25.121808114
 30
0.0
 10
4.0322248406
 20
25.1275893862
 30
0.0
 10
4.0179559324
 20
25.1329470328
 30
0.0
 10
4.0095846393
 20
25.1369142404
 30
0.0
 10
4.0029336996
 20
25.1410469855
 30
0.0
 10
3.9980442626
 20
25.1453465383
 30
0.0
 10
3.9949290855
 20
25.1498361619
 30
0.0
 10
3.994154474
 20
25.1531112371
 30
0.0
 10
3.994154474
 20
25.1546200881
 30
0.0
  0
SPLINE
  5
32B
100
AcDbEntity
  8
0
100
AcDbSpline
 62
7
  6
BYLAYER
 70
0
 71
3
 72
11
 73
7
 74
0
 42
0.0000001
 43
0.0000001
 44
0.0000000001
 40
0.0
 40
0.0
 40
0.0
 40
0.0
 40
0.2500789697
 40
0.5000412789
 40
0.7499793099
 40
1.0
 40
1.0
 40
1.0
 40
1.0
 10
4.194154474
 20
20.6051179467
 30
0.0
 10
4.1680006636
 20
20.6051179467
 30
0.0
 10
4.1151154653
 20
20.6157530827
 30
0.0
 10
4.0486413392
 20
20.6610368585
 30
0.0
 10
4.0044248474
 20
20.7281612092
 30
0.0
 10
3.994154474
 20
20.7810111091
 30
0.0
 10
3.994154474
 20
20.8071588245
 30
0.0
  0
SPLINE
  5
32C
100
AcDbEntity
  8
0
100
AcDbSpline
 62
7
  6
BYLAYER
 70
0
 71
3
 72
18
 73
14
 74
0
 42
0.0000001
 43
0.0000001
 44
0.0000000001
 40
0.0
 40
0.0
 40
0.0
 40
0.0
 40
0.0213197681
 40
0.0459921816
 40
0.0761075731
 40
0.1127411834
 40
0.1562961234
 40
0.2068063736
 40
0.327917098
 40
0.4729488081
 40
0.637282913
 40
0.8153511866
 40
1.0
 40
1.0
 40
1.0
 40
1.0
 10
3.994154474
 20
25.8969503515
 30
0.0
 10
3.994154474
 20
25.8984591914
 30
0.0
 10
3.9949290123
 20
25.9017342222
 30
0.0
 10
3.9980440609
 20
25.9062238231
 30
0.0
 10
4.0029333986
 20
25.91052329
 30
0.0
 10
4.0095842071
 20
25.9146559216
 30
0.0
 10
4.0179552999
 20
25.9186231395
 30
0.0
 10
4.0322240168
 20
25.9239807914
 30
0.0
 10
4.0539238117
 20
25.9297621058
 30
0.0
 10
4.0839112459
 20
25.9352413959
 30
0.0
 10
4.1181846798
 20
25.939331122
 30
0.0
 10
4.1554124446
 20
25.9418550566
 30
0.0
 10
4.1810865317
 20
25.9424273633
 30
0.0
 10
4.194154474
 20
25.9424273633
 30
0.0
  0
SPLINE
  5
32D
100
AcDbEntity
  8
0
100
AcDbSpline
 62
7
  6
BYLAYER
 70
0
 71
3
 72
15
 73
11
 74
0
 42
0.0000001
 43
0.0000001
 44
0.0000000001
 40
0.0
 40
0.0
 40
0.0
 40
0.0
 40
0.0787564863
 40
0.166874142
 40
0.2699148983
 40
0.3899598795
 40
0.5261517068
 40
0.6759122695
 40
0.8355902137
 40
1.0
 40
1.0
 40
1.0
 40
1.0
 10
3.994154474
 20
27.122914905
 30
0.0
 10
3.994154474
 20
27.1291801271
 30
0.0
 10
3.9971137299
 20
27.1425536587
 30
0.0
 10
4.0092565608
 20
27.1606826412
 30
0.0
 10
4.0281946359
 20
27.1769604516
 30
0.0
 10
4.0531945541
 20
27.1910840158
 30
0.0
 10
4.0834374903
 20
27.2026849648
 30
0.0
 10
4.1178986594
 20
27.2113136302
 30
0.0
 10
4.15527734
 20
27.2166210949
 30
0.0
 10
4.1810753757
 20
27.2178251684
 30
0.0
 10
4.194154474
 20
27.2178251684
 30
0.0
  0
SPLINE
  5
32E
100
AcDbEntity
  8
0
100
AcDbSpline
 62
7
  6
BYLAYER
 70
0
 71
3
 72
14
 73
10
 74
0
 42
0.0000001
 43
0.0000001
 44
0.0000000001
 40
0.0
 40
0.0
 40
0.0
 40
0.0
 40
0.101172036
 40
0.2066126186
 40
0.3191467228
 40
0.440576256
 40
0.7084742905
 40
0.8528374306
 40
1.0
 40
1.0
 40
1.0
 40
1.0
 10
3.994154474
 20
28.2400377098
 30
0.0
 10
3.994154474
 20
28.2490404337
 30
0.0
 10
3.9968499559
 20
28.2675180482
 30
0.0
 10
4.0085280758
 20
28.293740706
 30
0.0
 10
4.0273435682
 20
28.3177144396
 30
0.0
 10
4.0618862077
 20
28.3464199681
 30
0.0
 10
4.106257417
 20
28.3660249518
 30
0.0
 10
4.1550691615
 20
28.3761399592
 30
0.0
 10
4.1810593142
 20
28.3779132472
 30
0.0
 10
4.194154474
 20
28.3779132472
 30
0.0
  0
SPLINE
  5
32F
100
AcDbEntity
  8
0
100
AcDbSpline
 62
7
  6
BYLAYER
 70
0
 71
3
 72
13
 73
9
 74
0
 42
0.0000001
 43
0.0000001
 44
0.0000000001
 40
0.0
 40
0.0
 40
0.0
 40
0.0
 40
0.1149652244
 40
0.2317498404
 40
0.3513255982
 40
0.4746895633
 40
0.731940924
 40
1.0
 40
1.0
 40
1.0
 40
1.0
 10
3.994154474
 20
29.172188693
 30
0.0
 10
3.994154474
 20
29.1833440157
 30
0.0
 10
3.996765844
 20
29.2059093171
 30
0.0
 10
4.008211717
 20
29.2383024375
 30
0.0
 10
4.0268443001
 20
29.268140516
 30
0.0
 10
4.060632868
 20
29.3033902732
 30
0.0
 10
4.1167544672
 20
29.3350923761
 30
0.0
 10
4.1681441259
 20
29.3436335143
 30
0.0
 10
4.194154474
 20
29.3436335143
 30
0.0
  0
SPLINE
  5
330
100
AcDbEntity
  8
0
100
AcDbSpline
 62
7
  6
BYLAYER
 70
0
 71
3
 72
11
 73
7
 74
0
 42
0.0000001
 43
0.0000001
 44
0.0000000001
 40
0.0
 40
0.0
 40
0.0
 40
0.0
 40
0.2449352943
 40
0.4927581264
 40
0.7448197055
 40
1.0
 40
1.0
 40
1.0
 40
1.0
 10
3.994154474
 20
29.8558433054
 30
0.0
 10
3.994154474
 20
29.8809058981
 30
0.0
 10
4.0045859384
 20
29.9319019067
 30
0.0
 10
4.0491361409
 20
29.9961444159
 30
0.0
 10
4.1155898914
 20
30.0391502494
 30
0.0
 10
4.1680435788
 20
30.0491737294
 30
0.0
 10
4.194154474
 20
30.0491737294
 30
0.0
  0
SPLINE
  5
331
100
AcDbEntity
  8
0
100
AcDbSpline
 62
7
  6
BYLAYER
 70
0
 71
3
 72
11
 73
7
 74
0
 42
0.0000001
 43
0.0000001
 44
0.0000000001
 40
0.0
 40
0.0
 40
0.0
 40
0.0
 40
0.2551769897
 40
0.5072373614
 40
0.7550610682
 40
1.0
 40
1.0
 40
1.0
 40
1.0
 10
4.194154474
 20
21.0023967101
 30
0.0
 10
4.168043917
 20
21.0023967101
 30
0.0
 10
4.1155907258
 20
21.0124200164
 30
0.0
 10
4.0491370247
 20
21.0554251661
 30
0.0
 10
4.0045861629
 20
21.1196676681
 30
0.0
 10
3.994154474
 20
21.1706641692
 30
0.0
 10
3.994154474
 20
21.1957271342
 30
0.0
  0
SPLINE
  5
332
100
AcDbEntity
  8
0
100
AcDbSpline
 62
7
  6
BYLAYER
 70
0
 71
3
 72
11
 73
7
 74
0
 42
0.0000001
 43
0.0000001
 44
0.0000000001
 40
0.0
 40
0.0
 40
0.0
 40
0.0
 40
0.2500169892
 40
0.4999542075
 40
0.7499177816
 40
1.0
 40
1.0
 40
1.0
 40
1.0
 10
3.994154474
 20
30.244411615
 30
0.0
 10
3.994154474
 20
30.2705589433
 30
0.0
 10
4.0044246307
 20
30.3234083403
 30
0.0
 10
4.0486404596
 20
30.3905326792
 30
0.0
 10
4.1151146173
 20
30.4358171677
 30
0.0
 10
4.168000324
 20
30.4464524928
 30
0.0
 10
4.194154474
 20
30.4464524928
 30
0.0
  0
SPLINE
  5
333
100
AcDbEntity
  8
0
100
AcDbSpline
 62
7
  6
BYLAYER
 70
0
 71
3
 72
13
 73
9
 74
0
 42
0.0000001
 43
0.0000001
 44
0.0000000001
 40
0.0
 40
0.0
 40
0.0
 40
0.0
 40
0.2680556366
 40
0.5253059487
 40
0.6486698566
 40
0.7682467288
 40
0.885033675
 40
1.0
 40
1.0
 40
1.0
 40
1.0
 10
4.194154474
 20
21.7079369253
 30
0.0
 10
4.1681444605
 20
21.7079369253
 30
0.0
 10
4.1167552757
 20
21.7164779298
 30
0.0
 10
4.0606338648
 20
21.7481794226
 30
0.0
 10
4.0268450733
 20
21.783428943
 30
0.0
 10
4.0082119956
 20
21.8132671309
 30
0.0
 10
3.9967661196
 20
21.845660718
 30
0.0
 10
3.994154474
 20
21.8682263174
 30
0.0
 10
3.994154474
 20
21.8793817466
 30
0.0
  0
SPLINE
  5
334
100
AcDbEntity
  8
0
100
AcDbSpline
 62
7
  6
BYLAYER
 70
0
 71
3
 72
14
 73
10
 74
0
 42
0.0000001
 43
0.0000001
 44
0.0000000001
 40
0.0
 40
0.0
 40
0.0
 40
0.0
 40
0.1471614384
 40
0.2915220269
 40
0.5594192534
 40
0.6808489307
 40
0.7933842684
 40
0.8988269654
 40
1.0
 40
1.0
 40
1.0
 40
1.0
 10
4.194154474
 20
22.6736571923
 30
0.0
 10
4.1810594156
 20
22.6736571923
 30
0.0
 10
4.1550695804
 20
22.675430328
 30
0.0
 10
4.1062582548
 20
22.6855453535
 30
0.0
 10
4.0618871913
 20
22.7051498812
 30
0.0
 10
4.0273443504
 20
22.7338552177
 30
0.0
 10
4.008528374
 20
22.7578290014
 30
0.0
 10
3.9968502301
 20
22.7840520675
 30
0.0
 10
3.994154474
 20
22.8025299175
 30
0.0
 10
3.994154474
 20
22.8115327297
 30
0.0
  0
SPLINE
  5
335
100
AcDbEntity
  8
0
100
AcDbSpline
 62
7
  6
BYLAYER
 70
0
 71
3
 72
15
 73
11
 74
0
 42
0.0000001
 43
0.0000001
 44
0.0000000001
 40
0.0
 40
0.0
 40
0.0
 40
0.0
 40
0.1644085484
 40
0.3240836892
 40
0.4738433078
 40
0.6100355746
 40
0.7300810029
 40
0.8331232183
 40
0.9212426647
 40
1.0
 40
1.0
 40
1.0
 40
1.0
 10
4.194154474
 20
23.8337452711
 30
0.0
 10
4.181075476
 20
23.8337452711
 30
0.0
 10
4.1552777596
 20
23.8349492368
 30
0.0
 10
4.1178994874
 20
23.8402567112
 30
0.0
 10
4.0834385468
 20
23.8488851475
 30
0.0
 10
4.0531955542
 20
23.8604859478
 30
0.0
 10
4.0281954242
 20
23.8746094629
 30
0.0
 10
4.009256899
 20
23.8908872506
 30
0.0
 10
3.997114004
 20
23.909016559
 30
0.0
 10
3.994154474
 20
23.9223902458
 30
0.0
 10
3.994154474
 20
23.9286555346
 30
0.0
  0
SPLINE
  5
336
100
AcDbEntity
  8
0
100
AcDbSpline
 62
7
  6
BYLAYER
 70
0
 71
3
 72
13
 73
9
 74
0
 42
0.0000001
 43
0.0000001
 44
0.0000000001
 40
0.0
 40
0.0
 40
0.0
 40
0.0
 40
0.1625117053
 40
0.3303880659
 40
0.5004650892
 40
0.6703987873
 40
0.8377202937
 40
1.0
 40
1.0
 40
1.0
 40
1.0
 10
30.7973066099
 20
23.9136399572
 30
0.0
 10
30.7999548744
 20
23.9243319371
 30
0.0
 10
30.8071421757
 20
23.9456783664
 30
0.0
 10
30.823276087
 20
23.9757285546
 30
0.0
 10
30.8446467961
 20
24.0031157819
 30
0.0
 10
30.8705037532
 20
24.0264721451
 30
0.0
 10
30.8996457999
 20
24.044763374
 30
0.0
 10
30.9207968139
 20
24.0531152064
 30
0.0
 10
30.9314111905
 20
24.0564699697
 30
0.0
  0
SPLINE
  5
337
100
AcDbEntity
  8
0
100
AcDbSpline
 62
7
  6
BYLAYER
 70
0
 71
3
 72
13
 73
9
 74
0
 42
0.0000001
 43
0.0000001
 44
0.0000000001
 40
0.0
 40
0.0
 40
0.0
 40
0.0
 40
0.1625121117
 40
0.3303965756
 40
0.5004595098
 40
0.670419261
 40
0.8377484091
 40
1.0
 40
1.0
 40
1.0
 40
1.0
 10
17.7910026827
 20
27.1379324675
 30
0.0
 10
17.7883548902
 20
27.1272401981
 30
0.0
 10
17.7811681145
 20
27.1058926497
 30
0.0
 10
17.765034663
 20
27.075842239
 30
0.0
 10
17.7436632151
 20
27.0484537538
 30
0.0
 10
17.7178052662
 20
27.0250969777
 30
0.0
 10
17.6886628985
 20
27.006806729
 30
0.0
 10
17.6675136609
 20
26.9984557415
 30
0.0
 10
17.6569013674
 20
26.9951016243
 30
0.0
  0
SPLINE
  5
338
100
AcDbEntity
  8
0
100
AcDbSpline
 62
7
  6
BYLAYER
 70
0
 71
3
 72
27
 73
23
 74
0
 42
0.0000001
 43
0.0000001
 44
0.0000000001
 40
0.0
 40
0.0
 40
0.0
 40
0.0
 40
0.0447213954
 40
0.0931252894
 40
0.142387335
 40
0.1923333833
 40
0.2428045617
 40
0.2937765441
 40
0.3451752411
 40
0.3968325076
 40
0.4486771258
 40
0.500623876
 40
0.552571497
 40
0.6044149809
 40
0.6560675418
 40
0.7074592261
 40
0.7584180477
 40
0.8088740491
 40
0.8588069214
 40
0.9080569469
 40
0.9564480097
 40
1.0
 40
1.0
 40
1.0
 40
1.0
 10
24.294154474
 20
19.1217463989
 30
0.0
 10
24.5843865792
 20
19.1217620836
 30
0.0
 10
25.1897446607
 20
19.1687467102
 30
0.0
 10
26.0916811628
 20
19.388010489
 30
0.0
 10
26.9763320992
 20
19.7670200545
 30
0.0
 10
27.7978129944
 20
20.2935705522
 30
0.0
 10
28.5314379077
 20
20.9534441121
 30
0.0
 10
29.1570525158
 20
21.7284633153
 30
0.0
 10
29.6586516404
 20
22.5976954378
 30
0.0
 10
30.0242935342
 20
23.5382307125
 30
0.0
 10
30.2459700922
 20
24.5262424815
 30
0.0
 10
30.3191575949
 20
25.5380126375
 30
0.0
 10
30.2423648043
 20
26.5495091228
 30
0.0
 10
30.0171429826
 20
27.5366879121
 30
0.0
 10
29.6480986453
 20
28.4758068669
 30
0.0
 10
29.1433450619
 20
29.3430283431
 30
0.0
 10
28.5149292323
 20
30.1154862691
 30
0.0
 10
27.7789486149
 20
30.7723302208
 30
0.0
 10
26.9556091336
 20
31.2954896634
 30
0.0
 10
26.0696770312
 20
31.67084794
 30
0.0
 10
25.1744045417
 20
31.8846522244
 30
0.0
 10
24.5767973952
 20
31.929805045
 30
0.0
 10
24.294154474
 20
31.929822644
 30
0.0
  0
LINE
  5
339
100
AcDbEntity
  8
0
100
AcDbLine
 62
7
  6
BYLAYER
 10
18.094154474
 20
31.5027598169
 11
14.1402316571
 21
31.4894223049
  0
LINE
  5
33A
100
AcDbEntity
  8
0
100
AcDbLine
 62
7
  6
BYLAYER
 10
14.1402316571
 20
19.5621481346
 11
18.094154474
 21
19.5488106226
  0
SPLINE
  5
33B
100
AcDbEntity
  8
0
100
AcDbSpline
 62
7
  6
BYLAYER
 70
0
 71
3
 72
19
 73
15
 74
0
 42
0.0000001
 43
0.0000001
 44
0.0000000001
 40
0.0
 40
0.0
 40
0.0
 40
0.0
 40
0.0376097225
 40
0.0646360797
 40
0.0904464127
 40
0.1235096992
 40
0.1685828409
 40
0.2290938756
 40
0.3073790566
 40
0.4052585526
 40
0.5233577361
 40
0.6615777585
 40
0.8203294383
 40
1.0
 40
1.0
 40
1.0
 40
1.0
 10
28.144154474
 20
22.4750464053
 30
0.0
 10
28.144154474
 20
22.4695077708
 30
0.0
 10
28.1449005655
 20
22.4598544146
 30
0.0
 10
28.1522012016
 20
22.4477033353
 30
0.0
 10
28.1650376565
 20
22.4435425439
 30
0.0
 10
28.1803834951
 20
22.4463073446
 30
0.0
 10
28.1991789062
 20
22.4544907387
 30
0.0
 10
28.222133616
 20
22.4690050028
 30
0.0
 10
28.2495709916
 20
22.4905602517
 30
0.0
 10
28.2814867679
 20
22.5199292068
 30
0.0
 10
28.3175930364
 20
22.5576130569
 30
0.0
 10
28.3574510581
 20
22.6039921041
 30
0.0
 10
28.4005662936
 20
22.6594143378
 30
0.0
 10
28.4293421744
 20
22.7001303295
 30
0.0
 10
28.444154474
 20
22.7220550655
 30
0.0
  0
SPLINE
  5
33C
100
AcDbEntity
  8
0
100
AcDbSpline
 62
7
  6
BYLAYER
 70
0
 71
3
 72
13
 73
9
 74
0
 42
0.0000001
 43
0.0000001
 44
0.0000000001
 40
0.0
 40
0.0
 40
0.0
 40
0.0
 40
0.2307551132
 40
0.4404104719
 40
0.6318269107
 40
0.7897757588
 40
0.91440202
 40
1.0
 40
1.0
 40
1.0
 40
1.0
 10
28.444154474
 20
23.1138358007
 30
0.0
 10
28.4176679344
 20
23.0682630625
 30
0.0
 10
28.3675108343
 20
22.9810605219
 30
0.0
 10
28.2968879901
 20
22.8551660658
 30
0.0
 10
28.2365863647
 20
22.7426611205
 30
0.0
 10
28.1887715119
 20
22.6452784873
 30
0.0
 10
28.1571499727
 20
22.5677145259
 30
0.0
 10
28.144154474
 20
22.5204707368
 30
0.0
 10
28.144154474
 20
22.5009178698
 30
0.0
  0
SPLINE
  5
33D
100
AcDbEntity
  8
0
100
AcDbSpline
 62
7
  6
BYLAYER
 70
0
 71
3
 72
13
 73
9
 74
0
 42
0.0000001
 43
0.0000001
 44
0.0000000001
 40
0.0
 40
0.0
 40
0.0
 40
0.0
 40
0.0859165337
 40
0.2108913955
 40
0.3690417536
 40
0.5603856281
 40
0.7697426912
 40
1.0
 40
1.0
 40
1.0
 40
1.0
 10
20.444154474
 20
22.5009178698
 30
0.0
 10
20.444154474
 20
22.5205434348
 30
0.0
 10
20.4310689857
 20
22.5679282311
 30
0.0
 10
20.3993753954
 20
22.6456708363
 30
0.0
 10
20.351471457
 20
22.7431335799
 30
0.0
 10
20.2911816614
 20
22.855599154
 30
0.0
 10
20.2206510273
 20
22.981317603
 30
0.0
 10
20.1705837829
 20
23.0683615337
 30
0.0
 10
20.144154474
 20
23.1138358007
 30
0.0
  0
SPLINE
  5
33E
100
AcDbEntity
  8
0
100
AcDbSpline
 62
7
  6
BYLAYER
 70
0
 71
3
 72
19
 73
15
 74
0
 42
0.0000001
 43
0.0000001
 44
0.0000000001
 40
0.0
 40
0.0
 40
0.0
 40
0.0
 40
0.1795578993
 40
0.3382136853
 40
0.4763675172
 40
0.5944403177
 40
0.692296337
 40
0.7706230652
 40
0.8311766182
 40
0.8763437026
 40
0.9094375026
 40
0.9352933617
 40
0.9623360989
 40
1.0
 40
1.0
 40
1.0
 40
1.0
 10
20.144154474
 20
22.7220550655
 30
0.0
 10
20.1589574524
 20
22.7001441266
 30
0.0
 10
20.1877149868
 20
22.6594529638
 30
0.0
 10
20.2308026979
 20
22.6040608429
 30
0.0
 10
20.2706384594
 20
22.557699537
 30
0.0
 10
20.306727578
 20
22.5200231361
 30
0.0
 10
20.3386359211
 20
22.4906483258
 30
0.0
 10
20.3660730411
 20
22.4690783387
 30
0.0
 10
20.3890417743
 20
22.454538514
 30
0.0
 10
20.4078536697
 20
22.4463297532
 30
0.0
 10
20.4232178133
 20
22.443541327
 30
0.0
 10
20.4360791641
 20
22.4476755222
 30
0.0
 10
20.4434079319
 20
22.459834334
 30
0.0
 10
20.444154474
 20
22.4694998046
 30
0.0
 10
20.444154474
 20
22.4750464053
 30
0.0
  0
SPLINE
  5
33F
100
AcDbEntity
  8
0
100
AcDbSpline
 62
7
  6
BYLAYER
 70
0
 71
3
 72
19
 73
15
 74
0
 42
0.0000001
 43
0.0000001
 44
0.0000000001
 40
0.0
 40
0.0
 40
0.0
 40
0.0
 40
0.0376097225
 40
0.0646360797
 40
0.0904464127
 40
0.1235096992
 40
0.1685828409
 40
0.2290938756
 40
0.3073790566
 40
0.4052585526
 40
0.5233577361
 40
0.6615777585
 40
0.8203294383
 40
1.0
 40
1.0
 40
1.0
 40
1.0
 10
20.444154474
 20
28.5765240343
 30
0.0
 10
20.444154474
 20
28.5820626688
 30
0.0
 10
20.4434083826
 20
28.591716025
 30
0.0
 10
20.4361077465
 20
28.6038671043
 30
0.0
 10
20.4232712916
 20
28.6080278956
 30
0.0
 10
20.4079254529
 20
28.605263095
 30
0.0
 10
20.3891300419
 20
28.5970797008
 30
0.0
 10
20.366175332
 20
28.5825654368
 30
0.0
 10
20.3387379564
 20
28.5610101879
 30
0.0
 10
20.3068221802
 20
28.5316412327
 30
0.0
 10
20.2707159117
 20
28.4939573827
 30
0.0
 10
20.23085789
 20
28.4475783355
 30
0.0
 10
20.1877426545
 20
28.3921561018
 30
0.0
 10
20.1589667737
 20
28.35144011
 30
0.0
 10
20.144154474
 20
28.329515374
 30
0.0
  0
SPLINE
  5
340
100
AcDbEntity
  8
0
100
AcDbSpline
 62
7
  6
BYLAYER
 70
0
 71
3
 72
13
 73
9
 74
0
 42
0.0000001
 43
0.0000001
 44
0.0000000001
 40
0.0
 40
0.0
 40
0.0
 40
0.0
 40
0.2307551132
 40
0.4404104719
 40
0.6318269107
 40
0.7897757588
 40
0.91440202
 40
1.0
 40
1.0
 40
1.0
 40
1.0
 10
20.144154474
 20
27.9377346388
 30
0.0
 10
20.1706410136
 20
27.983307377
 30
0.0
 10
20.2207981138
 20
28.0705099176
 30
0.0
 10
20.2914209579
 20
28.1964043737
 30
0.0
 10
20.3517225834
 20
28.3089093191
 30
0.0
 10
20.3995374362
 20
28.4062919523
 30
0.0
 10
20.4311589753
 20
28.4838559137
 30
0.0
 10
20.444154474
 20
28.5310997027
 30
0.0
 10
20.444154474
 20
28.5506525698
 30
0.0
  0
SPLINE
  5
341
100
AcDbEntity
  8
0
100
AcDbSpline
 62
7
  6
BYLAYER
 70
0
 71
3
 72
13
 73
9
 74
0
 42
0.0000001
 43
0.0000001
 44
0.0000000001
 40
0.0
 40
0.0
 40
0.0
 40
0.0
 40
0.0859165337
 40
0.2108913955
 40
0.3690417536
 40
0.5603856281
 40
0.7697426912
 40
1.0
 40
1.0
 40
1.0
 40
1.0
 10
28.144154474
 20
28.5506525698
 30
0.0
 10
28.144154474
 20
28.5310270047
 30
0.0
 10
28.1572399624
 20
28.4836422084
 30
0.0
 10
28.1889335526
 20
28.4058996032
 30
0.0
 10
28.236837491
 20
28.3084368597
 30
0.0
 10
28.2971272866
 20
28.1959712855
 30
0.0
 10
28.3676579208
 20
28.0702528366
 30
0.0
 10
28.4177251651
 20
27.9832089058
 30
0.0
 10
28.444154474
 20
27.9377346388
 30
0.0
  0
SPLINE
  5
342
100
AcDbEntity
  8
0
100
AcDbSpline
 62
7
  6
BYLAYER
 70
0
 71
3
 72
19
 73
15
 74
0
 42
0.0000001
 43
0.0000001
 44
0.0000000001
 40
0.0
 40
0.0
 40
0.0
 40
0.0
 40
0.1795578993
 40
0.3382136853
 40
0.4763675172
 40
0.5944403177
 40
0.692296337
 40
0.7706230652
 40
0.8311766182
 40
0.8763437026
 40
0.9094375026
 40
0.9352933617
 40
0.9623360989
 40
1.0
 40
1.0
 40
1.0
 40
1.0
 10
28.444154474
 20
28.329515374
 30
0.0
 10
28.4293514957
 20
28.351426313
 30
0.0
 10
28.4005939613
 20
28.3921174757
 30
0.0
 10
28.3575062502
 20
28.4475095966
 30
0.0
 10
28.3176704886
 20
28.4938709026
 30
0.0
 10
28.2815813701
 20
28.5315473034
 30
0.0
 10
28.249673027
 20
28.5609221137
 30
0.0
 10
28.2222359069
 20
28.5824921008
 30
0.0
 10
28.1992671738
 20
28.5970319256
 30
0.0
 10
28.1804552784
 20
28.6052406863
 30
0.0
 10
28.1650911347
 20
28.6080291125
 30
0.0
 10
28.152229784
 20
28.6038949174
 30
0.0
 10
28.1449010161
 20
28.5917361055
 30
0.0
 10
28.144154474
 20
28.582070635
 30
0.0
 10
28.144154474
 20
28.5765240343
 30
0.0
  0
LINE
  5
343
100
AcDbEntity
  8
0
100
AcDbLine
 62
7
  6
BYLAYER
 10
25.9530820456
 20
30.0300009464
 11
22.683633498
 21
30.0475351228
  0
SPLINE
  5
344
100
AcDbEntity
  8
0
100
AcDbSpline
 62
7
  6
BYLAYER
 70
0
 71
3
 72
47
 73
43
 74
0
 42
0.0000001
 43
0.0000001
 44
0.0000000001
 40
0.0
 40
0.0
 40
0.0
 40
0.0
 40
0.1315435592
 40
0.201435767
 40
0.2707453412
 40
0.3437770902
 40
0.3792052096
 40
0.4137130707
 40
0.4474693937
 40
0.4805230258
 40
0.544270347
 40
0.5849747046
 40
0.623998641
 40
0.6671436219
 40
0.7243871388
 40
0.7752534439
 40
0.8144258561
 40
0.8461927145
 40
0.8717547342
 40
0.8903797309
 40
0.8962001075
 40
0.9009094749
 40
0.9028556087
 40
0.9045358085
 40
0.9059558097
 40
0.9071214118
 40
0.9081688903
 40
0.9088255053
 40
0.9090551024
 40
0.909315505
 40
0.9100433427
 40
0.9112339045
 40
0.9128857521
 40
0.9149994511
 40
0.9206130877
 40
0.9280585405
 40
0.9373068255
 40
0.9483317221
 40
0.9593559416
 40
0.9716682414
 40
0.9852288835
 40
1.0
 40
1.0
 40
1.0
 40
1.0
 10
27.9425140929
 20
27.966741518
 30
0.0
 10
27.9410402389
 20
27.9763105657
 30
0.0
 10
27.9384621575
 20
27.9909142014
 30
0.0
 10
27.9346956158
 20
28.0104821213
 30
0.0
 10
27.9316514227
 20
28.0258035949
 30
0.0
 10
27.9290927953
 20
28.038635165
 30
0.0
 10
27.9270769944
 20
28.0489630727
 30
0.0
 10
27.9256652168
 20
28.0564633552
 30
0.0
 10
27.9242908235
 20
28.063792835
 30
0.0
 10
27.9224539812
 20
28.0732249995
 30
0.0
 10
27.9204567246
 20
28.083146751
 30
0.0
 10
27.9183180372
 20
28.0934880391
 30
0.0
 10
27.9164657183
 20
28.1023400539
 30
0.0
 10
27.9143610277
 20
28.1123829164
 30
0.0
 10
27.9120888417
 20
28.123281341
 30
0.0
 10
27.9099902071
 20
28.133916793
 30
0.0
 10
27.9083339544
 20
28.1427276526
 30
0.0
 10
27.9069959384
 20
28.1497031771
 30
0.0
 10
27.9059405946
 20
28.1551930664
 30
0.0
 10
27.905244355
 20
28.1588071815
 30
0.0
 10
27.90483362
 20
28.1609134704
 30
0.0
 10
27.9046563543
 20
28.1618142654
 30
0.0
 10
27.9045368784
 20
28.1624163455
 30
0.0
 10
27.9044636047
 20
28.1627797735
 30
0.0
 10
27.9044000038
 20
28.1630892683
 30
0.0
 10
27.9043436847
 20
28.1633448223
 30
0.0
 10
27.9042950722
 20
28.1635669895
 30
0.0
 10
27.9042632304
 20
28.1636732827
 30
0.0
 10
27.9042491491
 20
28.1638017745
 30
0.0
 10
27.9043200853
 20
28.1636766722
 30
0.0
 10
27.90436257
 20
28.1635639695
 30
0.0
 10
27.9044680735
 20
28.1632992096
 30
0.0
 10
27.9045830968
 20
28.1629630705
 30
0.0
 10
27.9047985775
 20
28.1623020039
 30
0.0
 10
27.9051090507
 20
28.161232519
 30
0.0
 10
27.9055217784
 20
28.1596416063
 30
0.0
 10
27.9059777608
 20
28.1576533624
 30
0.0
 10
27.9064324575
 20
28.1553946593
 30
0.0
 10
27.9068705014
 20
28.1529036485
 30
0.0
 10
27.9072804042
 20
28.1502187993
 30
0.0
 10
27.9076654043
 20
28.1472519518
 30
0.0
 10
27.907887109
 20
28.1451782785
 30
0.0
 10
27.9079908451
 20
28.1440960533
 30
0.0
  0
SPLINE
  5
345
100
AcDbEntity
  8
0
100
AcDbSpline
 62
7
  6
BYLAYER
 70
0
 71
3
 72
12
 73
8
 74
0
 42
0.0000001
 43
0.0000001
 44
0.0000000001
 40
0.0
 40
0.0
 40
0.0
 40
0.0
 40
0.1735789571
 40
0.3570189525
 40
0.5536967301
 40
0.7664977777
 40
1.0
 40
1.0
 40
1.0
 40
1.0
 10
27.9425141235
 20
27.966741524
 30
0.0
 10
27.9169856403
 20
27.9617996404
 30
0.0
 10
27.8658116331
 20
27.9436282308
 30
0.0
 10
27.797106272
 20
27.8954106124
 30
0.0
 10
27.7407647545
 20
27.8251954732
 30
0.0
 10
27.7030459051
 20
27.7352060564
 30
0.0
 10
27.6949863413
 20
27.6680333994
 30
0.0
 10
27.694154474
 20
27.6330642711
 30
0.0
  0
SPLINE
  5
346
100
AcDbEntity
  8
0
100
AcDbSpline
 62
7
  6
BYLAYER
 70
0
 71
3
 72
10
 73
6
 74
0
 42
0.0000001
 43
0.0000001
 44
0.0000000001
 40
0.0
 40
0.0
 40
0.0
 40
0.0
 40
0.3414376486
 40
0.6748603594
 40
1.0
 40
1.0
 40
1.0
 40
1.0
 10
27.994154474
 20
27.9723389183
 30
0.0
 10
27.9882313133
 20
27.9722570351
 30
0.0
 10
27.9765400682
 20
27.9717295441
 30
0.0
 10
27.9591914402
 20
27.970478909
 30
0.0
 10
27.9480530861
 20
27.967809418
 30
0.0
 10
27.9425141235
 20
27.966741524
 30
0.0
  0
SPLINE
  5
347
100
AcDbEntity
  8
0
100
AcDbSpline
 62
7
  6
BYLAYER
 70
0
 71
3
 72
12
 73
8
 74
0
 42
0.0000001
 43
0.0000001
 44
0.0000000001
 40
0.0
 40
0.0
 40
0.0
 40
0.0
 40
0.1392746366
 40
0.3263892351
 40
0.5498001076
 40
0.7867836734
 40
1.0
 40
1.0
 40
1.0
 40
1.0
 10
30.294154474
 20
28.1593373324
 30
0.0
 10
30.294154474
 20
28.1417801347
 30
0.0
 10
30.2768821479
 20
28.101665305
 30
0.0
 10
30.2285565843
 20
28.0514684879
 30
0.0
 10
30.1586044936
 20
28.0076326929
 30
0.0
 10
30.0779259757
 20
27.979451269
 30
0.0
 10
30.0210306502
 20
27.971992163
 30
0.0
 10
29.994154474
 20
27.9723389183
 30
0.0
  0
SPLINE
  5
348
100
AcDbEntity
  8
0
100
AcDbSpline
 62
7
  6
BYLAYER
 70
0
 71
3
 72
10
 73
6
 74
0
 42
0.0000001
 43
0.0000001
 44
0.0000000001
 40
0.0
 40
0.0
 40
0.0
 40
0.0
 40
0.3198215607
 40
0.6589173978
 40
1.0
 40
1.0
 40
1.0
 40
1.0
 10
30.294154474
 20
28.201883447
 30
0.0
 10
30.263437511
 20
28.1910881211
 30
0.0
 10
30.198798815
 20
28.1725040421
 30
0.0
 10
30.0981752303
 20
28.1558254655
 30
0.0
 10
30.0288776354
 20
28.1518910794
 30
0.0
 10
29.994154474
 20
28.1519024926
 30
0.0
  0
SPLINE
  5
349
100
AcDbEntity
  8
0
100
AcDbSpline
 62
7
  6
BYLAYER
 70
0
 71
3
 72
10
 73
6
 74
0
 42
0.0000001
 43
0.0000001
 44
0.0000000001
 40
0.0
 40
0.0
 40
0.0
 40
0.0
 40
0.3412490009
 40
0.6802515725
 40
1.0
 40
1.0
 40
1.0
 40
1.0
 10
29.994154474
 20
22.899667947
 30
0.0
 10
30.0288912758
 20
22.899636588
 30
0.0
 10
30.0981867182
 20
22.8956512338
 30
0.0
 10
30.1987834273
 20
22.8788953315
 30
0.0
 10
30.2634222206
 20
22.8604214066
 30
0.0
 10
30.294154474
 20
22.8497016018
 30
0.0
  0
SPLINE
  5
34A
100
AcDbEntity
  8
0
100
AcDbSpline
 62
7
  6
BYLAYER
 70
0
 71
3
 72
12
 73
8
 74
0
 42
0.0000001
 43
0.0000001
 44
0.0000000001
 40
0.0
 40
0.0
 40
0.0
 40
0.0
 40
0.2123903257
 40
0.4477531865
 40
0.6716973618
 40
0.8599565777
 40
1.0
 40
1.0
 40
1.0
 40
1.0
 10
29.994154474
 20
23.0792315212
 30
0.0
 10
30.020928058
 20
23.0797338987
 30
0.0
 10
30.0775750223
 20
23.0725691347
 30
0.0
 10
30.1580595305
 20
23.0444344402
 30
0.0
 10
30.2278864261
 20
23.0004055795
 30
0.0
 10
30.2766496296
 20
22.9502308361
 30
0.0
 10
30.294154474
 20
22.9098898618
 30
0.0
 10
30.294154474
 20
22.892233105
 30
0.0
  0
SPLINE
  5
34B
100
AcDbEntity
  8
0
100
AcDbSpline
 62
7
  6
BYLAYER
 70
0
 71
3
 72
12
 73
8
 74
0
 42
0.0000001
 43
0.0000001
 44
0.0000000001
 40
0.0
 40
0.0
 40
0.0
 40
0.0
 40
0.2195727632
 40
0.4208158807
 40
0.612159361
 40
0.8026130563
 40
1.0
 40
1.0
 40
1.0
 40
1.0
 10
27.694154474
 20
23.4185061685
 30
0.0
 10
27.6948905228
 20
23.3818590393
 30
0.0
 10
27.7036716433
 20
23.3112461846
 30
0.0
 10
27.7455509072
 20
23.2162646022
 30
0.0
 10
27.8114312249
 20
23.1425794049
 30
0.0
 10
27.8961646905
 20
23.0924432863
 30
0.0
 10
27.9612358543
 20
23.0806900641
 30
0.0
 10
27.994154474
 20
23.0792315212
 30
0.0
  0
SPLINE
  5
34C
100
AcDbEntity
  8
0
100
AcDbSpline
 62
7
  6
BYLAYER
 70
0
 71
3
 72
12
 73
8
 74
0
 42
0.0000001
 43
0.0000001
 44
0.0000000001
 40
0.0
 40
0.0
 40
0.0
 40
0.0
 40
0.1923209278
 40
0.3881305846
 40
0.5876446562
 40
0.791775779
 40
1.0
 40
1.0
 40
1.0
 40
1.0
 10
27.9079906177
 20
28.1441013528
 30
0.0
 10
27.8631258217
 20
28.1359352769
 30
0.0
 10
27.7744474978
 20
28.106409935
 30
0.0
 10
27.6582038145
 20
28.0264377874
 30
0.0
 10
27.5666942229
 20
27.9152385122
 30
0.0
 10
27.5077397906
 20
27.7807581236
 30
0.0
 10
27.494154474
 20
27.6824370745
 30
0.0
 10
27.494154474
 20
27.6330642711
 30
0.0
  0
SPLINE
  5
34D
100
AcDbEntity
  8
0
100
AcDbSpline
 62
7
  6
BYLAYER
 70
0
 71
3
 72
11
 73
7
 74
0
 42
0.0000001
 43
0.0000001
 44
0.0000000001
 40
0.0
 40
0.0
 40
0.0
 40
0.0
 40
0.2497692933
 40
0.4996867092
 40
0.7497595924
 40
1.0
 40
1.0
 40
1.0
 40
1.0
 10
27.994154474
 20
28.1519024926
 30
0.0
 10
27.9869418179
 20
28.1519171258
 30
0.0
 10
27.9725090894
 20
28.1516142016
 30
0.0
 10
27.9509007941
 20
28.1501523553
 30
0.0
 10
27.9293625438
 20
28.1477369366
 30
0.0
 10
27.9151006714
 20
28.1453921641
 30
0.0
 10
27.9079906177
 20
28.1441013528
 30
0.0
  0
SPLINE
  5
34E
100
AcDbEntity
  8
0
100
AcDbSpline
 62
7
  6
BYLAYER
 70
0
 71
3
 72
12
 73
8
 74
0
 42
0.0000001
 43
0.0000001
 44
0.0000000001
 40
0.0
 40
0.0
 40
0.0
 40
0.0
 40
0.2094359266
 40
0.4135586322
 40
0.6131451248
 40
0.8089221462
 40
1.0
 40
1.0
 40
1.0
 40
1.0
 10
27.494154474
 20
23.4185061685
 30
0.0
 10
27.494154474
 20
23.3628686214
 30
0.0
 10
27.5114225381
 20
23.25222815
 30
0.0
 10
27.5856637525
 20
23.1044311254
 30
0.0
 10
27.699279848
 20
22.9890185374
 30
0.0
 10
27.8399305073
 20
22.9163416677
 30
0.0
 10
27.94339384
 20
22.8997039684
 30
0.0
 10
27.994154474
 20
22.899667947
 30
0.0
  0
LINE
  5
34F
100
AcDbEntity
  8
0
100
AcDbLine
 62
7
  6
BYLAYER
 10
22.683633498
 20
21.0040353167
 11
25.9530820456
 21
21.0215694931
  0
SPLINE
  5
350
100
AcDbEntity
  8
0
100
AcDbSpline
 62
7
  6
BYLAYER
 70
0
 71
3
 72
11
 73
7
 74
0
 42
0.0000001
 43
0.0000001
 44
0.0000000001
 40
0.0
 40
0.0
 40
0.0
 40
0.0
 40
0.2543806183
 40
0.5049098206
 40
0.7527936598
 40
1.0
 40
1.0
 40
1.0
 40
1.0
 10
17.094154474
 20
21.0647917706
 30
0.0
 10
17.0457323091
 20
21.0647917706
 30
0.0
 10
16.9490753375
 20
21.051244054
 30
0.0
 10
16.8165559076
 20
20.9920735436
 30
0.0
 10
16.7068317174
 20
20.8990944171
 30
0.0
 10
16.6547167457
 20
20.818601706
 30
0.0
 10
16.6353551366
 20
20.7757129663
 30
0.0
  0
SPLINE
  5
351
100
AcDbEntity
  8
0
100
AcDbSpline
 62
7
  6
BYLAYER
 70
0
 71
3
 72
10
 73
6
 74
0
 42
0.0000001
 43
0.0000001
 44
0.0000000001
 40
0.0
 40
0.0
 40
0.0
 40
0.0
 40
0.3236536298
 40
0.6566890269
 40
1.0
 40
1.0
 40
1.0
 40
1.0
 10
16.601290172
 20
21.6460896288
 30
0.0
 10
16.599675458
 20
21.6388467073
 30
0.0
 10
16.5970017403
 20
21.624010549
 30
0.0
 10
16.5946530005
 20
21.6011847589
 30
0.0
 10
16.594154474
 20
21.5856712965
 30
0.0
 10
16.594154474
 20
21.5777998644
 30
0.0
  0
SPLINE
  5
352
100
AcDbEntity
  8
0
100
AcDbSpline
 62
7
  6
BYLAYER
 70
0
 71
3
 72
12
 73
8
 74
0
 42
0.0000001
 43
0.0000001
 44
0.0000000001
 40
0.0
 40
0.0
 40
0.0
 40
0.0
 40
0.2431074564
 40
0.4686205823
 40
0.6701823029
 40
0.8477060973
 40
1.0
 40
1.0
 40
1.0
 40
1.0
 10
17.094154474
 20
21.8938111204
 30
0.0
 10
17.0468137371
 20
21.8938111204
 30
0.0
 10
16.9553487891
 20
21.886122852
 30
0.0
 10
16.8284961211
 20
21.8526013612
 30
0.0
 10
16.7220022035
 20
21.8002064926
 30
0.0
 10
16.6421971689
 20
21.7322276448
 30
0.0
 10
16.6094870932
 20
21.6745907843
 30
0.0
 10
16.601290172
 20
21.6460896288
 30
0.0
  0
SPLINE
  5
353
100
AcDbEntity
  8
0
100
AcDbSpline
 62
7
  6
BYLAYER
 70
0
 71
3
 72
11
 73
7
 74
0
 42
0.0000001
 43
0.0000001
 44
0.0000000001
 40
0.0
 40
0.0
 40
0.0
 40
0.0
 40
0.0655473878
 40
0.2694459644
 40
0.5895575768
 40
1.0
 40
1.0
 40
1.0
 40
1.0
 10
16.5941662603
 20
20.6320339965
 30
0.0
 10
16.594441206
 20
20.6287669178
 30
0.0
 10
16.5959968482
 20
20.6584397754
 30
0.0
 10
16.6010061081
 20
20.6718666444
 30
0.0
 10
16.613515071
 20
20.7255185236
 30
0.0
 10
16.626907979
 20
20.7570013012
 30
0.0
 10
16.6353551366
 20
20.7757129663
 30
0.0
  0
SPLINE
  5
354
100
AcDbEntity
  8
0
100
AcDbSpline
 62
7
  6
BYLAYER
 70
0
 71
3
 72
11
 73
7
 74
0
 42
0.0000001
 43
0.0000001
 44
0.0000000001
 40
0.0
 40
0.0
 40
0.0
 40
0.0
 40
0.2472063402
 40
0.4950901794
 40
0.7456193817
 40
1.0
 40
1.0
 40
1.0
 40
1.0
 10
16.6353551366
 20
30.2758574732
 30
0.0
 10
16.6547167457
 20
30.2329687335
 30
0.0
 10
16.7068317174
 20
30.1524760225
 30
0.0
 10
16.8165559076
 20
30.0594968959
 30
0.0
 10
16.9490753375
 20
30.0003263855
 30
0.0
 10
17.0457323091
 20
29.986778669
 30
0.0
 10
17.094154474
 20
29.986778669
 30
0.0
  0
SPLINE
  5
355
100
AcDbEntity
  8
0
100
AcDbSpline
 62
7
  6
BYLAYER
 70
0
 71
3
 72
10
 73
6
 74
0
 42
0.0000001
 43
0.0000001
 44
0.0000000001
 40
0.0
 40
0.0
 40
0.0
 40
0.0
 40
0.3445530074
 40
0.6778091696
 40
1.0
 40
1.0
 40
1.0
 40
1.0
 10
16.594154474
 20
29.4737705752
 30
0.0
 10
16.594154474
 20
29.4658706651
 30
0.0
 10
16.5946559737
 20
29.450323601
 30
0.0
 10
16.5970113639
 20
29.4274984303
 30
0.0
 10
16.5996827558
 20
29.4126909973
 30
0.0
 10
16.601290172
 20
29.4054808107
 30
0.0
  0
SPLINE
  5
356
100
AcDbEntity
  8
0
100
AcDbSpline
 62
7
  6
BYLAYER
 70
0
 71
3
 72
11
 73
7
 74
0
 42
0.0000001
 43
0.0000001
 44
0.0000000001
 40
0.0
 40
0.0
 40
0.0
 40
0.0
 40
0.4116973956
 40
0.7316982212
 40
0.9349117071
 40
1.0
 40
1.0
 40
1.0
 40
1.0
 10
16.6353551366
 20
30.2758574732
 30
0.0
 10
16.6268821661
 20
30.2946263174
 30
0.0
 10
16.6134737199
 20
30.3261520741
 30
0.0
 10
16.6009752149
 20
30.3798467962
 30
0.0
 10
16.5959866587
 20
30.3932423653
 30
0.0
 10
16.5944392798
 20
30.4227806333
 30
0.0
 10
16.5941662603
 20
30.419536443
 30
0.0
  0
SPLINE
  5
357
100
AcDbEntity
  8
0
100
AcDbSpline
 62
7
  6
BYLAYER
 70
0
 71
3
 72
12
 73
8
 74
0
 42
0.0000001
 43
0.0000001
 44
0.0000000001
 40
0.0
 40
0.0
 40
0.0
 40
0.0
 40
0.1518417813
 40
0.3293480634
 40
0.5312211008
 40
0.7570658042
 40
1.0
 40
1.0
 40
1.0
 40
1.0
 10
16.601290172
 20
29.4054808107
 30
0.0
 10
16.6094627849
 20
29.3770641765
 30
0.0
 10
16.642081229
 20
29.3194954766
 30
0.0
 10
16.7218152985
 20
29.2514711718
 30
0.0
 10
16.8284071348
 20
29.1989882797
 30
0.0
 10
16.955351878
 20
29.1654448242
 30
0.0
 10
17.0468473244
 20
29.1577593192
 30
0.0
 10
17.094154474
 20
29.1577593192
 30
0.0
  0
SPLINE
  5
358
100
AcDbEntity
  8
0
100
AcDbSpline
 62
7
  6
BYLAYER
 70
0
 71
3
 72
13
 73
9
 74
0
 42
0.0000001
 43
0.0000001
 44
0.0000000001
 40
0.0
 40
0.0
 40
0.0
 40
0.0
 40
0.164883103
 40
0.3333601278
 40
0.5001804266
 40
0.661764008
 40
0.8375043496
 40
1.0
 40
1.0
 40
1.0
 40
1.0
 10
31.0850906952
 20
25.2070579532
 30
0.0
 10
31.075545924
 20
25.2130252612
 30
0.0
 10
31.0572771326
 20
25.2268264219
 30
0.0
 10
31.0339265075
 20
25.2519724706
 30
0.0
 10
31.0153904616
 20
25.2805853087
 30
0.0
 10
31.0017214848
 20
25.3123406867
 30
0.0
 10
30.9937532649
 20
25.345706427
 30
0.0
 10
30.9923259196
 20
25.368877339
 30
0.0
 10
30.9925675633
 20
25.3799683317
 30
0.0
  0
SPLINE
  5
359
100
AcDbEntity
  8
0
100
AcDbSpline
 62
7
  6
BYLAYER
 70
0
 71
3
 72
15
 73
11
 74
0
 42
0.0000001
 43
0.0000001
 44
0.0000000001
 40
0.0
 40
0.0
 40
0.0
 40
0.0
 40
0.0830629814
 40
0.1631305753
 40
0.2433639448
 40
0.3330823559
 40
0.4993150131
 40
0.6612723936
 40
0.8504239958
 40
1.0
 40
1.0
 40
1.0
 40
1.0
 10
30.9315908378
 20
24.0565267693
 30
0.0
 10
30.9322134703
 20
24.0584637329
 30
0.0
 10
30.9328534056
 20
24.0624368712
 30
0.0
 10
30.933306879
 20
24.0683877191
 30
0.0
 10
30.9349605178
 20
24.0743127478
 30
0.0
 10
30.937580749
 20
24.0821136159
 30
0.0
 10
30.9400310766
 20
24.092065227
 30
0.0
 10
30.9432156492
 20
24.1043265478
 30
0.0
 10
30.9461636617
 20
24.1162327506
 30
0.0
 10
30.948027424
 20
24.1243175359
 30
0.0
 10
30.9488709265
 20
24.1278828861
 30
0.0
  0
SPLINE
  5
35A
100
AcDbEntity
  8
0
100
AcDbSpline
 62
7
  6
BYLAYER
 70
0
 71
3
 72
9
 73
5
 74
0
 42
0.0000001
 43
0.0000001
 44
0.0000000001
 40
0.0
 40
0.0
 40
0.0
 40
0.0
 40
0.4937162328
 40
1.0
 40
1.0
 40
1.0
 40
1.0
 10
31.0837608688
 20
25.1537896659
 30
0.0
 10
31.0842406394
 20
25.1625470338
 30
0.0
 10
31.0852009739
 20
25.1802876644
 30
0.0
 10
31.0852937256
 20
25.1980624199
 30
0.0
 10
31.0850969844
 20
25.2070540208
 30
0.0
  0
SPLINE
  5
35B
100
AcDbEntity
  8
0
100
AcDbSpline
 62
7
  6
BYLAYER
 70
0
 71
3
 72
12
 73
8
 74
0
 42
0.0000001
 43
0.0000001
 44
0.0000000001
 40
0.0
 40
0.0
 40
0.0
 40
0.0
 40
0.3385829861
 40
0.6193738656
 40
0.8302172557
 40
0.9586497157
 40
1.0
 40
1.0
 40
1.0
 40
1.0
 10
31.3723622498
 20
24.9699303082
 30
0.0
 10
31.4040664737
 20
24.94973249
 30
0.0
 10
31.4629416001
 20
24.9122523148
 30
0.0
 10
31.5389912021
 20
24.86689538
 30
0.0
 10
31.6039923476
 20
24.824791046
 30
0.0
 10
31.6303757617
 20
24.8164355774
 30
0.0
 10
31.6580332111
 20
24.795503752
 30
0.0
 10
31.658483441
 20
24.8000725585
 30
0.0
  0
SPLINE
  5
35C
100
AcDbEntity
  8
0
100
AcDbSpline
 62
7
  6
BYLAYER
 70
0
 71
3
 72
12
 73
8
 74
0
 42
0.0000001
 43
0.0000001
 44
0.0000000001
 40
0.0
 40
0.0
 40
0.0
 40
0.0
 40
0.0413841758
 40
0.1695242499
 40
0.3797875637
 40
0.6603950364
 40
1.0
 40
1.0
 40
1.0
 40
1.0
 10
31.5953782745
 20
24.3207412307
 30
0.0
 10
31.5961264926
 20
24.3252745988
 30
0.0
 10
31.5640371881
 20
24.3122269626
 30
0.0
 10
31.5364422733
 20
24.3109872635
 30
0.0
 10
31.4628918951
 20
24.2871894036
 30
0.0
 10
31.3776653168
 20
24.2630567955
 30
0.0
 10
31.3110037225
 20
24.2420629121
 30
0.0
 10
31.2750440059
 20
24.230724857
 30
0.0
  0
SPLINE
  5
35D
100
AcDbEntity
  8
0
100
AcDbSpline
 62
7
  6
BYLAYER
 70
0
 71
3
 72
10
 73
6
 74
0
 42
0.0000001
 43
0.0000001
 44
0.0000000001
 40
0.0
 40
0.0
 40
0.0
 40
0.0
 40
0.3636727612
 40
0.6987340462
 40
1.0
 40
1.0
 40
1.0
 40
1.0
 10
17.5952632168
 20
25.648045923
 30
0.0
 10
17.5957362468
 20
25.6732021566
 30
0.0
 10
17.5888626413
 20
25.7223300967
 30
0.0
 10
17.5540584375
 20
25.7837599828
 30
0.0
 10
17.5203628523
 20
25.8134430658
 30
0.0
 10
17.5026641421
 20
25.8244516616
 30
0.0
  0
SPLINE
  5
35E
100
AcDbEntity
  8
0
100
AcDbSpline
 62
7
  6
BYLAYER
 70
0
 71
3
 72
12
 73
8
 74
0
 42
0.0000001
 43
0.0000001
 44
0.0000000001
 40
0.0
 40
0.0
 40
0.0
 40
0.0
 40
0.3385829861
 40
0.6193738656
 40
0.8302172557
 40
0.9586497157
 40
1.0
 40
1.0
 40
1.0
 40
1.0
 10
17.2159466982
 20
26.0816401314
 30
0.0
 10
17.1842424744
 20
26.1018379495
 30
0.0
 10
17.125367348
 20
26.1393181247
 30
0.0
 10
17.049317746
 20
26.1846750596
 30
0.0
 10
16.9843166004
 20
26.2267793935
 30
0.0
 10
16.9579331864
 20
26.2351348621
 30
0.0
 10
16.9302757369
 20
26.2560666875
 30
0.0
 10
16.9298255071
 20
26.2514978811
 30
0.0
  0
SPLINE
  5
35F
100
AcDbEntity
  8
0
100
AcDbSpline
 62
7
  6
BYLAYER
 70
0
 71
3
 72
12
 73
8
 74
0
 42
0.0000001
 43
0.0000001
 44
0.0000000001
 40
0.0
 40
0.0
 40
0.0
 40
0.0
 40
0.0413841758
 40
0.1695242499
 40
0.3797875637
 40
0.6603950364
 40
1.0
 40
1.0
 40
1.0
 40
1.0
 10
16.9929306736
 20
26.7308292088
 30
0.0
 10
16.9921824554
 20
26.7262958408
 30
0.0
 10
17.0242717599
 20
26.7393434769
 30
0.0
 10
17.0518666747
 20
26.740583176
 30
0.0
 10
17.125417053
 20
26.7643810359
 30
0.0
 10
17.2106436312
 20
26.7885136441
 30
0.0
 10
17.2773052256
 20
26.8095075275
 30
0.0
 10
17.3132649421
 20
26.8208455826
 30
0.0
  0
SPLINE
  5
360
100
AcDbEntity
  8
0
100
AcDbSpline
 62
7
  6
BYLAYER
 70
0
 71
3
 72
9
 73
5
 74
0
 42
0.0000001
 43
0.0000001
 44
0.0000000001
 40
0.0
 40
0.0
 40
0.0
 40
0.0
 40
0.4936099133
 40
1.0
 40
1.0
 40
1.0
 40
1.0
 10
17.5045489276
 20
25.897780234
 30
0.0
 10
17.5038879743
 20
25.8857152301
 30
0.0
 10
17.5026178997
 20
25.8612683884
 30
0.0
 10
17.502417024
 20
25.8367718608
 30
0.0
 10
17.5027749023
 20
25.824381087
 30
0.0
  0
SPLINE
  5
361
100
AcDbEntity
  8
0
100
AcDbSpline
 62
7
  6
BYLAYER
 70
0
 71
3
 72
15
 73
11
 74
0
 42
0.0000001
 43
0.0000001
 44
0.0000000001
 40
0.0
 40
0.0
 40
0.0
 40
0.0
 40
0.0831675559
 40
0.1631879782
 40
0.1922785536
 40
0.3363464732
 40
0.4993065502
 40
0.6635828317
 40
0.8376709824
 40
1.0
 40
1.0
 40
1.0
 40
1.0
 10
17.6573103905
 20
26.9952312085
 30
0.0
 10
17.656687767
 20
26.9932914291
 30
0.0
 10
17.6560281651
 20
26.9893189715
 30
0.0
 10
17.6556786854
 20
26.9846210425
 30
0.0
 10
17.6544215052
 20
26.9785395284
 30
0.0
 10
17.6515888197
 20
26.9707804505
 30
0.0
 10
17.6488700896
 20
26.9595545954
 30
0.0
 10
17.6456378155
 20
26.9477067489
 30
0.0
 10
17.64287789
 20
26.9357544155
 30
0.0
 10
17.640944061
 20
26.927744051
 30
0.0
 10
17.640028619
 20
26.9238744864
 30
0.0
  0
ENDSEC
  0
SECTION
  2
OBJECTS
  0
DICTIONARY
  5
C
100
AcDbDictionary
280
0
281
1
  3
ACAD_GROUP
350
D
  3
ACAD_MLINESTYLE
350
17
  3
ACAD_LAYOUT
350
1A
  3
ACAD_PLOTSETTINGS
350
19
  3
ACAD_PLOTSTYLENAME
350
E
  0
DICTIONARY
  5
D
102
{ACAD_REACTORS
330
C
102
}
100
AcDbDictionary
280
0
281
1
  0
ACDBDICTIONARYWDFLT
  5
E
102
{ACAD_REACTORS
330
C
102
}
100
AcDbDictionary
281
1
  3
Normal
350
F
100
AcDbDictionaryWithDefault
340
F
  0
DICTIONARY
  5
17
102
{ACAD_REACTORS
330
C
102
}
100
AcDbDictionary
280
0
281
1
  3
Standard
350
18
  0
DICTIONARY
  5
19
102
{ACAD_REACTORS
330
C
102
}
100
AcDbDictionary
281
1
  0
DICTIONARY
  5
1A
102
{ACAD_REACTORS
330
C
102
}
100
AcDbDictionary
281
1
  3
Model
350
362
  3
Layout1
350
363
  0
ACDBPLACEHOLDER
  5
F
102
{ACAD_REACTORS
330
E
102
}
  0
MLINESTYLE
  5
18
102
{ACAD_REACTORS
330
17
102
}
100
AcDbMlineStyle
  2
STANDARD
 70
0
  3

 62
256
 51
90.0
 52
90.0
 71
2
 49
0.5
 62
256
  6
BYLAYER
 49
-0.5
 62
256
  6
BYLAYER
  0
LAYOUT
  5
362
102
{ACAD_REACTORS
330
1A
102
}
100
AcDbPlotSettings
  1

  2
none_device
  4

  6

 40
0.0
 41
0.0
 42
0.0
 43
0.0
 44
210.0
 45
297.0
 46
0.0
 47
0.0
 48
0.0
 49
0.0
140
0.0
141
0.0
142
1.0
143
1.0
 70
1024
 72
1
 73
0
 74
0
  7

 75
0
147
1.0
148
0.0
149
0.0
100
AcDbLayout
  1
Model
 70
0
 71
0
 10
0.0
 20
0.0
 11
210.0
 21
297.0
 12
0.0
 22
0.0
 32
0.0
 14
0.0
 24
0.0
 34
0.0
 15
0.0
 25
0.0
 35
0.0
146
0.0
 13
0.0
 23
0.0
 33
0.0
 16
1.0
 26
0.0
 36
0.0
 17
0.0
 27
1.0
 37
0.0
 76
0
330
210
345
0
346
0
  0
LAYOUT
  5
363
102
{ACAD_REACTORS
330
1A
102
}
100
AcDbPlotSettings
  1

  2
none_device
  4

  6

 40
0.0
 41
0.0
 42
0.0
 43
0.0
 44
210.0
 45
297.0
 46
0.0
 47
0.0
 48
0.0
 49
0.0
140
0.0
141
0.0
142
1.0
143
1.0
 70
0
 72
1
 73
0
 74
0
  7

 75
0
147
1.0
148
0.0
149
0.0
100
AcDbLayout
  1
Layout1
 70
0
 71
1
 10
0.0
 20
0.0
 11
210.0
 21
297.0
 12
0.0
 22
0.0
 32
0.0
 14
0.0
 24
0.0
 34
0.0
 15
0.0
 25
0.0
 35
0.0
146
0.0
 13
0.0
 23
0.0
 33
0.0
 16
1.0
 26
0.0
 36
0.0
 17
0.0
 27
1.0
 37
0.0
 76
0
330
211
345
0
346
0
  0
ENDSEC
  0
EOF
