999
DXF file: C:\Users\sesa63760\Dev\_Creo\CAD\MCADPD0005320_3D-CAD\drw0001_5.dxf
999
Pro/ENGINEER 2019471 by Parametric Technology Corporation
  0
SECTION
  2
HEADER
  9
$ACADVER
  1
AC1024
  9
$DWGCODEPAGE
  3
ANSI_1252
  9
$EXTMAX
 10
498.5136550692
 20
705.0407407407
 30
0.0
  9
$EXTMIN
 10
0.0
 20
0.0
 30
0.0
  9
$LIMMIN
 10
0.0
 20
0.0
  9
$LIMMAX
 10
498.5136550692
 20
705.0407407407
  9
$VIEWCTR
 10
249.2568275346
 20
352.5203703704
  9
$VIEWSIZE
 40
705.0407407407
  9
$CLAYER
  8
0
  9
$LTSCALE
 40
45.9582112483
  9
$CELTYPE
  6
BYLAYER
  9
$DIMSCALE
 40
1.0
  9
$DIMASZ
 40
5.9346863699
  9
$DIMEXO
 40
1.0
  9
$DIMDLI
 40
31.7529459534
  9
$DIMEXE
 40
1.0
  9
$DIMCEN
 40
7.5204345679
  9
$DIMLFAC
 40
1.0
  9
$DIMBLK
  1
_FILLED
  9
$DIMALT
 70
0
  9
$DIMALTF
 40
0.0393700787
  9
$DIMTXT
 40
8.3085609178
  9
$DIMTOL
 70
1
  9
$DIMLIM
 70
0
  9
$DIMTFAC
 40
1.0
  9
$DIMTP
 40
0.01
  9
$DIMTM
 40
0.01
  9
$DIMGAP
 40
0.625
  9
$DIMDSEP
 70
46
  9
$AUNITS
 70
0
  9
$PDMODE
 70
3
  9
$PDSIZE
 40
0.3125
  9
$HANDSEED
  5
2B5
  9
$TILEMODE
 70
1
  9
$MEASUREMENT
 70
1
  9
$INSUNITS
 70
4
  0
ENDSEC
  0
SECTION
  2
CLASSES
  0
CLASS
  1
ACDBDICTIONARYWDFLT
  2
AcDbDictionaryWithDefault
  3
AutoCAD 2000
 90
0
 91
1
280
0
281
0
  0
CLASS
  1
ACDBPLACEHOLDER
  2
AcDbPlaceHolder
  3
AutoCAD 2000
 90
0
 91
1
280
0
281
0
  0
CLASS
  1
LAYOUT
  2
AcDbLayout
  3
AutoCAD 2000
 90
0
 91
0
280
0
281
0
  0
ENDSEC
  0
SECTION
  2
TABLES
  0
TABLE
  2
VPORT
  5
8
100
AcDbSymbolTable
 70
2
  0
VPORT
  5
1F4
100
AcDbSymbolTableRecord
100
AcDbViewportTableRecord
  2
*ACTIVE
 70
0
 10
0.0
 20
0.0
 11
1.0
 21
1.0
 12
249.2568275346
 22
352.5203703704
 13
0.0
 23
0.0
 14
1.0
 24
1.0
 15
0.0
 25
0.0
 16
0.0
 26
0.0
 36
1.0
 17
0.0
 27
0.0
 37
0.0
 40
705.0407407407
 41
0.7070707071
 42
50.0
 43
0.0
 44
0.0
 50
0.0
 51
0.0
 71
0
 72
100
 73
1
 74
1
 75
0
 76
0
 77
0
 78
0
  0
ENDTAB
  0
TABLE
  2
LTYPE
  5
5
100
AcDbSymbolTable
 70
6
  0
LTYPE
  5
14
100
AcDbSymbolTableRecord
100
AcDbLinetypeTableRecord
  2
BYBLOCK
 70
0
  3

 72
65
 73
0
 40
0.0
  0
LTYPE
  5
15
100
AcDbSymbolTableRecord
100
AcDbLinetypeTableRecord
  2
BYLAYER
 70
0
  3

 72
65
 73
0
 40
0.0
  0
LTYPE
  5
16
100
AcDbSymbolTableRecord
100
AcDbLinetypeTableRecord
  2
CONTINUOUS
 70
64
  3
Solid line
 72
65
 73
0
 40
0.0
  0
LTYPE
  5
1F5
100
AcDbSymbolTableRecord
100
AcDbLinetypeTableRecord
  2
CENTER
 70
64
  3
____ _ ____ _ ____ _ ____ _ ____ _ ____ _ ____
 72
65
 73
4
 40
0.6
 49
0.375
 74
0
 49
-0.075
 74
0
 49
0.075
 74
0
 49
-0.075
 74
0
  0
LTYPE
  5
1F6
100
AcDbSymbolTableRecord
100
AcDbLinetypeTableRecord
  2
HIDDEN
 70
64
  3
- - - - - - - - - - - - - - - - - - - -
 72
65
 73
2
 40
0.2
 49
0.1
 74
0
 49
-0.1
 74
0
  0
LTYPE
  5
1F7
100
AcDbSymbolTableRecord
100
AcDbLinetypeTableRecord
  2
PHANTOM
 70
64
  3
_____ _ _ _____ _ _ _____ _ _ _____
 72
65
 73
6
 40
0.8
 49
0.45
 74
0
 49
-0.05
 74
0
 49
0.1
 74
0
 49
-0.05
 74
0
 49
0.1
 74
0
 49
-0.05
 74
0
  0
LTYPE
  5
1F8
100
AcDbSymbolTableRecord
100
AcDbLinetypeTableRecord
  2
DOT
 70
64
  3
. . . . . . . . . . . . . . . . . . . .
 72
65
 73
2
 40
0.2
 49
0.1
 74
0
 49
-0.1
 74
0
  0
LTYPE
  5
1F9
100
AcDbSymbolTableRecord
100
AcDbLinetypeTableRecord
  2
DASHED
 70
64
  3
- - - - - - - - - - - - - - - - - - - -
 72
65
 73
2
 40
0.2
 49
0.1
 74
0
 49
-0.1
 74
0
  0
ENDTAB
  0
TABLE
  2
LAYER
  5
2
100
AcDbSymbolTable
 70
36
  0
LAYER
  5
10
100
AcDbSymbolTableRecord
100
AcDbLayerTableRecord
  2
0
 70
0
 62
7
  6
CONTINUOUS
370
-3
390
F
  0
LAYER
  5
1FA
100
AcDbSymbolTableRecord
100
AcDbLayerTableRecord
  2
DEFAULT_1
 70
0
 62
7
  6
CENTER
370
-3
390
F
  0
LAYER
  5
1FB
100
AcDbSymbolTableRecord
100
AcDbLayerTableRecord
  2
DEFAULT_2
 70
0
 62
7
  6
HIDDEN
370
-3
390
F
  0
LAYER
  5
1FC
100
AcDbSymbolTableRecord
100
AcDbLayerTableRecord
  2
DEFAULT_3
 70
0
 62
7
  6
PHANTOM
370
-3
390
F
  0
LAYER
  5
1FD
100
AcDbSymbolTableRecord
100
AcDbLayerTableRecord
  2
00_COMPONENTS
 70
0
 62
7
  6
CONTINUOUS
370
-3
390
F
  0
LAYER
  5
1FE
100
AcDbSymbolTableRecord
100
AcDbLayerTableRecord
  2
01_1_DEFAULT_DATUMS
 70
0
 62
7
  6
CONTINUOUS
370
-3
390
F
  0
LAYER
  5
1FF
100
AcDbSymbolTableRecord
100
AcDbLayerTableRecord
  2
01_PLANES
 70
0
 62
7
  6
CONTINUOUS
370
-3
390
F
  0
LAYER
  5
200
100
AcDbSymbolTableRecord
100
AcDbLayerTableRecord
  2
02_COORD_SYS
 70
0
 62
7
  6
CONTINUOUS
370
-3
390
F
  0
LAYER
  5
201
100
AcDbSymbolTableRecord
100
AcDbLayerTableRecord
  2
03_AXES
 70
0
 62
7
  6
CONTINUOUS
370
-3
390
F
  0
LAYER
  5
202
100
AcDbSymbolTableRecord
100
AcDbLayerTableRecord
  2
04_POINTS
 70
0
 62
7
  6
CONTINUOUS
370
-3
390
F
  0
LAYER
  5
203
100
AcDbSymbolTableRecord
100
AcDbLayerTableRecord
  2
05_CURVES
 70
0
 62
7
  6
CONTINUOUS
370
-3
390
F
  0
LAYER
  5
204
100
AcDbSymbolTableRecord
100
AcDbLayerTableRecord
  2
06_SURFS
 70
0
 62
7
  6
CONTINUOUS
370
-3
390
F
  0
LAYER
  5
205
100
AcDbSymbolTableRecord
100
AcDbLayerTableRecord
  2
07_COSMETICS
 70
0
 62
7
  6
CONTINUOUS
370
-3
390
F
  0
LAYER
  5
206
100
AcDbSymbolTableRecord
100
AcDbLayerTableRecord
  2
10_NOTES
 70
0
 62
7
  6
CONTINUOUS
370
-3
390
F
  0
LAYER
  5
207
100
AcDbSymbolTableRecord
100
AcDbLayerTableRecord
  2
11_NOTES_PUB
 70
0
 62
7
  6
CONTINUOUS
370
-3
390
F
  0
LAYER
  5
208
100
AcDbSymbolTableRecord
100
AcDbLayerTableRecord
  2
13_REF_GTOL
 70
0
 62
7
  6
CONTINUOUS
370
-3
390
F
  0
LAYER
  5
209
100
AcDbSymbolTableRecord
100
AcDbLayerTableRecord
  2
16_MISC
 70
0
 62
7
  6
CONTINUOUS
370
-3
390
F
  0
LAYER
  5
20A
100
AcDbSymbolTableRecord
100
AcDbLayerTableRecord
  2
17_NO_PRINT
 70
0
 62
7
  6
CONTINUOUS
370
-3
390
F
  0
LAYER
  5
20B
100
AcDbSymbolTableRecord
100
AcDbLayerTableRecord
  2
18_DATUM_CAMS_JOINTS
 70
0
 62
7
  6
CONTINUOUS
370
-3
390
F
  0
LAYER
  5
20C
100
AcDbSymbolTableRecord
100
AcDbLayerTableRecord
  2
19_DATUM_FUNCTIONAL
 70
0
 62
7
  6
CONTINUOUS
370
-3
390
F
  0
LAYER
  5
20D
100
AcDbSymbolTableRecord
100
AcDbLayerTableRecord
  2
20_DATUM_KINEMATIC_SCHEME
 70
0
 62
7
  6
CONTINUOUS
370
-3
390
F
  0
ENDTAB
  0
TABLE
  2
STYLE
  5
3
100
AcDbSymbolTable
 70
1
  0
STYLE
  5
11
100
AcDbSymbolTableRecord
100
AcDbTextStyleTableRecord
  2
STANDARD
 70
0
 40
0.0
 41
1.0
 50
0.0
 71
0
 42
0.2
  3
ARIAL.TTF
  4

  0
STYLE
  5
20E
100
AcDbSymbolTableRecord
100
AcDbTextStyleTableRecord
  2
TEXTSTYLE_1
 70
0
 40
0.0
 41
0.8
 50
0.0
 71
0
 42
0.2
  3
gdt
  4

  0
ENDTAB
  0
TABLE
  2
VIEW
  5
6
100
AcDbSymbolTable
 70
0
  0
ENDTAB
  0
TABLE
  2
UCS
  5
7
100
AcDbSymbolTable
 70
0
  0
ENDTAB
  0
TABLE
  2
APPID
  5
9
100
AcDbSymbolTable
 70
1
  0
APPID
  5
20F
100
AcDbSymbolTableRecord
100
AcDbRegAppTableRecord
  2
ACAD
 70
0
  0
ENDTAB
  0
TABLE
  2
BLOCK_RECORD
  5
1
100
AcDbSymbolTable
 70
0
  0
BLOCK_RECORD
  5
210
100
AcDbSymbolTableRecord
100
AcDbBlockTableRecord
  2
*Model_Space
  0
BLOCK_RECORD
  5
211
100
AcDbSymbolTableRecord
100
AcDbBlockTableRecord
  2
*Paper_Space
  0
BLOCK_RECORD
  5
212
100
AcDbSymbolTableRecord
100
AcDbBlockTableRecord
  2
_FILLED
  0
ENDTAB
  0
TABLE
  2
DIMSTYLE
  5
A
100
AcDbSymbolTable
 70
1
100
AcDbDimStyleTable
 71
0
  0
DIMSTYLE
105
213
100
AcDbSymbolTableRecord
100
AcDbDimStyleTableRecord
  2
STANDARD
 70
0
  3

  4

 40
1.0
 41
5.9346863699
 42
1.0
 43
0.38
 44
1.0
 45
0.0
 46
0.0
 47
0.01
 48
0.01
140
8.3085609178
141
0.09
142
0.0
143
25.4
144
1.0
145
0.0
146
1.0
147
0.625
 71
1
 72
0
 73
0
 74
0
 75
0
 76
0
 77
1
 78
8
 79
2
170
0
171
1
172
0
173
0
174
0
175
0
176
0
177
0
178
0
270
2
179
2
271
2
272
2
273
2
274
2
275
0
280
0
281
0
282
0
283
1
284
8
285
0
286
0
287
3
288
0
340
11
278
46
341
212
342
212
343
212
344
212
  0
ENDTAB
  0
ENDSEC
  0
SECTION
  2
BLOCKS
  0
BLOCK
  5
20
100
AcDbEntity
  8
0
100
AcDbBlockBegin
  2
*Model_Space
 70
0
 10
0.0
 20
0.0
 30
0.0
  3
*Model_Space
  1

  0
ENDBLK
  5
21
100
AcDbEntity
  8
0
100
AcDbBlockEnd
  0
BLOCK
  5
1C
100
AcDbEntity
  8
0
100
AcDbBlockBegin
  2
*Paper_Space
 70
0
 10
0.0
 20
0.0
 30
0.0
  3
*Paper_Space
  1

  0
ENDBLK
  5
1D
100
AcDbEntity
  8
0
100
AcDbBlockEnd
  0
BLOCK
  5
214
100
AcDbEntity
  8
0
100
AcDbBlockBegin
  2
_FILLED
 70
64
 10
0.0
 20
0.0
  3
_FILLED
  1

  0
SOLID
  5
215
100
AcDbEntity
  8
0
  6
BYBLOCK
 62
0
100
AcDbTrace
 10
0.0
 20
0.0
 11
-1.0
 21
0.25
 12
-1.0
 22
-0.25
 13
-1.0
 23
-0.25
  0
ENDBLK
  5
216
100
AcDbEntity
  8
0
  6
BYBLOCK
 62
0
100
AcDbBlockEnd
  0
ENDSEC
  0
SECTION
  2
ENTITIES
  0
LINE
  5
217
100
AcDbEntity
  8
0
100
AcDbLine
 62
7
  6
BYLAYER
 10
58.1105312383
 20
282.8809847822
 11
58.1105312383
 21
372.8809847822
  0
LINE
  5
218
100
AcDbEntity
  8
0
100
AcDbLine
 62
7
  6
BYLAYER
 10
63.1105312383
 20
329.6633147653
 11
63.1105312383
 21
356.0986547991
  0
LINE
  5
219
100
AcDbEntity
  8
0
100
AcDbLine
 62
7
  6
BYLAYER
 10
65.1105312383
 20
362.8809847822
 11
65.1105312383
 21
322.8809847822
  0
LINE
  5
21A
100
AcDbEntity
  8
0
100
AcDbLine
 62
7
  6
BYLAYER
 10
70.6105312383
 20
282.8809847822
 11
70.6105312383
 21
372.8809847822
  0
LINE
  5
21B
100
AcDbEntity
  8
0
100
AcDbLine
 62
7
  6
BYLAYER
 10
72.6105312383
 20
372.8809847822
 11
72.6105312383
 21
282.8809847822
  0
LINE
  5
21C
100
AcDbEntity
  8
0
100
AcDbLine
 62
7
  6
BYLAYER
 10
76.1105312383
 20
367.8809847822
 11
76.1105312383
 21
347.8809847822
  0
LINE
  5
21D
100
AcDbEntity
  8
0
100
AcDbLine
 62
7
  6
BYLAYER
 10
76.1105312383
 20
337.8809847822
 11
76.1105312383
 21
317.8809847822
  0
LINE
  5
21E
100
AcDbEntity
  8
0
100
AcDbLine
 62
7
  6
BYLAYER
 10
76.1105312383
 20
307.8809847822
 11
76.1105312383
 21
287.8809847822
  0
LINE
  5
21F
100
AcDbEntity
  8
0
100
AcDbLine
 62
7
  6
BYLAYER
 10
95.6105312383
 20
287.8309847822
 11
95.6105312383
 21
287.8809847822
  0
LINE
  5
220
100
AcDbEntity
  8
0
100
AcDbLine
 62
7
  6
BYLAYER
 10
95.6105312383
 20
307.8809847822
 11
95.6105312383
 21
307.9309847822
  0
LINE
  5
221
100
AcDbEntity
  8
0
100
AcDbLine
 62
7
  6
BYLAYER
 10
95.6105312383
 20
317.8309847822
 11
95.6105312383
 21
317.8809847822
  0
LINE
  5
222
100
AcDbEntity
  8
0
100
AcDbLine
 62
7
  6
BYLAYER
 10
95.6105312383
 20
337.8809847822
 11
95.6105312383
 21
337.9309847822
  0
LINE
  5
223
100
AcDbEntity
  8
0
100
AcDbLine
 62
7
  6
BYLAYER
 10
95.6105312383
 20
347.8309847822
 11
95.6105312383
 21
347.8809847822
  0
LINE
  5
224
100
AcDbEntity
  8
0
100
AcDbLine
 62
7
  6
BYLAYER
 10
95.6105312383
 20
367.8809847822
 11
95.6105312383
 21
367.9309847822
  0
LINE
  5
225
100
AcDbEntity
  8
0
100
AcDbLine
 62
7
  6
BYLAYER
 10
99.6105312383
 20
347.8831814605
 11
99.6105312383
 21
347.8309847822
  0
LINE
  5
226
100
AcDbEntity
  8
0
100
AcDbLine
 62
7
  6
BYLAYER
 10
99.6105312383
 20
307.9309847822
 11
99.6105312383
 21
307.8809847822
  0
LINE
  5
227
100
AcDbEntity
  8
0
100
AcDbLine
 62
7
  6
BYLAYER
 10
99.6105312383
 20
287.8809847822
 11
99.6105312383
 21
287.8309847822
  0
LINE
  5
228
100
AcDbEntity
  8
0
100
AcDbLine
 62
7
  6
BYLAYER
 10
99.6105390391
 20
367.9309847822
 11
99.6105390391
 21
367.8787881156
  0
LINE
  5
229
100
AcDbEntity
  8
0
100
AcDbLine
 62
7
  6
BYLAYER
 10
101.0830595702
 20
367.8809847822
 11
101.0830595702
 21
347.8809847822
  0
LINE
  5
22A
100
AcDbEntity
  8
0
100
AcDbLine
 62
7
  6
BYLAYER
 10
101.0830595702
 20
307.8809847822
 11
101.0830595702
 21
287.8809847822
  0
LINE
  5
22B
100
AcDbEntity
  8
0
100
AcDbLine
 62
7
  6
BYLAYER
 10
101.0830566994
 20
317.8309847822
 11
101.0830578252
 21
337.9309847822
  0
LINE
  5
22C
100
AcDbEntity
  8
0
100
AcDbLine
 62
7
  6
BYLAYER
 10
123.1105312383
 20
282.8809847822
 11
123.1105312383
 21
372.8809847822
  0
LINE
  5
22D
100
AcDbEntity
  8
0
100
AcDbLine
 62
7
  6
BYLAYER
 10
125.1105312383
 20
372.8809847822
 11
125.1105312383
 21
282.8809847822
  0
LINE
  5
22E
100
AcDbEntity
  8
0
100
AcDbLine
 62
7
  6
BYLAYER
 10
143.7105312383
 20
367.3582103573
 11
143.7105312383
 21
356.4037592072
  0
LINE
  5
22F
100
AcDbEntity
  8
0
100
AcDbLine
 62
7
  6
BYLAYER
 10
143.7105312383
 20
299.3582103573
 11
143.7105312383
 21
288.4037592072
  0
LINE
  5
230
100
AcDbEntity
  8
0
100
AcDbLine
 62
7
  6
BYLAYER
 10
147.8105312383
 20
282.8809847822
 11
147.8105312383
 21
372.8809847822
  0
LINE
  5
231
100
AcDbEntity
  8
0
100
AcDbLine
 62
7
  6
BYLAYER
 10
151.0105312383
 20
308.3810302035
 11
151.0105312383
 21
347.3809393609
  0
LINE
  5
232
100
AcDbEntity
  8
0
100
AcDbLine
 62
7
  6
BYLAYER
 10
151.9105312383
 20
320.8809847822
 11
151.9105312383
 21
334.8809847822
  0
LINE
  5
233
100
AcDbEntity
  8
0
100
AcDbLine
 62
7
  6
BYLAYER
 10
398.2105312383
 20
282.8809847822
 11
389.7105312383
 21
282.8809847822
  0
LINE
  5
234
100
AcDbEntity
  8
0
100
AcDbLine
 62
7
  6
BYLAYER
 10
58.1105312383
 20
282.8809847822
 11
147.8105312383
 21
282.8809847822
  0
LINE
  5
235
100
AcDbEntity
  8
0
100
AcDbLine
 62
7
  6
BYLAYER
 10
389.7105312383
 20
286.3809847822
 11
399.2105312383
 21
286.3809847822
  0
LINE
  5
236
100
AcDbEntity
  8
0
100
AcDbLine
 62
7
  6
BYLAYER
 10
99.6105312383
 20
287.8309847822
 11
95.6105312383
 21
287.8309847822
  0
LINE
  5
237
100
AcDbEntity
  8
0
100
AcDbLine
 62
7
  6
BYLAYER
 10
389.7105312383
 20
287.8809847822
 11
387.9105312383
 21
287.8809847822
  0
LINE
  5
238
100
AcDbEntity
  8
0
100
AcDbLine
 62
7
  6
BYLAYER
 10
101.0830595702
 20
287.8809847822
 11
99.6105312383
 21
287.8809847822
  0
LINE
  5
239
100
AcDbEntity
  8
0
100
AcDbLine
 62
7
  6
BYLAYER
 10
95.6105312383
 20
287.8809847822
 11
76.1105312383
 21
287.8809847822
  0
LINE
  5
23A
100
AcDbEntity
  8
0
100
AcDbLine
 62
7
  6
BYLAYER
 10
147.8105312383
 20
288.4037592072
 11
143.7105312383
 21
288.4037592072
  0
LINE
  5
23B
100
AcDbEntity
  8
0
100
AcDbLine
 62
7
  6
BYLAYER
 10
387.9105312383
 20
288.8809847822
 11
375.9105312383
 21
288.8809847822
  0
LINE
  5
23C
100
AcDbEntity
  8
0
100
AcDbLine
 62
7
  6
BYLAYER
 10
387.9105312383
 20
293.8809847822
 11
389.7105312383
 21
293.8809847822
  0
LINE
  5
23D
100
AcDbEntity
  8
0
100
AcDbLine
 62
7
  6
BYLAYER
 10
387.9105312383
 20
298.7799643672
 11
375.9105312383
 21
298.7799642678
  0
LINE
  5
23E
100
AcDbEntity
  8
0
100
AcDbLine
 62
7
  6
BYLAYER
 10
214.1105312383
 20
322.1309847822
 11
214.1105312383
 21
333.6309847822
  0
LINE
  5
23F
100
AcDbEntity
  8
0
100
AcDbLine
 62
7
  6
BYLAYER
 10
214.6105312383
 20
334.1309847822
 11
214.6105312383
 21
321.6309847822
  0
LINE
  5
240
100
AcDbEntity
  8
0
100
AcDbLine
 62
7
  6
BYLAYER
 10
215.4105312383
 20
321.6309847822
 11
215.4105312383
 21
334.1309847822
  0
LINE
  5
241
100
AcDbEntity
  8
0
100
AcDbLine
 62
7
  6
BYLAYER
 10
215.9105312383
 20
346.8809847822
 11
215.9105312383
 21
308.8809847822
  0
LINE
  5
242
100
AcDbEntity
  8
0
100
AcDbLine
 62
7
  6
BYLAYER
 10
143.7105312383
 20
299.3582103573
 11
147.8105312383
 21
299.3582103573
  0
LINE
  5
243
100
AcDbEntity
  8
0
100
AcDbLine
 62
7
  6
BYLAYER
 10
399.2105312383
 20
305.8808424602
 11
453.2105312383
 21
305.8808424602
  0
LINE
  5
244
100
AcDbEntity
  8
0
100
AcDbLine
 62
7
  6
BYLAYER
 10
76.1105312383
 20
307.8809847822
 11
95.6105312383
 21
307.8809847822
  0
LINE
  5
245
100
AcDbEntity
  8
0
100
AcDbLine
 62
7
  6
BYLAYER
 10
99.6105312383
 20
307.8809847822
 11
101.0830595702
 21
307.8809847822
  0
LINE
  5
246
100
AcDbEntity
  8
0
100
AcDbLine
 62
7
  6
BYLAYER
 10
95.6105312383
 20
307.9309847822
 11
99.6105312383
 21
307.9309847822
  0
LINE
  5
247
100
AcDbEntity
  8
0
100
AcDbLine
 62
7
  6
BYLAYER
 10
147.8105312383
 20
308.3809847822
 11
151.0105312383
 21
308.3809847822
  0
LINE
  5
248
100
AcDbEntity
  8
0
100
AcDbLine
 62
7
  6
BYLAYER
 10
453.2541506257
 20
308.4819945655
 11
454.2105312383
 21
308.4819945655
  0
LINE
  5
249
100
AcDbEntity
  8
0
100
AcDbLine
 62
7
  6
BYLAYER
 10
216.9105312383
 20
308.8809847822
 11
215.9105312383
 21
308.8809847822
  0
LINE
  5
24A
100
AcDbEntity
  8
0
100
AcDbLine
 62
7
  6
BYLAYER
 10
151.0105312383
 20
312.347086477
 11
147.8105312383
 21
312.347086477
  0
LINE
  5
24B
100
AcDbEntity
  8
0
100
AcDbLine
 62
7
  6
BYLAYER
 10
216.9105312383
 20
308.8809847822
 11
216.9105312383
 21
346.8809847822
  0
LINE
  5
24C
100
AcDbEntity
  8
0
100
AcDbLine
 62
7
  6
BYLAYER
 10
151.0105312383
 20
314.3809847822
 11
147.8105312383
 21
314.3809847822
  0
LINE
  5
24D
100
AcDbEntity
  8
0
100
AcDbLine
 62
7
  6
BYLAYER
 10
147.8105312383
 20
315.3809847822
 11
151.0105312383
 21
315.3809847822
  0
LINE
  5
24E
100
AcDbEntity
  8
0
100
AcDbLine
 62
7
  6
BYLAYER
 10
452.7105312383
 20
316.8809847822
 11
454.2105312383
 21
316.8809847822
  0
LINE
  5
24F
100
AcDbEntity
  8
0
100
AcDbLine
 62
7
  6
BYLAYER
 10
452.7105312383
 20
317.1809847822
 11
454.2105312383
 21
317.1809847822
  0
LINE
  5
250
100
AcDbEntity
  8
0
100
AcDbLine
 62
7
  6
BYLAYER
 10
95.6105312383
 20
317.8309847822
 11
101.0830566994
 21
317.8309847822
  0
LINE
  5
251
100
AcDbEntity
  8
0
100
AcDbLine
 62
7
  6
BYLAYER
 10
95.6105312383
 20
317.8809847822
 11
76.1105312383
 21
317.8809847822
  0
LINE
  5
252
100
AcDbEntity
  8
0
100
AcDbLine
 62
7
  6
BYLAYER
 10
375.9105312383
 20
319.8809847822
 11
326.9105312383
 21
319.8809847822
  0
LINE
  5
253
100
AcDbEntity
  8
0
100
AcDbLine
 62
7
  6
BYLAYER
 10
151.9105312383
 20
320.8809847822
 11
151.0105312383
 21
320.8809847822
  0
LINE
  5
254
100
AcDbEntity
  8
0
100
AcDbLine
 62
7
  6
BYLAYER
 10
215.4105312383
 20
321.6309847822
 11
214.6105312383
 21
321.6309847822
  0
LINE
  5
255
100
AcDbEntity
  8
0
100
AcDbLine
 62
7
  6
BYLAYER
 10
65.1105312383
 20
322.8809847822
 11
58.1105312383
 21
322.8809847822
  0
LINE
  5
256
100
AcDbEntity
  8
0
100
AcDbLine
 62
7
  6
BYLAYER
 10
214.1105312383
 20
323.6309847822
 11
215.9105312383
 21
323.6309847822
  0
LINE
  5
257
100
AcDbEntity
  8
0
100
AcDbLine
 62
7
  6
BYLAYER
 10
326.9105312383
 20
323.8809847822
 11
216.9105312383
 21
323.8809847822
  0
LINE
  5
258
100
AcDbEntity
  8
0
100
AcDbLine
 62
7
  6
BYLAYER
 10
214.1105312383
 20
323.8809847822
 11
151.9105312383
 21
323.8809847822
  0
LINE
  5
259
100
AcDbEntity
  8
0
100
AcDbLine
 62
7
  6
BYLAYER
 10
326.9105312383
 20
331.8809847822
 11
216.9105312383
 21
331.8809847822
  0
LINE
  5
25A
100
AcDbEntity
  8
0
100
AcDbLine
 62
7
  6
BYLAYER
 10
214.1105312383
 20
331.8809847822
 11
151.9105312383
 21
331.8809847822
  0
LINE
  5
25B
100
AcDbEntity
  8
0
100
AcDbLine
 62
7
  6
BYLAYER
 10
215.9105312383
 20
332.1309847822
 11
214.1105312383
 21
332.1309847822
  0
LINE
  5
25C
100
AcDbEntity
  8
0
100
AcDbLine
 62
7
  6
BYLAYER
 10
214.6105312383
 20
334.1309847822
 11
215.4105312383
 21
334.1309847822
  0
LINE
  5
25D
100
AcDbEntity
  8
0
100
AcDbLine
 62
7
  6
BYLAYER
 10
151.9105312383
 20
334.8809847822
 11
151.0105312383
 21
334.8809847822
  0
LINE
  5
25E
100
AcDbEntity
  8
0
100
AcDbLine
 62
7
  6
BYLAYER
 10
63.1105312383
 20
335.3809847822
 11
58.1105312383
 21
335.3809847822
  0
LINE
  5
25F
100
AcDbEntity
  8
0
100
AcDbLine
 62
7
  6
BYLAYER
 10
326.9105312383
 20
335.8809847822
 11
375.9105312383
 21
335.8809847822
  0
LINE
  5
260
100
AcDbEntity
  8
0
100
AcDbLine
 62
7
  6
BYLAYER
 10
76.1105312383
 20
337.8809847822
 11
95.6105312383
 21
337.8809847822
  0
LINE
  5
261
100
AcDbEntity
  8
0
100
AcDbLine
 62
7
  6
BYLAYER
 10
101.0830578252
 20
337.9309847822
 11
95.6105312383
 21
337.9309847822
  0
LINE
  5
262
100
AcDbEntity
  8
0
100
AcDbLine
 62
7
  6
BYLAYER
 10
151.0105312383
 20
340.3809847822
 11
147.8105312383
 21
340.3809847822
  0
LINE
  5
263
100
AcDbEntity
  8
0
100
AcDbLine
 62
7
  6
BYLAYER
 10
147.8105312383
 20
341.3809847822
 11
151.0105312383
 21
341.3809847822
  0
LINE
  5
264
100
AcDbEntity
  8
0
100
AcDbLine
 62
7
  6
BYLAYER
 10
151.0105312383
 20
343.4148830874
 11
147.8105312383
 21
343.4148830874
  0
LINE
  5
265
100
AcDbEntity
  8
0
100
AcDbLine
 62
7
  6
BYLAYER
 10
418.5490573228
 20
346.4104109167
 11
399.2105312383
 21
346.4104109167
  0
LINE
  5
266
100
AcDbEntity
  8
0
100
AcDbLine
 62
7
  6
BYLAYER
 10
216.9105312383
 20
346.8809847822
 11
215.9105312383
 21
346.8809847822
  0
LINE
  5
267
100
AcDbEntity
  8
0
100
AcDbLine
 62
7
  6
BYLAYER
 10
420.4070483284
 20
347.252300903
 11
399.2105312383
 21
347.2522106266
  0
LINE
  5
268
100
AcDbEntity
  8
0
100
AcDbLine
 62
7
  6
BYLAYER
 10
147.8105312383
 20
347.3809847822
 11
151.0105312383
 21
347.3809847822
  0
LINE
  5
269
100
AcDbEntity
  8
0
100
AcDbLine
 62
7
  6
BYLAYER
 10
419.9316129646
 20
347.6599310972
 11
399.2105312383
 21
347.6599310972
  0
LINE
  5
26A
100
AcDbEntity
  8
0
100
AcDbLine
 62
7
  6
BYLAYER
 10
99.6105312383
 20
347.8309847822
 11
95.6105312383
 21
347.8309847822
  0
LINE
  5
26B
100
AcDbEntity
  8
0
100
AcDbLine
 62
7
  6
BYLAYER
 10
95.6105312383
 20
347.8809847822
 11
76.1105312383
 21
347.8809847822
  0
LINE
  5
26C
100
AcDbEntity
  8
0
100
AcDbLine
 62
7
  6
BYLAYER
 10
399.2105312383
 20
348.6063616698
 11
421.3060231557
 21
348.6063601961
  0
LINE
  5
26D
100
AcDbEntity
  8
0
100
AcDbLine
 62
7
  6
BYLAYER
 10
63.1105312383
 20
350.3809847822
 11
58.1105312383
 21
350.3809847822
  0
LINE
  5
26E
100
AcDbEntity
  8
0
100
AcDbLine
 62
7
  6
BYLAYER
 10
399.2105312383
 20
350.844071233
 11
432.6105312383
 21
350.844071233
  0
LINE
  5
26F
100
AcDbEntity
  8
0
100
AcDbLine
 62
7
  6
BYLAYER
 10
399.2105312383
 20
351.0807739017
 11
432.6105312383
 21
351.0807739017
  0
LINE
  5
270
100
AcDbEntity
  8
0
100
AcDbLine
 62
7
  6
BYLAYER
 10
453.3549413433
 20
349.4750571785
 11
432.6105312383
 21
349.4808305999
  0
LINE
  5
271
100
AcDbEntity
  8
0
100
AcDbLine
 62
7
  6
BYLAYER
 10
101.0830595702
 20
347.8809847822
 11
99.6105312383
 21
347.8831814605
  0
LINE
  5
272
100
AcDbEntity
  8
0
100
AcDbLine
 62
7
  6
BYLAYER
 10
99.6105390391
 20
367.8787881156
 11
101.0830595702
 21
367.8809847822
  0
LINE
  5
273
100
AcDbEntity
  8
0
100
AcDbLine
 62
7
  6
BYLAYER
 10
147.8105312383
 20
356.4037592072
 11
143.7105312383
 21
356.4037592072
  0
LINE
  5
274
100
AcDbEntity
  8
0
100
AcDbLine
 62
7
  6
BYLAYER
 10
387.9105312383
 20
356.9820048982
 11
375.9105312383
 21
356.9820052966
  0
LINE
  5
275
100
AcDbEntity
  8
0
100
AcDbLine
 62
7
  6
BYLAYER
 10
389.7105312383
 20
361.8809847822
 11
387.9105312383
 21
361.8809847822
  0
LINE
  5
276
100
AcDbEntity
  8
0
100
AcDbLine
 62
7
  6
BYLAYER
 10
58.1105312383
 20
362.8809847822
 11
65.1105312383
 21
362.8809847822
  0
LINE
  5
277
100
AcDbEntity
  8
0
100
AcDbLine
 62
7
  6
BYLAYER
 10
387.9105312383
 20
366.8809847822
 11
375.9105312383
 21
366.8809847822
  0
LINE
  5
278
100
AcDbEntity
  8
0
100
AcDbLine
 62
7
  6
BYLAYER
 10
143.7105312383
 20
367.3582103573
 11
147.8105312383
 21
367.3582103573
  0
LINE
  5
279
100
AcDbEntity
  8
0
100
AcDbLine
 62
7
  6
BYLAYER
 10
76.1105312383
 20
367.8809847822
 11
95.6105312383
 21
367.8809847822
  0
LINE
  5
27A
100
AcDbEntity
  8
0
100
AcDbLine
 62
7
  6
BYLAYER
 10
387.9105312383
 20
367.8809847822
 11
389.7105312383
 21
367.8809847822
  0
LINE
  5
27B
100
AcDbEntity
  8
0
100
AcDbLine
 62
7
  6
BYLAYER
 10
95.6105312383
 20
367.9309847822
 11
99.6105390391
 21
367.9309847822
  0
LINE
  5
27C
100
AcDbEntity
  8
0
100
AcDbLine
 62
7
  6
BYLAYER
 10
399.2105312383
 20
369.3809847822
 11
389.7105312383
 21
369.3809847822
  0
LINE
  5
27D
100
AcDbEntity
  8
0
100
AcDbLine
 62
7
  6
BYLAYER
 10
398.2105312383
 20
372.8809847822
 11
389.7105312383
 21
372.8809847822
  0
LINE
  5
27E
100
AcDbEntity
  8
0
100
AcDbLine
 62
7
  6
BYLAYER
 10
147.8105312383
 20
372.8809847822
 11
58.1105312383
 21
372.8809847822
  0
LINE
  5
27F
100
AcDbEntity
  8
0
100
AcDbLine
 62
7
  6
BYLAYER
 10
326.9105312383
 20
335.8809847822
 11
326.9105312383
 21
319.8809847822
  0
LINE
  5
280
100
AcDbEntity
  8
0
100
AcDbLine
 62
7
  6
BYLAYER
 10
432.6105312383
 20
414.2308424602
 11
453.2105312383
 21
414.2308424438
  0
LINE
  5
281
100
AcDbEntity
  8
0
100
AcDbLine
 62
7
  6
BYLAYER
 10
432.6105312383
 20
423.8857566038
 11
453.2105312383
 21
423.8857566038
  0
LINE
  5
282
100
AcDbEntity
  8
0
100
AcDbLine
 62
7
  6
BYLAYER
 10
375.9105312383
 20
366.8809847822
 11
375.9105312383
 21
288.8809847822
  0
LINE
  5
283
100
AcDbEntity
  8
0
100
AcDbLine
 62
7
  6
BYLAYER
 10
387.9105312383
 20
287.8809847822
 11
387.9105312383
 21
367.8809847822
  0
LINE
  5
284
100
AcDbEntity
  8
0
100
AcDbLine
 62
7
  6
BYLAYER
 10
389.7105312383
 20
282.8809847822
 11
389.7105312383
 21
372.8809847822
  0
LINE
  5
285
100
AcDbEntity
  8
0
100
AcDbLine
 62
7
  6
BYLAYER
 10
398.2105312383
 20
282.8809847822
 11
398.2105312383
 21
372.8809847822
  0
LINE
  5
286
100
AcDbEntity
  8
0
100
AcDbLine
 62
7
  6
BYLAYER
 10
399.2105312383
 20
283.8809847822
 11
399.2105312383
 21
371.8809847822
  0
LINE
  5
287
100
AcDbEntity
  8
0
100
AcDbLine
 62
7
  6
BYLAYER
 10
415.2105312383
 20
317.1217307724
 11
415.2105312383
 21
338.6402387944
  0
LINE
  5
288
100
AcDbEntity
  8
0
100
AcDbLine
 62
7
  6
BYLAYER
 10
416.2105312383
 20
317.6107846127
 11
416.2105312383
 21
338.1511849504
  0
LINE
  5
289
100
AcDbEntity
  8
0
100
AcDbLine
 62
7
  6
BYLAYER
 10
419.9316125934
 20
347.2522612416
 11
419.9316129646
 21
347.6599310972
  0
LINE
  5
28A
100
AcDbEntity
  8
0
100
AcDbLine
 62
7
  6
BYLAYER
 10
420.4070483272
 20
347.2522612717
 11
420.4070483272
 21
348.1964842697
  0
LINE
  5
28B
100
AcDbEntity
  8
0
100
AcDbLine
 62
7
  6
BYLAYER
 10
423.8615761394
 20
348.8797083822
 11
423.8615761625
 21
309.0652163453
  0
LINE
  5
28C
100
AcDbEntity
  8
0
100
AcDbLine
 62
7
  6
BYLAYER
 10
432.6105312383
 20
423.8857012745
 11
432.6105312383
 21
349.4808305999
  0
LINE
  5
28D
100
AcDbEntity
  8
0
100
AcDbLine
 62
7
  6
BYLAYER
 10
452.7105312383
 20
316.8809847822
 11
452.7105312383
 21
317.1809847822
  0
LINE
  5
28E
100
AcDbEntity
  8
0
100
AcDbLine
 62
7
  6
BYLAYER
 10
453.2105312383
 20
305.8808554993
 11
453.2105312383
 21
307.5582374721
  0
LINE
  5
28F
100
AcDbEntity
  8
0
100
AcDbLine
 62
7
  6
BYLAYER
 10
453.2105312383
 20
414.230842452
 11
453.2105312383
 21
423.8857566038
  0
LINE
  5
290
100
AcDbEntity
  8
0
100
AcDbLine
 62
7
  6
BYLAYER
 10
453.2541506257
 20
308.4819810395
 11
453.2541506257
 21
316.8809847822
  0
LINE
  5
291
100
AcDbEntity
  8
0
100
AcDbLine
 62
7
  6
BYLAYER
 10
453.2541506257
 20
317.1809847822
 11
453.2541506257
 21
349.4633845356
  0
LINE
  5
292
100
AcDbEntity
  8
0
100
AcDbLine
 62
7
  6
BYLAYER
 10
454.2105312383
 20
306.8808710811
 11
454.2105312383
 21
422.8857566038
  0
ARC
  5
293
100
AcDbEntity
  8
0
100
AcDbCircle
 62
7
  6
BYLAYER
 10
602.6440136665
 20
8578.0164622302
 40
8270.8837415829
100
AcDbArc
 50
268.7614047891
 51
268.9650593099
  0
ARC
  5
294
100
AcDbEntity
  8
0
100
AcDbCircle
 62
7
  6
BYLAYER
 10
602.9975298203
 20
8219.9333574691
 40
7913.7927812454
100
AcDbArc
 50
268.7026308414
 51
268.9154788882
  0
ARC
  5
295
100
AcDbEntity
  8
0
100
AcDbCircle
 62
7
  6
BYLAYER
 10
453.2105312383
 20
422.8857566038
 40
1.0
100
AcDbArc
 50
0.0
 51
90.0
  0
ARC
  5
296
100
AcDbEntity
  8
0
100
AcDbCircle
 62
7
  6
BYLAYER
 10
453.2105312383
 20
306.8808424602
 40
1.0
100
AcDbArc
 50
270.0
 51
360.0
  0
ARC
  5
297
100
AcDbEntity
  8
0
100
AcDbCircle
 62
7
  6
BYLAYER
 10
398.2105312383
 20
371.8809847822
 40
1.0
100
AcDbArc
 50
0.0
 51
90.0
  0
ARC
  5
298
100
AcDbEntity
  8
0
100
AcDbCircle
 62
7
  6
BYLAYER
 10
398.2105312383
 20
283.8809847822
 40
1.0
100
AcDbArc
 50
270.0
 51
360.0
  0
ARC
  5
299
100
AcDbEntity
  8
0
100
AcDbCircle
 62
7
  6
BYLAYER
 10
215.4105312383
 20
334.6309847822
 40
0.5
100
AcDbArc
 50
270.0
 51
360.0
  0
ARC
  5
29A
100
AcDbEntity
  8
0
100
AcDbCircle
 62
7
  6
BYLAYER
 10
215.4105312383
 20
321.1309847822
 40
0.5
100
AcDbArc
 50
0.0
 51
90.0
  0
ARC
  5
29B
100
AcDbEntity
  8
0
100
AcDbCircle
 62
7
  6
BYLAYER
 10
214.6105312383
 20
333.6309847822
 40
0.5
100
AcDbArc
 50
90.0
 51
180.0
  0
ARC
  5
29C
100
AcDbEntity
  8
0
100
AcDbCircle
 62
7
  6
BYLAYER
 10
214.6105312383
 20
322.1309847822
 40
0.5
100
AcDbArc
 50
180.0
 51
270.0
  0
SPLINE
  5
29D
100
AcDbEntity
  8
0
100
AcDbSpline
 62
7
  6
BYLAYER
 70
0
 71
3
 72
9
 73
5
 74
0
 42
0.0000001
 43
0.0000001
 44
0.0000000001
 40
0.0
 40
0.0
 40
0.0
 40
0.0
 40
0.2435707361
 40
1.0
 40
1.0
 40
1.0
 40
1.0
 10
420.4070483283
 20
348.1964856537
 30
0.0
 10
420.3621761354
 20
348.1592467601
 30
0.0
 10
420.1839925699
 20
347.9983266888
 30
0.0
 10
420.0452813837
 20
347.8009048291
 30
0.0
 10
419.9316129646
 20
347.6599307265
 30
0.0
  0
SPLINE
  5
29E
100
AcDbEntity
  8
0
100
AcDbSpline
 62
7
  6
BYLAYER
 70
0
 71
3
 72
9
 73
5
 74
0
 42
0.0000001
 43
0.0000001
 44
0.0000000001
 40
0.0
 40
0.0
 40
0.0
 40
0.0
 40
0.7488317824
 40
1.0
 40
1.0
 40
1.0
 40
1.0
 10
421.3060231557
 20
348.6063601961
 30
0.0
 10
421.0621574657
 20
348.5565604272
 30
0.0
 10
420.7338903637
 20
348.4578776244
 30
0.0
 10
420.4662475375
 20
348.2553500511
 30
0.0
 10
420.4070483283
 20
348.1964856537
 30
0.0
  0
SPLINE
  5
29F
100
AcDbEntity
  8
0
100
AcDbSpline
 62
7
  6
BYLAYER
 70
0
 71
3
 72
11
 73
7
 74
0
 42
0.0000001
 43
0.0000001
 44
0.0000000001
 40
0.0
 40
0.0
 40
0.0
 40
0.0
 40
0.2300066677
 40
0.4744785786
 40
0.7318181435
 40
1.0
 40
1.0
 40
1.0
 40
1.0
 10
419.1781172424
 20
345.568180302
 30
0.0
 10
419.3264447533
 20
345.6430240934
 30
0.0
 10
419.6013796837
 20
345.853048639
 30
0.0
 10
419.9907378258
 20
346.2133046466
 30
0.0
 10
420.3031862822
 20
346.6774064497
 30
0.0
 10
420.4163544894
 20
347.0587694659
 30
0.0
 10
420.4070483272
 20
347.2522612717
 30
0.0
  0
SPLINE
  5
2A0
100
AcDbEntity
  8
0
100
AcDbSpline
 62
7
  6
BYLAYER
 70
0
 71
3
 72
11
 73
7
 74
0
 42
0.0000001
 43
0.0000001
 44
0.0000000001
 40
0.0
 40
0.0
 40
0.0
 40
0.0
 40
0.2751889512
 40
0.5274048439
 40
0.7618413485
 40
1.0
 40
1.0
 40
1.0
 40
1.0
 10
416.2105312383
 20
338.151186052
 30
0.0
 10
416.2105337241
 20
338.9199225319
 30
0.0
 10
416.2606544223
 20
340.3948851729
 30
0.0
 10
416.6472550507
 20
342.5019502787
 30
0.0
 10
417.5637138236
 20
344.3535407923
 30
0.0
 10
418.6033104527
 20
345.2332009845
 30
0.0
 10
419.1781164503
 20
345.5681825512
 30
0.0
  0
SPLINE
  5
2A1
100
AcDbEntity
  8
0
100
AcDbSpline
 62
7
  6
BYLAYER
 70
0
 71
3
 72
14
 73
10
 74
0
 42
0.0000001
 43
0.0000001
 44
0.0000000001
 40
0.0
 40
0.0
 40
0.0
 40
0.0
 40
0.1435886844
 40
0.2785638729
 40
0.4011770745
 40
0.5146021972
 40
0.7417757415
 40
0.8667416422
 40
1.0
 40
1.0
 40
1.0
 40
1.0
 10
423.8615761118
 20
309.0652608272
 30
0.0
 10
423.2285135505
 20
309.0806828001
 30
0.0
 10
422.0003080175
 20
309.1903143314
 30
0.0
 10
420.2742499366
 20
309.6189136372
 30
0.0
 10
418.7909567094
 20
310.3490067124
 30
0.0
 10
417.2617224055
 20
311.7542800997
 30
0.0
 10
416.5002803173
 20
313.7617351418
 30
0.0
 10
416.2404758299
 20
315.8817831922
 30
0.0
 10
416.210531308
 20
317.0230920019
 30
0.0
 10
416.2105312383
 20
317.6107838948
 30
0.0
  0
SPLINE
  5
2A2
100
AcDbEntity
  8
0
100
AcDbSpline
 62
7
  6
BYLAYER
 70
0
 71
3
 72
10
 73
6
 74
0
 42
0.0000001
 43
0.0000001
 44
0.0000000001
 40
0.0
 40
0.0
 40
0.0
 40
0.0
 40
0.3609794668
 40
0.6585260193
 40
1.0
 40
1.0
 40
1.0
 40
1.0
 10
453.3662739063
 20
349.4716942949
 30
0.0
 10
453.4821059733
 20
349.4847715577
 30
0.0
 10
453.6975085693
 20
349.5207742635
 30
0.0
 10
453.9886814183
 20
349.6025701673
 30
0.0
 10
454.216071709
 20
349.7519611493
 30
0.0
 10
454.2103428345
 20
349.8620814267
 30
0.0
  0
SPLINE
  5
2A3
100
AcDbEntity
  8
0
100
AcDbSpline
 62
7
  6
BYLAYER
 70
0
 71
3
 72
10
 73
6
 74
0
 42
0.0000001
 43
0.0000001
 44
0.0000000001
 40
0.0
 40
0.0
 40
0.0
 40
0.0
 40
0.5206488435
 40
0.7686314707
 40
1.0
 40
1.0
 40
1.0
 40
1.0
 10
65.1105312383
 20
362.8809847822
 30
0.0
 10
64.6527429345
 20
361.7365140226
 30
0.0
 10
63.9693482508
 20
360.0466485093
 30
0.0
 10
63.2914638645
 20
357.7783155444
 30
0.0
 10
63.1105312383
 20
356.6464182787
 30
0.0
 10
63.1105312383
 20
356.0986547991
 30
0.0
  0
SPLINE
  5
2A4
100
AcDbEntity
  8
0
100
AcDbSpline
 62
7
  6
BYLAYER
 70
0
 71
3
 72
9
 73
5
 74
0
 42
0.0000001
 43
0.0000001
 44
0.0000000001
 40
0.0
 40
0.0
 40
0.0
 40
0.0
 40
0.3991008658
 40
1.0
 40
1.0
 40
1.0
 40
1.0
 10
453.2105312383
 20
307.5582393871
 30
0.0
 10
453.2255990796
 20
307.6803641865
 30
0.0
 10
453.2405009142
 20
307.9887522072
 30
0.0
 10
453.2508102807
 20
308.2967553845
 30
0.0
 10
453.2541506257
 20
308.4819945655
 30
0.0
  0
SPLINE
  5
2A5
100
AcDbEntity
  8
0
100
AcDbSpline
 62
7
  6
BYLAYER
 70
0
 71
3
 72
9
 73
5
 74
0
 42
0.0000001
 43
0.0000001
 44
0.0000000001
 40
0.0
 40
0.0
 40
0.0
 40
0.0
 40
0.5140014924
 40
1.0
 40
1.0
 40
1.0
 40
1.0
 10
453.2105312383
 20
307.5582393871
 30
0.0
 10
453.462898606
 20
307.5582393871
 30
0.0
 10
453.9777357555
 20
307.7374802512
 30
0.0
 10
454.2105312383
 20
308.2433762621
 30
0.0
 10
454.2105312383
 20
308.4819945655
 30
0.0
  0
SPLINE
  5
2A6
100
AcDbEntity
  8
0
100
AcDbSpline
 62
7
  6
BYLAYER
 70
0
 71
3
 72
14
 73
10
 74
0
 42
0.0000001
 43
0.0000001
 44
0.0000000001
 40
0.0
 40
0.0
 40
0.0
 40
0.0
 40
0.019371995
 40
0.0762442406
 40
0.1687373016
 40
0.2930080326
 40
0.4444551636
 40
0.6173832216
 40
1.0
 40
1.0
 40
1.0
 40
1.0
 10
454.2105312382
 20
414.2409547144
 30
0.0
 10
454.2105216294
 20
414.2344963141
 30
0.0
 10
454.1698378442
 20
414.2454918622
 30
0.0
 10
454.1280837825
 20
414.2321810334
 30
0.0
 10
454.0288857108
 20
414.2370473244
 30
0.0
 10
453.9094787798
 20
414.2328931468
 30
0.0
 10
453.7587064256
 20
414.2326646372
 30
0.0
 10
453.5235137415
 20
414.2310107555
 30
0.0
 10
453.3380914155
 20
414.2308408816
 30
0.0
 10
453.2105312418
 20
414.2308408816
 30
0.0
  0
SPLINE
  5
2A7
100
AcDbEntity
  8
0
100
AcDbSpline
 62
7
  6
BYLAYER
 70
0
 71
3
 72
8
 73
4
 74
0
 42
0.0000001
 43
0.0000001
 44
0.0000000001
 40
0.0
 40
0.0
 40
0.0
 40
0.0
 40
1.0
 40
1.0
 40
1.0
 40
1.0
 10
453.3549413433
 20
349.4750571785
 30
0.0
 10
453.3059512219
 20
371.0603170136
 30
0.0
 10
453.2587788188
 20
392.6455809363
 30
0.0
 10
453.2105312383
 20
414.2308424438
 30
0.0
  0
SPLINE
  5
2A8
100
AcDbEntity
  8
0
100
AcDbSpline
 62
7
  6
BYLAYER
 70
0
 71
3
 72
11
 73
7
 74
0
 42
0.0000001
 43
0.0000001
 44
0.0000000001
 40
0.0
 40
0.0
 40
0.0
 40
0.0
 40
0.2440895116
 40
0.4782075736
 40
0.7275651784
 40
1.0
 40
1.0
 40
1.0
 40
1.0
 10
418.5490370394
 20
346.4104105943
 30
0.0
 10
417.9118192014
 20
346.0646081373
 30
0.0
 10
416.7560578412
 20
345.1654302081
 30
0.0
 10
415.7081860085
 20
343.2209439972
 30
0.0
 10
415.2673467294
 20
341.0011885799
 30
0.0
 10
415.2105321935
 20
339.4494313558
 30
0.0
 10
415.2105312383
 20
338.6402387944
 30
0.0
  0
SPLINE
  5
2A9
100
AcDbEntity
  8
0
100
AcDbSpline
 62
7
  6
BYLAYER
 70
0
 71
3
 72
9
 73
5
 74
0
 42
0.0000001
 43
0.0000001
 44
0.0000000001
 40
0.0
 40
0.0
 40
0.0
 40
0.0
 40
0.2556469556
 40
1.0
 40
1.0
 40
1.0
 40
1.0
 10
423.8615761403
 20
348.8797083822
 30
0.0
 10
423.6424545025
 20
348.8750042641
 30
0.0
 10
422.7859208407
 20
348.8391776557
 30
0.0
 10
421.9312715054
 20
348.7340623749
 30
0.0
 10
421.3060274576
 20
348.606363613
 30
0.0
  0
SPLINE
  5
2AA
100
AcDbEntity
  8
0
100
AcDbSpline
 62
7
  6
BYLAYER
 70
0
 71
3
 72
10
 73
6
 74
0
 42
0.0000001
 43
0.0000001
 44
0.0000000001
 40
0.0
 40
0.0
 40
0.0
 40
0.0
 40
0.1297776024
 40
0.5791254375
 40
1.0
 40
1.0
 40
1.0
 40
1.0
 10
453.3549413433
 20
349.4801986236
 30
0.0
 10
453.3590850807
 20
349.4782172416
 30
0.0
 10
453.3279709548
 20
349.4563616117
 30
0.0
 10
453.3026164542
 20
349.4640847791
 30
0.0
 10
453.2690445133
 20
349.4636091825
 30
0.0
 10
453.254150626
 20
349.4633845356
 30
0.0
  0
SPLINE
  5
2AB
100
AcDbEntity
  8
0
100
AcDbSpline
 62
7
  6
BYLAYER
 70
0
 71
3
 72
10
 73
6
 74
0
 42
0.0000001
 43
0.0000001
 44
0.0000000001
 40
0.0
 40
0.0
 40
0.0
 40
0.0
 40
0.2048235517
 40
0.4572124892
 40
1.0
 40
1.0
 40
1.0
 40
1.0
 10
419.9316017559
 20
347.2522359326
 30
0.0
 10
419.9316201263
 20
347.1373922922
 30
0.0
 10
419.7546337026
 20
346.9048530521
 30
0.0
 10
419.2721610419
 20
346.6361226402
 30
0.0
 10
418.8438484731
 20
346.4860108603
 30
0.0
 10
418.5490460663
 20
346.4104233646
 30
0.0
  0
SPLINE
  5
2AC
100
AcDbEntity
  8
0
100
AcDbSpline
 62
7
  6
BYLAYER
 70
0
 71
3
 72
9
 73
5
 74
0
 42
0.0000001
 43
0.0000001
 44
0.0000000001
 40
0.0
 40
0.0
 40
0.0
 40
0.0
 40
0.1821403358
 40
1.0
 40
1.0
 40
1.0
 40
1.0
 10
423.8179557467
 20
308.1692722805
 30
0.0
 10
423.8238973732
 20
308.2234180165
 30
0.0
 10
423.8464957534
 20
308.5217130766
 30
0.0
 10
423.8562944396
 20
308.8207309412
 30
0.0
 10
423.8615761676
 20
309.0652624376
 30
0.0
  0
SPLINE
  5
2AD
100
AcDbEntity
  8
0
100
AcDbSpline
 62
7
  6
BYLAYER
 70
0
 71
3
 72
10
 73
6
 74
0
 42
0.0000001
 43
0.0000001
 44
0.0000000001
 40
0.0
 40
0.0
 40
0.0
 40
0.0
 40
0.3135782731
 40
0.6156054742
 40
1.0
 40
1.0
 40
1.0
 40
1.0
 10
415.2105312383
 20
317.1217307593
 30
0.0
 10
415.3337621307
 20
317.1217307594
 30
0.0
 10
415.5793514624
 20
317.1463223489
 30
0.0
 10
415.9448984941
 20
317.2443936432
 30
0.0
 10
416.2105312383
 20
317.4597241298
 30
0.0
 10
416.2105312383
 20
317.610784597
 30
0.0
  0
SPLINE
  5
2AE
100
AcDbEntity
  8
0
100
AcDbSpline
 62
7
  6
BYLAYER
 70
0
 71
3
 72
15
 73
11
 74
0
 42
0.0000001
 43
0.0000001
 44
0.0000000001
 40
0.0
 40
0.0
 40
0.0
 40
0.0
 40
0.1497224627
 40
0.2891365832
 40
0.4141046949
 40
0.5273852725
 40
0.6368930218
 40
0.7501618069
 40
0.8709707189
 40
1.0
 40
1.0
 40
1.0
 40
1.0
 10
423.8179562126
 20
308.1692770068
 30
0.0
 10
423.1012242553
 20
308.1855292674
 30
0.0
 10
421.7169453561
 20
308.3009498548
 30
0.0
 10
419.7768420336
 20
308.7515282022
 30
0.0
 10
418.117020713
 20
309.5124429935
 30
0.0
 10
416.8321726699
 20
310.6112469518
 30
0.0
 10
415.9715064489
 20
311.9971599582
 30
0.0
 10
415.4766740168
 20
313.5786788161
 30
0.0
 10
415.2446860127
 20
315.306718587
 30
0.0
 10
415.2105311304
 20
316.5038997544
 30
0.0
 10
415.2105312383
 20
317.1217307724
 30
0.0
  0
SPLINE
  5
2AF
100
AcDbEntity
  8
0
100
AcDbSpline
 62
7
  6
BYLAYER
 70
0
 71
3
 72
10
 73
6
 74
0
 42
0.0000001
 43
0.0000001
 44
0.0000000001
 40
0.0
 40
0.0
 40
0.0
 40
0.0
 40
0.2313476449
 40
0.4793472996
 40
1.0
 40
1.0
 40
1.0
 40
1.0
 10
63.1105312383
 20
329.6633147653
 30
0.0
 10
63.1105312383
 20
329.1156013376
 30
0.0
 10
63.2915341696
 20
327.9837266501
 30
0.0
 10
63.9692897813
 20
325.7153645271
 30
0.0
 10
64.6527400517
 20
324.0254627486
 30
0.0
 10
65.1105312383
 20
322.8809847822
 30
0.0
  0
SPLINE
  5
2B0
100
AcDbEntity
  8
0
100
AcDbSpline
 62
7
  6
BYLAYER
 70
0
 71
3
 72
9
 73
5
 74
0
 42
0.0000001
 43
0.0000001
 44
0.0000000001
 40
0.0
 40
0.0
 40
0.0
 40
0.0
 40
0.2341817527
 40
1.0
 40
1.0
 40
1.0
 40
1.0
 10
418.5490559111
 20
346.4104223122
 30
0.0
 10
418.6215325513
 20
346.3697560126
 30
0.0
 10
418.9040194874
 20
346.1505304382
 30
0.0
 10
419.0969322983
 20
345.8275422287
 30
0.0
 10
419.1781131646
 20
345.5681779256
 30
0.0
  0
SPLINE
  5
2B1
100
AcDbEntity
  8
0
100
AcDbSpline
 62
7
  6
BYLAYER
 70
0
 71
3
 72
10
 73
6
 74
0
 42
0.0000001
 43
0.0000001
 44
0.0000000001
 40
0.0
 40
0.0
 40
0.0
 40
0.0
 40
0.3843946634
 40
0.6864218489
 40
1.0
 40
1.0
 40
1.0
 40
1.0
 10
416.2105312383
 20
338.1511849587
 30
0.0
 10
416.2105312383
 20
338.3022454783
 30
0.0
 10
415.9448983833
 20
338.5175759656
 30
0.0
 10
415.5793513561
 20
338.6156472212
 30
0.0
 10
415.3337620814
 20
338.6402387957
 30
0.0
 10
415.2105312383
 20
338.6402387957
 30
0.0
  0
ELLIPSE
  5
2B2
100
AcDbEntity
  8
0
100
AcDbEllipse
 62
7
  6
BYLAYER
 10
660.3444211843
 20
327.8809847822
 30
0.0
 11
535.9448541486
 21
0.0
 31
0.0
 40
0.0436609429
 41
8.2507092525
 42
8.3109669012
  0
ENDSEC
  0
SECTION
  2
OBJECTS
  0
DICTIONARY
  5
C
100
AcDbDictionary
280
0
281
1
  3
ACAD_GROUP
350
D
  3
ACAD_MLINESTYLE
350
17
  3
ACAD_LAYOUT
350
1A
  3
ACAD_PLOTSETTINGS
350
19
  3
ACAD_PLOTSTYLENAME
350
E
  0
DICTIONARY
  5
D
102
{ACAD_REACTORS
330
C
102
}
100
AcDbDictionary
280
0
281
1
  0
ACDBDICTIONARYWDFLT
  5
E
102
{ACAD_REACTORS
330
C
102
}
100
AcDbDictionary
281
1
  3
Normal
350
F
100
AcDbDictionaryWithDefault
340
F
  0
DICTIONARY
  5
17
102
{ACAD_REACTORS
330
C
102
}
100
AcDbDictionary
280
0
281
1
  3
Standard
350
18
  0
DICTIONARY
  5
19
102
{ACAD_REACTORS
330
C
102
}
100
AcDbDictionary
281
1
  0
DICTIONARY
  5
1A
102
{ACAD_REACTORS
330
C
102
}
100
AcDbDictionary
281
1
  3
Model
350
2B3
  3
Layout1
350
2B4
  0
ACDBPLACEHOLDER
  5
F
102
{ACAD_REACTORS
330
E
102
}
  0
MLINESTYLE
  5
18
102
{ACAD_REACTORS
330
17
102
}
100
AcDbMlineStyle
  2
STANDARD
 70
0
  3

 62
256
 51
90.0
 52
90.0
 71
2
 49
0.5
 62
256
  6
BYLAYER
 49
-0.5
 62
256
  6
BYLAYER
  0
LAYOUT
  5
2B3
102
{ACAD_REACTORS
330
1A
102
}
100
AcDbPlotSettings
  1

  2
none_device
  4

  6

 40
0.0
 41
0.0
 42
0.0
 43
0.0
 44
210.0
 45
297.0
 46
0.0
 47
0.0
 48
0.0
 49
0.0
140
0.0
141
0.0
142
1.0
143
1.0
 70
1024
 72
1
 73
0
 74
0
  7

 75
0
147
1.0
148
0.0
149
0.0
100
AcDbLayout
  1
Model
 70
0
 71
0
 10
0.0
 20
0.0
 11
210.0
 21
297.0
 12
0.0
 22
0.0
 32
0.0
 14
0.0
 24
0.0
 34
0.0
 15
0.0
 25
0.0
 35
0.0
146
0.0
 13
0.0
 23
0.0
 33
0.0
 16
1.0
 26
0.0
 36
0.0
 17
0.0
 27
1.0
 37
0.0
 76
0
330
210
345
0
346
0
  0
LAYOUT
  5
2B4
102
{ACAD_REACTORS
330
1A
102
}
100
AcDbPlotSettings
  1

  2
none_device
  4

  6

 40
0.0
 41
0.0
 42
0.0
 43
0.0
 44
210.0
 45
297.0
 46
0.0
 47
0.0
 48
0.0
 49
0.0
140
0.0
141
0.0
142
1.0
143
1.0
 70
0
 72
1
 73
0
 74
0
  7

 75
0
147
1.0
148
0.0
149
0.0
100
AcDbLayout
  1
Layout1
 70
0
 71
1
 10
0.0
 20
0.0
 11
210.0
 21
297.0
 12
0.0
 22
0.0
 32
0.0
 14
0.0
 24
0.0
 34
0.0
 15
0.0
 25
0.0
 35
0.0
146
0.0
 13
0.0
 23
0.0
 33
0.0
 16
1.0
 26
0.0
 36
0.0
 17
0.0
 27
1.0
 37
0.0
 76
0
330
211
345
0
346
0
  0
ENDSEC
  0
EOF
