999
DXF file: C:\Users\sesa63760\Dev\_Creo\CAD\MCADUE0002789_3D-CAD\drw0001_6.dxf
999
Pro/ENGINEER 2019471 by Parametric Technology Corporation
  0
SECTION
  2
HEADER
  9
$ACADVER
  1
AC1024
  9
$DWGCODEPAGE
  3
ANSI_1252
  9
$EXTMAX
 10
67.2691252359
 20
95.1377628336
 30
0.0
  9
$EXTMIN
 10
0.0
 20
0.0
 30
0.0
  9
$LIMMIN
 10
0.0
 20
0.0
  9
$LIMMAX
 10
67.2691252359
 20
95.1377628336
  9
$VIEWCTR
 10
33.6345626179
 20
47.5688814168
  9
$VIEWSIZE
 40
95.1377628336
  9
$CLAYER
  8
0
  9
$LTSCALE
 40
6.2015726884
  9
$CELTYPE
  6
BYLAYER
  9
$DIMSCALE
 40
1.0
  9
$DIMASZ
 40
0.8008229195
  9
$DIMEXO
 40
1.0
  9
$DIMDLI
 40
4.2847229484
  9
$DIMEXE
 40
1.0
  9
$DIMCEN
 40
1.0148028036
  9
$DIMLFAC
 40
1.0
  9
$DIMBLK
  1
_FILLED
  9
$DIMALT
 70
0
  9
$DIMALTF
 40
0.0393700787
  9
$DIMTXT
 40
1.1211520873
  9
$DIMTOL
 70
1
  9
$DIMLIM
 70
0
  9
$DIMTFAC
 40
1.0
  9
$DIMTP
 40
0.01
  9
$DIMTM
 40
0.01
  9
$DIMGAP
 40
0.625
  9
$DIMDSEP
 70
46
  9
$AUNITS
 70
0
  9
$PDMODE
 70
3
  9
$PDSIZE
 40
0.3125
  9
$HANDSEED
  5
2C1
  9
$TILEMODE
 70
1
  9
$MEASUREMENT
 70
1
  9
$INSUNITS
 70
4
  0
ENDSEC
  0
SECTION
  2
CLASSES
  0
CLASS
  1
ACDBDICTIONARYWDFLT
  2
AcDbDictionaryWithDefault
  3
AutoCAD 2000
 90
0
 91
1
280
0
281
0
  0
CLASS
  1
ACDBPLACEHOLDER
  2
AcDbPlaceHolder
  3
AutoCAD 2000
 90
0
 91
1
280
0
281
0
  0
CLASS
  1
LAYOUT
  2
AcDbLayout
  3
AutoCAD 2000
 90
0
 91
0
280
0
281
0
  0
ENDSEC
  0
SECTION
  2
TABLES
  0
TABLE
  2
VPORT
  5
8
100
AcDbSymbolTable
 70
2
  0
VPORT
  5
1F4
100
AcDbSymbolTableRecord
100
AcDbViewportTableRecord
  2
*ACTIVE
 70
0
 10
0.0
 20
0.0
 11
1.0
 21
1.0
 12
33.6345626179
 22
47.5688814168
 13
0.0
 23
0.0
 14
1.0
 24
1.0
 15
0.0
 25
0.0
 16
0.0
 26
0.0
 36
1.0
 17
0.0
 27
0.0
 37
0.0
 40
95.1377628336
 41
0.7070707071
 42
50.0
 43
0.0
 44
0.0
 50
0.0
 51
0.0
 71
0
 72
100
 73
1
 74
1
 75
0
 76
0
 77
0
 78
0
  0
ENDTAB
  0
TABLE
  2
LTYPE
  5
5
100
AcDbSymbolTable
 70
6
  0
LTYPE
  5
14
100
AcDbSymbolTableRecord
100
AcDbLinetypeTableRecord
  2
BYBLOCK
 70
0
  3

 72
65
 73
0
 40
0.0
  0
LTYPE
  5
15
100
AcDbSymbolTableRecord
100
AcDbLinetypeTableRecord
  2
BYLAYER
 70
0
  3

 72
65
 73
0
 40
0.0
  0
LTYPE
  5
16
100
AcDbSymbolTableRecord
100
AcDbLinetypeTableRecord
  2
CONTINUOUS
 70
64
  3
Solid line
 72
65
 73
0
 40
0.0
  0
LTYPE
  5
1F5
100
AcDbSymbolTableRecord
100
AcDbLinetypeTableRecord
  2
CENTER
 70
64
  3
____ _ ____ _ ____ _ ____ _ ____ _ ____ _ ____
 72
65
 73
4
 40
0.6
 49
0.375
 74
0
 49
-0.075
 74
0
 49
0.075
 74
0
 49
-0.075
 74
0
  0
LTYPE
  5
1F6
100
AcDbSymbolTableRecord
100
AcDbLinetypeTableRecord
  2
HIDDEN
 70
64
  3
- - - - - - - - - - - - - - - - - - - -
 72
65
 73
2
 40
0.2
 49
0.1
 74
0
 49
-0.1
 74
0
  0
LTYPE
  5
1F7
100
AcDbSymbolTableRecord
100
AcDbLinetypeTableRecord
  2
PHANTOM
 70
64
  3
_____ _ _ _____ _ _ _____ _ _ _____
 72
65
 73
6
 40
0.8
 49
0.45
 74
0
 49
-0.05
 74
0
 49
0.1
 74
0
 49
-0.05
 74
0
 49
0.1
 74
0
 49
-0.05
 74
0
  0
LTYPE
  5
1F8
100
AcDbSymbolTableRecord
100
AcDbLinetypeTableRecord
  2
DOT
 70
64
  3
. . . . . . . . . . . . . . . . . . . .
 72
65
 73
2
 40
0.2
 49
0.1
 74
0
 49
-0.1
 74
0
  0
LTYPE
  5
1F9
100
AcDbSymbolTableRecord
100
AcDbLinetypeTableRecord
  2
DASHED
 70
64
  3
- - - - - - - - - - - - - - - - - - - -
 72
65
 73
2
 40
0.2
 49
0.1
 74
0
 49
-0.1
 74
0
  0
ENDTAB
  0
TABLE
  2
LAYER
  5
2
100
AcDbSymbolTable
 70
36
  0
LAYER
  5
10
100
AcDbSymbolTableRecord
100
AcDbLayerTableRecord
  2
0
 70
0
 62
7
  6
CONTINUOUS
370
-3
390
F
  0
LAYER
  5
1FA
100
AcDbSymbolTableRecord
100
AcDbLayerTableRecord
  2
DEFAULT_1
 70
0
 62
7
  6
CENTER
370
-3
390
F
  0
LAYER
  5
1FB
100
AcDbSymbolTableRecord
100
AcDbLayerTableRecord
  2
DEFAULT_2
 70
0
 62
8
  6
HIDDEN
370
-3
390
F
  0
LAYER
  5
1FC
100
AcDbSymbolTableRecord
100
AcDbLayerTableRecord
  2
DEFAULT_3
 70
0
 62
7
  6
PHANTOM
370
-3
390
F
  0
LAYER
  5
1FD
100
AcDbSymbolTableRecord
100
AcDbLayerTableRecord
  2
00_COMPONENTS
 70
0
 62
7
  6
CONTINUOUS
370
-3
390
F
  0
LAYER
  5
1FE
100
AcDbSymbolTableRecord
100
AcDbLayerTableRecord
  2
01_1_DEFAULT_DATUMS
 70
0
 62
7
  6
CONTINUOUS
370
-3
390
F
  0
LAYER
  5
1FF
100
AcDbSymbolTableRecord
100
AcDbLayerTableRecord
  2
01_PLANES
 70
0
 62
7
  6
CONTINUOUS
370
-3
390
F
  0
LAYER
  5
200
100
AcDbSymbolTableRecord
100
AcDbLayerTableRecord
  2
02_COORD_SYS
 70
0
 62
7
  6
CONTINUOUS
370
-3
390
F
  0
LAYER
  5
201
100
AcDbSymbolTableRecord
100
AcDbLayerTableRecord
  2
03_AXES
 70
0
 62
7
  6
CONTINUOUS
370
-3
390
F
  0
LAYER
  5
202
100
AcDbSymbolTableRecord
100
AcDbLayerTableRecord
  2
04_POINTS
 70
0
 62
7
  6
CONTINUOUS
370
-3
390
F
  0
LAYER
  5
203
100
AcDbSymbolTableRecord
100
AcDbLayerTableRecord
  2
05_CURVES
 70
0
 62
7
  6
CONTINUOUS
370
-3
390
F
  0
LAYER
  5
204
100
AcDbSymbolTableRecord
100
AcDbLayerTableRecord
  2
06_SURFS
 70
0
 62
7
  6
CONTINUOUS
370
-3
390
F
  0
LAYER
  5
205
100
AcDbSymbolTableRecord
100
AcDbLayerTableRecord
  2
07_COSMETICS
 70
0
 62
7
  6
CONTINUOUS
370
-3
390
F
  0
LAYER
  5
206
100
AcDbSymbolTableRecord
100
AcDbLayerTableRecord
  2
10_NOTES
 70
0
 62
7
  6
CONTINUOUS
370
-3
390
F
  0
LAYER
  5
207
100
AcDbSymbolTableRecord
100
AcDbLayerTableRecord
  2
11_NOTES_PUB
 70
0
 62
7
  6
CONTINUOUS
370
-3
390
F
  0
LAYER
  5
208
100
AcDbSymbolTableRecord
100
AcDbLayerTableRecord
  2
13_REF_GTOL
 70
0
 62
7
  6
CONTINUOUS
370
-3
390
F
  0
LAYER
  5
209
100
AcDbSymbolTableRecord
100
AcDbLayerTableRecord
  2
16_MISC
 70
0
 62
7
  6
CONTINUOUS
370
-3
390
F
  0
LAYER
  5
20A
100
AcDbSymbolTableRecord
100
AcDbLayerTableRecord
  2
17_NO_PRINT
 70
0
 62
7
  6
CONTINUOUS
370
-3
390
F
  0
LAYER
  5
20B
100
AcDbSymbolTableRecord
100
AcDbLayerTableRecord
  2
18_DATUM_CAMS_JOINTS
 70
0
 62
7
  6
CONTINUOUS
370
-3
390
F
  0
LAYER
  5
20C
100
AcDbSymbolTableRecord
100
AcDbLayerTableRecord
  2
19_DATUM_FUNCTIONAL
 70
0
 62
7
  6
CONTINUOUS
370
-3
390
F
  0
LAYER
  5
20D
100
AcDbSymbolTableRecord
100
AcDbLayerTableRecord
  2
20_DATUM_KINEMATIC_SCHEME
 70
0
 62
7
  6
CONTINUOUS
370
-3
390
F
  0
ENDTAB
  0
TABLE
  2
STYLE
  5
3
100
AcDbSymbolTable
 70
1
  0
STYLE
  5
11
100
AcDbSymbolTableRecord
100
AcDbTextStyleTableRecord
  2
STANDARD
 70
0
 40
0.0
 41
0.8
 50
0.0
 71
0
 42
0.2
  3
txt
  4

  0
STYLE
  5
20E
100
AcDbSymbolTableRecord
100
AcDbTextStyleTableRecord
  2
TEXTSTYLE_1
 70
0
 40
0.0
 41
0.8
 50
0.0
 71
0
 42
0.2
  3
gdt
  4

  0
ENDTAB
  0
TABLE
  2
VIEW
  5
6
100
AcDbSymbolTable
 70
0
  0
ENDTAB
  0
TABLE
  2
UCS
  5
7
100
AcDbSymbolTable
 70
0
  0
ENDTAB
  0
TABLE
  2
APPID
  5
9
100
AcDbSymbolTable
 70
1
  0
APPID
  5
20F
100
AcDbSymbolTableRecord
100
AcDbRegAppTableRecord
  2
ACAD
 70
0
  0
ENDTAB
  0
TABLE
  2
BLOCK_RECORD
  5
1
100
AcDbSymbolTable
 70
0
  0
BLOCK_RECORD
  5
210
100
AcDbSymbolTableRecord
100
AcDbBlockTableRecord
  2
*Model_Space
  0
BLOCK_RECORD
  5
211
100
AcDbSymbolTableRecord
100
AcDbBlockTableRecord
  2
*Paper_Space
  0
BLOCK_RECORD
  5
212
100
AcDbSymbolTableRecord
100
AcDbBlockTableRecord
  2
_FILLED
  0
ENDTAB
  0
TABLE
  2
DIMSTYLE
  5
A
100
AcDbSymbolTable
 70
1
100
AcDbDimStyleTable
 71
0
  0
DIMSTYLE
105
213
100
AcDbSymbolTableRecord
100
AcDbDimStyleTableRecord
  2
STANDARD
 70
0
  3

  4

 40
1.0
 41
0.8008229195
 42
1.0
 43
0.38
 44
1.0
 45
0.0
 46
0.0
 47
0.01
 48
0.01
140
1.1211520873
141
0.09
142
0.0
143
25.4
144
1.0
145
0.0
146
1.0
147
0.625
 71
1
 72
0
 73
0
 74
0
 75
0
 76
0
 77
1
 78
8
 79
2
170
0
171
1
172
0
173
0
174
0
175
0
176
0
177
0
178
0
270
2
179
2
271
2
272
2
273
2
274
2
275
0
280
0
281
0
282
0
283
1
284
8
285
0
286
0
287
3
288
0
340
11
278
46
341
212
342
212
343
212
344
212
  0
ENDTAB
  0
ENDSEC
  0
SECTION
  2
BLOCKS
  0
BLOCK
  5
20
100
AcDbEntity
  8
0
100
AcDbBlockBegin
  2
*Model_Space
 70
0
 10
0.0
 20
0.0
 30
0.0
  3
*Model_Space
  1

  0
ENDBLK
  5
21
100
AcDbEntity
  8
0
100
AcDbBlockEnd
  0
BLOCK
  5
1C
100
AcDbEntity
  8
0
100
AcDbBlockBegin
  2
*Paper_Space
 70
0
 10
0.0
 20
0.0
 30
0.0
  3
*Paper_Space
  1

  0
ENDBLK
  5
1D
100
AcDbEntity
  8
0
100
AcDbBlockEnd
  0
BLOCK
  5
214
100
AcDbEntity
  8
0
100
AcDbBlockBegin
  2
_FILLED
 70
64
 10
0.0
 20
0.0
  3
_FILLED
  1

  0
SOLID
  5
215
100
AcDbEntity
  8
0
  6
BYBLOCK
 62
0
100
AcDbTrace
 10
0.0
 20
0.0
 11
-1.0
 21
0.25
 12
-1.0
 22
-0.25
 13
-1.0
 23
-0.25
  0
ENDBLK
  5
216
100
AcDbEntity
  8
0
  6
BYBLOCK
 62
0
100
AcDbBlockEnd
  0
ENDSEC
  0
SECTION
  2
ENTITIES
  0
LINE
  5
217
100
AcDbEntity
  8
0
100
AcDbLine
 62
7
  6
CONTINUOUS
 10
7.6250982625
 20
36.6688814168
 11
7.6250982625
 21
58.4688814168
  0
LINE
  5
218
100
AcDbEntity
  8
0
100
AcDbLine
 62
7
  6
CONTINUOUS
 10
14.8090544554
 20
27.8525539252
 11
16.1250982625
 21
27.5688814168
  0
LINE
  5
219
100
AcDbEntity
  8
0
100
AcDbLine
 62
7
  6
CONTINUOUS
 10
16.1250982625
 20
28.0709717502
 11
14.870810335
 21
28.3413328133
  0
LINE
  5
21A
100
AcDbEntity
  8
0
100
AcDbLine
 62
7
  6
CONTINUOUS
 10
16.1250982625
 20
27.5688814168
 11
16.1250982625
 21
67.5688814168
  0
LINE
  5
21B
100
AcDbEntity
  8
0
100
AcDbLine
 62
7
  6
CONTINUOUS
 10
18.1250982625
 20
35.9988895534
 11
18.1250982625
 21
59.1388732802
  0
LINE
  5
21C
100
AcDbEntity
  8
0
100
AcDbLine
 62
7
  6
CONTINUOUS
 10
18.5600982625
 20
37.7188814168
 11
18.5600982625
 21
42.0154469433
  0
LINE
  5
21D
100
AcDbEntity
  8
0
100
AcDbLine
 62
7
  6
CONTINUOUS
 10
18.5600982625
 20
53.1223158903
 11
18.5600982625
 21
57.4188814168
  0
LINE
  5
21E
100
AcDbEntity
  8
0
100
AcDbLine
 62
7
  6
CONTINUOUS
 10
19.2650982625
 20
37.7188814168
 11
19.2650982625
 21
43.5290794414
  0
LINE
  5
21F
100
AcDbEntity
  8
0
100
AcDbLine
 62
7
  6
CONTINUOUS
 10
19.2650982625
 20
51.6086833921
 11
19.2650982625
 21
57.4188814168
  0
LINE
  5
220
100
AcDbEntity
  8
0
100
AcDbLine
 62
7
  6
CONTINUOUS
 10
19.9750982625
 20
37.7188814168
 11
19.9750982625
 21
42.0441642295
  0
LINE
  5
221
100
AcDbEntity
  8
0
100
AcDbLine
 62
7
  6
CONTINUOUS
 10
19.9750982625
 20
53.0935986041
 11
19.9750982625
 21
57.4188814168
  0
LINE
  5
222
100
AcDbEntity
  8
0
100
AcDbLine
 62
7
  6
CONTINUOUS
 10
20.0250982625
 20
58.3061399849
 11
20.0250982625
 21
53.136645816
  0
LINE
  5
223
100
AcDbEntity
  8
0
100
AcDbLine
 62
7
  6
CONTINUOUS
 10
20.0250982625
 20
42.0011170849
 11
20.0250982625
 21
36.8316228682
  0
LINE
  5
224
100
AcDbEntity
  8
0
100
AcDbLine
 62
7
  6
CONTINUOUS
 10
21.5250982625
 20
60.4688814168
 11
21.5250982625
 21
34.6688814168
  0
LINE
  5
225
100
AcDbEntity
  8
0
100
AcDbLine
 62
7
  6
CONTINUOUS
 10
36.0250982625
 20
34.6688814168
 11
34.0250982625
 21
34.6688814168
  0
LINE
  5
226
100
AcDbEntity
  8
0
100
AcDbLine
 62
7
  6
CONTINUOUS
 10
31.0250982625
 20
34.6688814168
 11
21.5250982625
 21
34.6688814168
  0
LINE
  5
227
100
AcDbEntity
  8
0
100
AcDbLine
 62
7
  6
CONTINUOUS
 10
16.1250982625
 20
35.9988814168
 11
18.1250982625
 21
35.9988814168
  0
LINE
  5
228
100
AcDbEntity
  8
0
100
AcDbLine
 62
7
  6
CONTINUOUS
 10
24.5250982625
 20
36.1491616304
 11
24.5250982625
 21
58.9886012032
  0
LINE
  5
229
100
AcDbEntity
  8
0
100
AcDbLine
 62
7
  6
CONTINUOUS
 10
24.8950982625
 20
37.7188814168
 11
24.8950982625
 21
43.5290794414
  0
LINE
  5
22A
100
AcDbEntity
  8
0
100
AcDbLine
 62
7
  6
CONTINUOUS
 10
24.8950982625
 20
51.6086833921
 11
24.8950982625
 21
57.4188814168
  0
LINE
  5
22B
100
AcDbEntity
  8
0
100
AcDbLine
 62
7
  6
CONTINUOUS
 10
25.5950982625
 20
37.7188814168
 11
25.5950982625
 21
42.0441642295
  0
LINE
  5
22C
100
AcDbEntity
  8
0
100
AcDbLine
 62
7
  6
CONTINUOUS
 10
25.5950982625
 20
53.0935986041
 11
25.5950982625
 21
57.4188814168
  0
LINE
  5
22D
100
AcDbEntity
  8
0
100
AcDbLine
 62
7
  6
CONTINUOUS
 10
18.1250961658
 20
37.7188814168
 11
20.0250982625
 21
37.7188814168
  0
LINE
  5
22E
100
AcDbEntity
  8
0
100
AcDbLine
 62
7
  6
CONTINUOUS
 10
24.6283868778
 20
37.7188814168
 11
27.4001012756
 21
37.7188814168
  0
LINE
  5
22F
100
AcDbEntity
  8
0
100
AcDbLine
 62
7
  6
CONTINUOUS
 10
31.0250982625
 20
37.7688814168
 11
33.625065514
 21
37.7688814168
  0
LINE
  5
230
100
AcDbEntity
  8
0
100
AcDbLine
 62
7
  6
CONTINUOUS
 10
55.3250982625
 20
38.0688814168
 11
38.0250982625
 21
38.0688814168
  0
LINE
  5
231
100
AcDbEntity
  8
0
100
AcDbLine
 62
7
  6
CONTINUOUS
 10
26.3050982625
 20
37.7188814168
 11
26.3050982625
 21
43.5290794414
  0
LINE
  5
232
100
AcDbEntity
  8
0
100
AcDbLine
 62
7
  6
CONTINUOUS
 10
26.3050982625
 20
51.6086833921
 11
26.3050982625
 21
57.4188814168
  0
LINE
  5
233
100
AcDbEntity
  8
0
100
AcDbLine
 62
7
  6
CONTINUOUS
 10
27.0050982625
 20
37.7188814168
 11
27.0050982625
 21
42.0441642295
  0
LINE
  5
234
100
AcDbEntity
  8
0
100
AcDbLine
 62
7
  6
CONTINUOUS
 10
27.0050982625
 20
53.0935986041
 11
27.0050982625
 21
57.4188814168
  0
LINE
  5
235
100
AcDbEntity
  8
0
100
AcDbLine
 62
7
  6
CONTINUOUS
 10
27.5250982625
 20
58.9886012214
 11
27.5250982625
 21
36.1491616136
  0
LINE
  5
236
100
AcDbEntity
  8
0
100
AcDbLine
 62
7
  6
CONTINUOUS
 10
59.825098263
 20
39.8229128185
 11
59.3250982625
 21
39.8229147244
  0
LINE
  5
237
100
AcDbEntity
  8
0
100
AcDbLine
 62
7
  6
CONTINUOUS
 10
29.9250982625
 20
44.5688814168
 11
29.9250982625
 21
45.0688972582
  0
LINE
  5
238
100
AcDbEntity
  8
0
100
AcDbLine
 62
7
  6
CONTINUOUS
 10
29.9250982625
 20
45.0688972582
 11
29.9250982625
 21
50.0688655754
  0
LINE
  5
239
100
AcDbEntity
  8
0
100
AcDbLine
 62
7
  6
CONTINUOUS
 10
29.9250982625
 20
50.0688655754
 11
29.9250982625
 21
50.5688814168
  0
LINE
  5
23A
100
AcDbEntity
  8
0
100
AcDbLine
 62
7
  6
CONTINUOUS
 10
16.1250982625
 20
41.8715136035
 11
18.1250982625
 21
41.8715136035
  0
LINE
  5
23B
100
AcDbEntity
  8
0
100
AcDbLine
 62
7
  6
CONTINUOUS
 10
31.0250982625
 20
34.6690118783
 11
31.0250982625
 21
41.5688814168
  0
LINE
  5
23C
100
AcDbEntity
  8
0
100
AcDbLine
 62
7
  6
CONTINUOUS
 10
31.0250982625
 20
53.5688812828
 11
31.0250982625
 21
60.4687509553
  0
LINE
  5
23D
100
AcDbEntity
  8
0
100
AcDbLine
 62
7
  6
CONTINUOUS
 10
31.6250982625
 20
57.0446399616
 11
31.6250982625
 21
57.3687854599
  0
LINE
  5
23E
100
AcDbEntity
  8
0
100
AcDbLine
 62
7
  6
CONTINUOUS
 10
29.9250982625
 20
44.5688814168
 11
38.7250982625
 21
44.5688814168
  0
LINE
  5
23F
100
AcDbEntity
  8
0
100
AcDbLine
 62
7
  6
CONTINUOUS
 10
33.625065514
 20
37.7688814168
 11
33.625065514
 21
42.5242677066
  0
LINE
  5
240
100
AcDbEntity
  8
0
100
AcDbLine
 62
7
  6
CONTINUOUS
 10
33.6251160853
 20
52.6116898989
 11
33.6251160853
 21
57.0446399616
  0
LINE
  5
241
100
AcDbEntity
  8
0
100
AcDbLine
 62
7
  6
CONTINUOUS
 10
34.0250982625
 20
60.4687509553
 11
34.0250982625
 21
53.5688814168
  0
LINE
  5
242
100
AcDbEntity
  8
0
100
AcDbLine
 62
7
  6
CONTINUOUS
 10
34.0250982625
 20
41.5688814168
 11
34.0250982625
 21
34.6690118783
  0
LINE
  5
243
100
AcDbEntity
  8
0
100
AcDbLine
 62
7
  6
CONTINUOUS
 10
50.8250983297
 20
47.5688810603
 11
52.3250982625
 21
47.5688808504
  0
LINE
  5
244
100
AcDbEntity
  8
0
100
AcDbLine
 62
7
  6
CONTINUOUS
 10
36.0250982625
 20
34.6688814168
 11
36.0250982625
 21
60.4688814168
  0
LINE
  5
245
100
AcDbEntity
  8
0
100
AcDbLine
 62
7
  6
CONTINUOUS
 10
37.0250982625
 20
35.6690414794
 11
37.0250982625
 21
59.4687213541
  0
LINE
  5
246
100
AcDbEntity
  8
0
100
AcDbLine
 62
7
  6
CONTINUOUS
 10
38.0250982625
 20
57.0688814168
 11
38.0250982625
 21
38.0688814168
  0
LINE
  5
247
100
AcDbEntity
  8
0
100
AcDbLine
 62
7
  6
CONTINUOUS
 10
38.7250982625
 20
44.5688814168
 11
38.7250982625
 21
50.5688814168
  0
LINE
  5
248
100
AcDbEntity
  8
0
100
AcDbLine
 62
7
  6
CONTINUOUS
 10
29.9250982625
 20
50.5688814168
 11
38.7250982625
 21
50.5688814168
  0
LINE
  5
249
100
AcDbEntity
  8
0
100
AcDbLine
 62
7
  6
CONTINUOUS
 10
34.0250982625
 20
38.1688643215
 11
33.6251160853
 21
37.7688814168
  0
LINE
  5
24A
100
AcDbEntity
  8
0
100
AcDbLine
 62
7
  6
CONTINUOUS
 10
18.1250982625
 20
53.2662492301
 11
16.1250982625
 21
53.2662492301
  0
LINE
  5
24B
100
AcDbEntity
  8
0
100
AcDbLine
 62
7
  6
CONTINUOUS
 10
55.3250982625
 20
53.5688814168
 11
52.8960254352
 21
51.5306473033
  0
LINE
  5
24C
100
AcDbEntity
  8
0
100
AcDbLine
 62
7
  6
CONTINUOUS
 10
59.3250982625
 20
55.3148481092
 11
59.8250799931
 21
55.3148481092
  0
LINE
  5
24D
100
AcDbEntity
  8
0
100
AcDbLine
 62
7
  6
CONTINUOUS
 10
52.8960254396
 20
43.6071155266
 11
55.3250982625
 21
41.5688814168
  0
LINE
  5
24E
100
AcDbEntity
  8
0
100
AcDbLine
 62
7
  6
CONTINUOUS
 10
33.625101233
 20
57.0446428338
 11
31.6250982625
 21
57.0446399616
  0
LINE
  5
24F
100
AcDbEntity
  8
0
100
AcDbLine
 62
7
  6
CONTINUOUS
 10
55.3250982625
 20
57.0688814168
 11
38.0250982625
 21
57.0688814168
  0
LINE
  5
250
100
AcDbEntity
  8
0
100
AcDbLine
 62
7
  6
CONTINUOUS
 10
31.0250982625
 20
57.3688814168
 11
31.6250982625
 21
57.3688814168
  0
LINE
  5
251
100
AcDbEntity
  8
0
100
AcDbLine
 62
7
  6
CONTINUOUS
 10
18.1250961658
 20
57.4188814168
 11
20.0250982625
 21
57.4188814168
  0
LINE
  5
252
100
AcDbEntity
  8
0
100
AcDbLine
 62
7
  6
CONTINUOUS
 10
24.6296639073
 20
57.4188814168
 11
27.4014264526
 21
57.4188814168
  0
LINE
  5
253
100
AcDbEntity
  8
0
100
AcDbLine
 62
7
  6
CONTINUOUS
 10
53.538820333
 20
44.1601002283
 11
55.3250982625
 21
42.5613251352
  0
LINE
  5
254
100
AcDbEntity
  8
0
100
AcDbLine
 62
7
  6
CONTINUOUS
 10
55.3335412058
 20
41.5720475205
 11
58.6762218074
 21
42.8255527461
  0
LINE
  5
255
100
AcDbEntity
  8
0
100
AcDbLine
 62
7
  6
CONTINUOUS
 10
16.1250982625
 20
59.1388814168
 11
18.1250982625
 21
59.1388814168
  0
LINE
  5
256
100
AcDbEntity
  8
0
100
AcDbLine
 62
7
  6
CONTINUOUS
 10
36.0250982625
 20
60.4688814168
 11
34.0250982625
 21
60.4688814168
  0
LINE
  5
257
100
AcDbEntity
  8
0
100
AcDbLine
 62
7
  6
CONTINUOUS
 10
31.0250982625
 20
60.4688814168
 11
21.5250982625
 21
60.4688814168
  0
LINE
  5
258
100
AcDbEntity
  8
0
100
AcDbLine
 62
7
  6
CONTINUOUS
 10
58.6762218039
 20
52.3122100888
 11
55.3335410931
 21
53.5657153553
  0
LWPOLYLINE
  5
259
100
AcDbEntity
  8
0
100
AcDbPolyline
 62
7
  6
CONTINUOUS
 90
4
 70
0
 10
55.3255678108
 20
38.0690002503
 10
56.4138283172
 20
38.4797042075
 10
57.5629874397
 20
38.9114941665
 10
58.6094444789
 20
39.3028507628
  0
LWPOLYLINE
  5
25A
100
AcDbEntity
  8
0
100
AcDbPolyline
 62
7
  6
CONTINUOUS
 90
4
 70
0
 10
58.6087831295
 20
55.8350994893
 10
57.5629886488
 20
56.2262279156
 10
56.4138295252
 20
56.6580382498
 10
55.3255674318
 20
57.0687616296
  0
LINE
  5
25B
100
AcDbEntity
  8
0
100
AcDbLine
 62
7
  6
CONTINUOUS
 10
55.3250982625
 20
57.0688814167
 11
55.3250982625
 21
53.5688814168
  0
LINE
  5
25C
100
AcDbEntity
  8
0
100
AcDbLine
 62
7
  6
CONTINUOUS
 10
55.3250982625
 20
41.5688814164
 11
55.3250982625
 21
38.0688814168
  0
LINE
  5
25D
100
AcDbEntity
  8
0
100
AcDbLine
 62
7
  6
CONTINUOUS
 10
55.3250982625
 20
42.5613251352
 11
55.3250982625
 21
52.5765208609
  0
LINE
  5
25E
100
AcDbEntity
  8
0
100
AcDbLine
 62
7
  6
CONTINUOUS
 10
58.6068404928
 20
42.7992999461
 11
58.6093880865
 21
39.3030118382
  0
LINE
  5
25F
100
AcDbEntity
  8
0
100
AcDbLine
 62
7
  6
CONTINUOUS
 10
58.6087446724
 20
55.8349915598
 11
58.6066089221
 21
52.3385126042
  0
LINE
  5
260
100
AcDbEntity
  8
0
100
AcDbLine
 62
7
  6
CONTINUOUS
 10
14.870810335
 20
66.7964300203
 11
16.1250982625
 21
67.0667910834
  0
LINE
  5
261
100
AcDbEntity
  8
0
100
AcDbLine
 62
7
  6
CONTINUOUS
 10
16.1250982625
 20
67.5688814168
 11
14.8090544569
 21
67.2852089086
  0
LINE
  5
262
100
AcDbEntity
  8
0
100
AcDbLine
 62
7
  6
CONTINUOUS
 10
59.3250982625
 20
39.8229147244
 11
59.3250982625
 21
55.3148481092
  0
LINE
  5
263
100
AcDbEntity
  8
0
100
AcDbLine
 62
7
  6
CONTINUOUS
 10
59.8250982625
 20
39.8229147244
 11
59.8250982625
 21
55.3148481092
  0
LINE
  5
264
100
AcDbEntity
  8
0
100
AcDbLine
 62
7
  6
CONTINUOUS
 10
60.1250982625
 20
55.5228187212
 11
60.1250982625
 21
55.2672675347
  0
LINE
  5
265
100
AcDbEntity
  8
0
100
AcDbLine
 62
7
  6
CONTINUOUS
 10
60.1250982625
 20
39.8704952989
 11
60.1250982625
 21
39.6149441124
  0
LINE
  5
266
100
AcDbEntity
  8
0
100
AcDbLine
 62
7
  6
CONTINUOUS
 10
60.8250982625
 20
40.5688853039
 11
60.8250982625
 21
54.5688775297
  0
ARC
  5
267
100
AcDbEntity
  8
0
100
AcDbCircle
 62
7
  6
CONTINUOUS
 10
-2410.6318122987
 20
47.5691749684
 40
2469.3080380221
100
AcDbArc
 50
359.9056209476
 51
0.0943656957
  0
ARC
  5
268
100
AcDbEntity
  8
0
100
AcDbCircle
 62
7
  6
CONTINUOUS
 10
-134.7180591611
 20
-436.68598256
 40
525.2224073957
100
AcDbArc
 50
68.3948740046
 51
68.7794003366
  0
ARC
  5
269
100
AcDbEntity
  8
0
100
AcDbCircle
 62
7
  6
CONTINUOUS
 10
22.0250982625
 20
42.001117054
 40
2.0
100
AcDbArc
 50
149.844093009
 51
180.0
  0
ARC
  5
26A
100
AcDbEntity
  8
0
100
AcDbCircle
 62
7
  6
CONTINUOUS
 10
15.1250982625
 20
29.3188814168
 40
1.5
100
AcDbArc
 50
169.2244596772
 51
257.8368648357
  0
ARC
  5
26B
100
AcDbEntity
  8
0
100
AcDbCircle
 62
7
  6
CONTINUOUS
 10
13.6150982625
 20
31.0988814168
 40
1.5
100
AcDbArc
 50
168.8421884912
 51
291.1819908798
  0
ARC
  5
26C
100
AcDbEntity
  8
0
100
AcDbCircle
 62
7
  6
CONTINUOUS
 10
12.1150982625
 20
32.8888814168
 40
1.5
100
AcDbArc
 50
169.2244604873
 51
271.0830745046
  0
ARC
  5
26D
100
AcDbEntity
  8
0
100
AcDbCircle
 62
7
  6
CONTINUOUS
 10
10.6050982625
 20
34.6688814168
 40
1.5
100
AcDbArc
 50
169.2350509351
 51
271.392396381
  0
ARC
  5
26E
100
AcDbEntity
  8
0
100
AcDbCircle
 62
7
  6
CONTINUOUS
 10
9.1088772218
 20
36.4488814168
 40
1.5
100
AcDbArc
 50
171.5661959021
 51
270.8639955506
  0
ARC
  5
26F
100
AcDbEntity
  8
0
100
AcDbCircle
 62
7
  6
CONTINUOUS
 10
32.5250982625
 20
41.5688814168
 40
1.5
100
AcDbArc
 50
0.0
 51
180.0000008948
  0
ARC
  5
270
100
AcDbEntity
  8
0
100
AcDbCircle
 62
7
  6
CONTINUOUS
 10
36.0250982625
 20
35.6688814168
 40
1.0
100
AcDbArc
 50
270.0
 51
360.0
  0
ARC
  5
271
100
AcDbEntity
  8
0
100
AcDbCircle
 62
7
  6
CONTINUOUS
 10
38.0250982625
 20
37.0688814168
 40
1.0
100
AcDbArc
 50
90.0
 51
179.9999964333
  0
ARC
  5
272
100
AcDbEntity
  8
0
100
AcDbCircle
 62
7
  6
CONTINUOUS
 10
15.0815026916
 20
29.3188674815
 40
0.9999472958
100
AcDbArc
 50
157.5817419458
 51
257.8368564999
  0
ARC
  5
273
100
AcDbEntity
  8
0
100
AcDbCircle
 62
7
  6
CONTINUOUS
 10
2.440727724
 20
51.1853165502
 40
19.7740945668
100
AcDbArc
 50
332.4657227861
 51
332.8688388588
  0
ARC
  5
274
100
AcDbEntity
  8
0
100
AcDbCircle
 62
7
  6
CONTINUOUS
 10
2.4470772165
 20
43.9557355553
 40
19.7669436911
100
AcDbArc
 50
27.119927066
 51
27.5343309172
  0
ARC
  5
275
100
AcDbEntity
  8
0
100
AcDbCircle
 62
7
  6
CONTINUOUS
 10
36.0977451569
 20
50.1749706854
 40
19.3428879675
100
AcDbArc
 50
201.6954863093
 51
204.9505978625
  0
ARC
  5
276
100
AcDbEntity
  8
0
100
AcDbCircle
 62
7
  6
CONTINUOUS
 10
35.6565890885
 20
45.1529732493
 40
18.8625891669
100
AcDbArc
 50
155.0080886634
 51
158.3465004396
  0
ARC
  5
277
100
AcDbEntity
  8
0
100
AcDbCircle
 62
7
  6
CONTINUOUS
 10
11.4613959364
 20
50.4072022816
 40
17.650696515
100
AcDbArc
 50
331.7182442898
 51
335.523209013
  0
ARC
  5
278
100
AcDbEntity
  8
0
100
AcDbCircle
 62
7
  6
CONTINUOUS
 10
11.4614810079
 20
44.7306039912
 40
17.6506010168
100
AcDbArc
 50
24.4766197868
 51
28.2817623769
  0
ARC
  5
279
100
AcDbEntity
  8
0
100
AcDbCircle
 62
7
  6
CONTINUOUS
 10
10.4130872062
 20
45.5659969687
 40
15.6921223372
100
AcDbArc
 50
22.6485642386
 51
25.9184421314
  0
ARC
  5
27A
100
AcDbEntity
  8
0
100
AcDbCircle
 62
7
  6
CONTINUOUS
 10
10.4131358082
 20
49.5717454638
 40
15.6920696272
100
AcDbArc
 50
334.0814974253
 51
337.3514361715
  0
ARC
  5
27B
100
AcDbEntity
  8
0
100
AcDbCircle
 62
7
  6
CONTINUOUS
 10
12.4417649292
 20
47.5688814168
 40
9.0833333333
100
AcDbArc
 50
329.844093009
 51
30.155906991
  0
ARC
  5
27C
100
AcDbEntity
  8
0
100
AcDbCircle
 62
7
  6
CONTINUOUS
 10
22.0250982625
 20
53.1366457796
 40
2.0
100
AcDbArc
 50
180.0
 51
210.155906991
  0
ARC
  5
27D
100
AcDbEntity
  8
0
100
AcDbCircle
 62
7
  6
CONTINUOUS
 10
32.5250982625
 20
53.5688814168
 40
1.5
100
AcDbArc
 50
180.0000053873
 51
360.0
  0
ARC
  5
27E
100
AcDbEntity
  8
0
100
AcDbCircle
 62
7
  6
CONTINUOUS
 10
38.0250982625
 20
58.0688814168
 40
1.0
100
AcDbArc
 50
180.0001084655
 51
270.0
  0
ARC
  5
27F
100
AcDbEntity
  8
0
100
AcDbCircle
 62
7
  6
CONTINUOUS
 10
58.2250992154
 20
40.3336906139
 40
1.0999991998
100
AcDbArc
 50
290.4478024818
 51
359.9733645437
  0
ARC
  5
280
100
AcDbEntity
  8
0
100
AcDbCircle
 62
7
  6
CONTINUOUS
 10
59.8250982625
 20
40.5688814168
 40
1.0
100
AcDbArc
 50
287.4576031237
 51
360.0
  0
ARC
  5
281
100
AcDbEntity
  8
0
100
AcDbCircle
 62
7
  6
CONTINUOUS
 10
59.8249195444
 20
40.793575939
 40
0.9706631369
100
AcDbArc
 50
270.0105493062
 51
288.0141087805
  0
ARC
  5
282
100
AcDbEntity
  8
0
100
AcDbCircle
 62
7
  6
CONTINUOUS
 10
80.6137902489
 20
47.5687997685
 40
27.2887014806
100
AcDbArc
 50
172.8238878174
 51
187.1757019851
  0
ARC
  5
283
100
AcDbEntity
  8
0
100
AcDbCircle
 62
7
  6
CONTINUOUS
 10
77.3250982625
 20
47.5688814168
 40
25.0
100
AcDbArc
 50
172.3480509552
 51
187.6519490629
  0
ARC
  5
284
100
AcDbEntity
  8
0
100
AcDbCircle
 62
7
  6
CONTINUOUS
 10
58.2250988676
 20
54.8040730832
 40
1.0999991998
100
AcDbArc
 50
0.0266422585
 51
69.5879502578
  0
ARC
  5
285
100
AcDbEntity
  8
0
100
AcDbCircle
 62
7
  6
CONTINUOUS
 10
59.8250982625
 20
54.5688814168
 40
1.0
100
AcDbArc
 50
0.0
 51
72.5423968763
  0
ARC
  5
286
100
AcDbEntity
  8
0
100
AcDbCircle
 62
7
  6
CONTINUOUS
 10
53.5388130449
 20
50.7646028601
 40
1.0
100
AcDbArc
 50
130.0
 51
172.3480609488
  0
ARC
  5
287
100
AcDbEntity
  8
0
100
AcDbCircle
 62
7
  6
CONTINUOUS
 10
58.3250982625
 20
51.3758809486
 40
1.0
100
AcDbArc
 50
0.0
 51
69.443951727
  0
ARC
  5
288
100
AcDbEntity
  8
0
100
AcDbCircle
 62
7
  6
CONTINUOUS
 10
58.3250982625
 20
43.7618818849
 40
1.0
100
AcDbArc
 50
290.5560483812
 51
360.0
  0
ARC
  5
289
100
AcDbEntity
  8
0
100
AcDbCircle
 62
7
  6
CONTINUOUS
 10
53.5388130449
 20
44.3731599734
 40
1.0
100
AcDbArc
 50
187.6519494612
 51
230.0000001676
  0
ARC
  5
28A
100
AcDbEntity
  8
0
100
AcDbCircle
 62
7
  6
CONTINUOUS
 10
59.8249686979
 20
54.3445531294
 40
0.9702949862
100
AcDbArc
 50
71.9818738675
 51
89.9934280324
  0
ARC
  5
28B
100
AcDbEntity
  8
0
100
AcDbCircle
 62
7
  6
CONTINUOUS
 10
-143.2082704531
 20
553.4532890679
 40
548.4585000434
100
AcDbArc
 50
291.2295314231
 51
291.5977644841
  0
ARC
  5
28C
100
AcDbEntity
  8
0
100
AcDbCircle
 62
7
  6
CONTINUOUS
 10
10.6050982625
 20
60.4688814168
 40
1.5
100
AcDbArc
 50
88.607603619
 51
190.7649490649
  0
ARC
  5
28D
100
AcDbEntity
  8
0
100
AcDbCircle
 62
7
  6
CONTINUOUS
 10
15.1250982625
 20
65.8188814168
 40
1.5
100
AcDbArc
 50
102.1631351643
 51
190.7755403228
  0
ARC
  5
28E
100
AcDbEntity
  8
0
100
AcDbCircle
 62
7
  6
CONTINUOUS
 10
13.6150982625
 20
64.0388814168
 40
1.5
100
AcDbArc
 50
68.8180091202
 51
191.1578115088
  0
ARC
  5
28F
100
AcDbEntity
  8
0
100
AcDbCircle
 62
7
  6
CONTINUOUS
 10
9.1088772218
 20
58.6888814168
 40
1.5
100
AcDbArc
 50
89.1360044494
 51
188.4338040979
  0
ARC
  5
290
100
AcDbEntity
  8
0
100
AcDbCircle
 62
7
  6
CONTINUOUS
 10
12.1150982625
 20
62.2488814168
 40
1.5
100
AcDbArc
 50
88.9169254954
 51
190.7755395127
  0
ARC
  5
291
100
AcDbEntity
  8
0
100
AcDbCircle
 62
7
  6
CONTINUOUS
 10
36.0250982625
 20
59.4688814168
 40
1.0
100
AcDbArc
 50
0.0
 51
90.0
  0
ARC
  5
292
100
AcDbEntity
  8
0
100
AcDbCircle
 62
7
  6
CONTINUOUS
 10
15.0815026914
 20
65.8188953522
 40
0.999947294
100
AcDbArc
 50
102.1631434905
 51
202.4182580656
  0
SPLINE
  5
293
100
AcDbEntity
  8
0
100
AcDbSpline
 62
7
  6
CONTINUOUS
 70
0
 71
3
 72
8
 73
4
 74
0
 42
0.0000001
 43
0.0000001
 44
0.0000000001
 40
0.0
 40
0.0
 40
0.0
 40
0.0
 40
1.0
 40
1.0
 40
1.0
 40
1.0
 10
33.625101233
 20
57.0446428338
 30
0.0
 10
33.7585401999
 20
56.9066375932
 30
0.0
 10
33.8918843262
 20
56.7685405565
 30
0.0
 10
34.0251120939
 20
56.630331417
 30
0.0
  0
SPLINE
  5
294
100
AcDbEntity
  8
0
100
AcDbSpline
 62
7
  6
CONTINUOUS
 70
0
 71
3
 72
9
 73
5
 74
0
 42
0.0000001
 43
0.0000001
 44
0.0000000001
 40
0.0
 40
0.0
 40
0.0
 40
0.0
 40
0.7499666201
 40
1.0
 40
1.0
 40
1.0
 40
1.0
 10
27.0050982625
 20
42.0441642295
 30
0.0
 10
26.8131927023
 20
42.4070294513
 30
0.0
 10
26.5720280859
 20
42.8990635997
 30
0.0
 10
26.3570605128
 20
43.402474967
 30
0.0
 10
26.3050982625
 20
43.5290794414
 30
0.0
  0
SPLINE
  5
295
100
AcDbEntity
  8
0
100
AcDbSpline
 62
7
  6
CONTINUOUS
 70
0
 71
3
 72
9
 73
5
 74
0
 42
0.0000001
 43
0.0000001
 44
0.0000000001
 40
0.0
 40
0.0
 40
0.0
 40
0.0
 40
0.7499668493
 40
1.0
 40
1.0
 40
1.0
 40
1.0
 10
25.5950982625
 20
42.0441642295
 30
0.0
 10
25.7896439348
 20
42.4068404267
 30
0.0
 10
26.0342301755
 20
42.8987965199
 30
0.0
 10
26.2523650913
 20
43.4024062578
 30
0.0
 10
26.3050982625
 20
43.5290794414
 30
0.0
  0
SPLINE
  5
296
100
AcDbEntity
  8
0
100
AcDbSpline
 62
7
  6
CONTINUOUS
 70
0
 71
3
 72
9
 73
5
 74
0
 42
0.0000001
 43
0.0000001
 44
0.0000000001
 40
0.0
 40
0.0
 40
0.0
 40
0.0
 40
0.7499666201
 40
1.0
 40
1.0
 40
1.0
 40
1.0
 10
25.5950982625
 20
42.0441642295
 30
0.0
 10
25.4031927023
 20
42.4070294513
 30
0.0
 10
25.1620280859
 20
42.8990635997
 30
0.0
 10
24.9470605128
 20
43.402474967
 30
0.0
 10
24.8950982625
 20
43.5290794414
 30
0.0
  0
SPLINE
  5
297
100
AcDbEntity
  8
0
100
AcDbSpline
 62
7
  6
CONTINUOUS
 70
0
 71
3
 72
19
 73
15
 74
0
 42
0.0000001
 43
0.0000001
 44
0.0000000001
 40
0.0
 40
0.0
 40
0.0
 40
0.0
 40
0.1811846999
 40
0.3654718686
 40
0.5424470163
 40
0.7004148186
 40
0.828653571
 40
0.8797823375
 40
0.9215370179
 40
0.9536168474
 40
0.9765511969
 40
0.9848846522
 40
0.9913535589
 40
1.0
 40
1.0
 40
1.0
 40
1.0
 10
14.8708103532
 20
28.3413328093
 30
0.0
 10
14.864534855
 20
28.3119960011
 30
0.0
 10
14.8523333674
 20
28.2527212934
 30
0.0
 10
14.8356309152
 20
28.1644653321
 30
0.0
 10
14.821298818
 20
28.0796871356
 30
0.0
 10
14.8102613083
 20
28.0037855224
 30
0.0
 10
14.8040714253
 20
27.9482514969
 30
0.0
 10
14.8015720295
 20
27.9117185278
 30
0.0
 10
14.800918804
 20
27.8910295241
 30
0.0
 10
14.8013626076
 20
27.8750006595
 30
0.0
 10
14.8025530405
 20
27.8645584051
 30
0.0
 10
14.804223465
 20
27.858489694
 30
0.0
 10
14.805706893
 20
27.8549671773
 30
0.0
 10
14.8076337639
 20
27.8528607128
 30
0.0
 10
14.8090332974
 20
27.8525590521
 30
0.0
  0
SPLINE
  5
298
100
AcDbEntity
  8
0
100
AcDbSpline
 62
7
  6
CONTINUOUS
 70
0
 71
3
 72
9
 73
5
 74
0
 42
0.0000001
 43
0.0000001
 44
0.0000000001
 40
0.0
 40
0.0
 40
0.0
 40
0.0
 40
0.2500330903
 40
1.0
 40
1.0
 40
1.0
 40
1.0
 10
19.2650982625
 20
51.6086833921
 30
0.0
 10
19.2128963899
 20
51.7377150082
 30
0.0
 10
18.9967655217
 20
52.2507932214
 30
0.0
 10
18.7537274756
 20
52.7523392664
 30
0.0
 10
18.5601353536
 20
53.1222423614
 30
0.0
  0
SPLINE
  5
299
100
AcDbEntity
  8
0
100
AcDbSpline
 62
7
  6
CONTINUOUS
 70
0
 71
3
 72
9
 73
5
 74
0
 42
0.0000001
 43
0.0000001
 44
0.0000000001
 40
0.0
 40
0.0
 40
0.0
 40
0.0
 40
0.7499660529
 40
1.0
 40
1.0
 40
1.0
 40
1.0
 10
19.9750982625
 20
42.0441642295
 30
0.0
 10
19.7805527876
 20
42.4068400588
 30
0.0
 10
19.535962775
 20
42.8987944469
 30
0.0
 10
19.3178316043
 20
43.4024058483
 30
0.0
 10
19.2650982625
 20
43.5290794414
 30
0.0
  0
SPLINE
  5
29A
100
AcDbEntity
  8
0
100
AcDbSpline
 62
7
  6
CONTINUOUS
 70
0
 71
3
 72
9
 73
5
 74
0
 42
0.0000001
 43
0.0000001
 44
0.0000000001
 40
0.0
 40
0.0
 40
0.0
 40
0.0
 40
0.2500339218
 40
1.0
 40
1.0
 40
1.0
 40
1.0
 10
19.2650982625
 20
51.6086833921
 30
0.0
 10
19.3178315989
 20
51.7353569724
 30
0.0
 10
19.535962796
 20
52.2389683621
 30
0.0
 10
19.7805527811
 20
52.7309227626
 30
0.0
 10
19.9750982625
 20
53.0935986041
 30
0.0
  0
SPLINE
  5
29B
100
AcDbEntity
  8
0
100
AcDbSpline
 62
7
  6
CONTINUOUS
 70
0
 71
3
 72
9
 73
5
 74
0
 42
0.0000001
 43
0.0000001
 44
0.0000000001
 40
0.0
 40
0.0
 40
0.0
 40
0.0
 40
0.7499669383
 40
1.0
 40
1.0
 40
1.0
 40
1.0
 10
18.5600895876
 20
42.0154297451
 30
0.0
 10
18.753693496
 20
42.3853553609
 30
0.0
 10
18.9967489453
 20
42.8869306393
 30
0.0
 10
19.2128932196
 20
43.4000399892
 30
0.0
 10
19.2650982625
 20
43.5290794414
 30
0.0
  0
SPLINE
  5
29C
100
AcDbEntity
  8
0
100
AcDbSpline
 62
7
  6
CONTINUOUS
 70
0
 71
3
 72
9
 73
5
 74
0
 42
0.0000001
 43
0.0000001
 44
0.0000000001
 40
0.0
 40
0.0
 40
0.0
 40
0.0
 40
0.2500333547
 40
1.0
 40
1.0
 40
1.0
 40
1.0
 10
24.8950982625
 20
51.6086833921
 30
0.0
 10
24.9470605075
 20
51.7352878538
 30
0.0
 10
25.1620281085
 20
52.2386992088
 30
0.0
 10
25.4031926959
 20
52.7307333703
 30
0.0
 10
25.5950982625
 20
53.0935986041
 30
0.0
  0
SPLINE
  5
29D
100
AcDbEntity
  8
0
100
AcDbSpline
 62
7
  6
CONTINUOUS
 70
0
 71
3
 72
9
 73
5
 74
0
 42
0.0000001
 43
0.0000001
 44
0.0000000001
 40
0.0
 40
0.0
 40
0.0
 40
0.0
 40
0.2500333547
 40
1.0
 40
1.0
 40
1.0
 40
1.0
 10
26.3050982625
 20
51.6086833921
 30
0.0
 10
26.3570605075
 20
51.7352878538
 30
0.0
 10
26.5720281085
 20
52.2386992088
 30
0.0
 10
26.8131926959
 20
52.7307333703
 30
0.0
 10
27.0050982625
 20
53.0935986041
 30
0.0
  0
SPLINE
  5
29E
100
AcDbEntity
  8
0
100
AcDbSpline
 62
7
  6
CONTINUOUS
 70
0
 71
3
 72
9
 73
5
 74
0
 42
0.0000001
 43
0.0000001
 44
0.0000000001
 40
0.0
 40
0.0
 40
0.0
 40
0.0
 40
0.2500331921
 40
1.0
 40
1.0
 40
1.0
 40
1.0
 10
26.3050982625
 20
51.6086833921
 30
0.0
 10
26.2523650825
 20
51.7353565967
 30
0.0
 10
26.034230132
 20
52.2389663192
 30
0.0
 10
25.789643924
 20
52.730922427
 30
0.0
 10
25.5950982625
 20
53.0935986041
 30
0.0
  0
SPLINE
  5
29F
100
AcDbEntity
  8
0
100
AcDbSpline
 62
7
  6
CONTINUOUS
 70
0
 71
3
 72
19
 73
15
 74
0
 42
0.0000001
 43
0.0000001
 44
0.0000000001
 40
0.0
 40
0.0
 40
0.0
 40
0.0
 40
0.0086464412
 40
0.0151153476
 40
0.0234488027
 40
0.0463831518
 40
0.0784629818
 40
0.1202176626
 40
0.1713464287
 40
0.2995851803
 40
0.4575529832
 40
0.6345281307
 40
0.8188152996
 40
1.0
 40
1.0
 40
1.0
 40
1.0
 10
14.8090332627
 20
67.285203774
 30
0.0
 10
14.8076337293
 20
67.2849021131
 30
0.0
 10
14.8057068585
 20
67.2827956488
 30
0.0
 10
14.8042234304
 20
67.279273132
 30
0.0
 10
14.802553006
 20
67.2732044211
 30
0.0
 10
14.8013625734
 20
67.2627621667
 30
0.0
 10
14.8009187703
 20
67.2467333021
 30
0.0
 10
14.8015719963
 20
67.2260442984
 30
0.0
 10
14.8040713928
 20
67.1895113295
 30
0.0
 10
14.8102612772
 20
67.1339773043
 30
0.0
 10
14.8212987887
 20
67.0580756916
 30
0.0
 10
14.8356308879
 20
66.9732974955
 30
0.0
 10
14.8523333421
 20
66.8850415347
 30
0.0
 10
14.8645348311
 20
66.8257668274
 30
0.0
 10
14.87081033
 20
66.7964300192
 30
0.0
  0
SPLINE
  5
2A0
100
AcDbEntity
  8
0
100
AcDbSpline
 62
7
  6
CONTINUOUS
 70
0
 71
3
 72
11
 73
7
 74
0
 42
0.0000001
 43
0.0000001
 44
0.0000000001
 40
0.0
 40
0.0
 40
0.0
 40
0.0
 40
0.0590472129
 40
0.2399303869
 40
0.551461811
 40
1.0
 40
1.0
 40
1.0
 40
1.0
 10
21.5250982625
 20
60.4688814168
 30
0.0
 10
21.4954800407
 20
60.4480216757
 30
0.0
 10
21.3764147728
 20
60.3614337068
 30
0.0
 10
21.1147365463
 20
60.1462740697
 30
0.0
 10
20.7100871409
 20
59.7324999454
 30
0.0
 10
20.4361836888
 20
59.3513917433
 30
0.0
 10
20.2957749543
 20
59.1147206398
 30
0.0
  0
SPLINE
  5
2A1
100
AcDbEntity
  8
0
100
AcDbSpline
 62
7
  6
CONTINUOUS
 70
0
 71
3
 72
13
 73
9
 74
0
 42
0.0000001
 43
0.0000001
 44
0.0000000001
 40
0.0
 40
0.0
 40
0.0
 40
0.0
 40
0.0959019863
 40
0.2041999098
 40
0.3223446923
 40
0.4481232343
 40
0.716161069
 40
1.0
 40
1.0
 40
1.0
 40
1.0
 10
20.0250982625
 20
36.8316228685
 30
0.0
 10
20.0250982625
 20
36.8041165862
 30
0.0
 10
20.0294120323
 20
36.7455497787
 30
0.0
 10
20.0445343509
 20
36.6542700383
 30
0.0
 10
20.0678984106
 20
36.5559102443
 30
0.0
 10
20.1101559407
 20
36.4152154379
 30
0.0
 10
20.1811731012
 20
36.23389145
 30
0.0
 10
20.2542372355
 20
36.0930576225
 30
0.0
 10
20.2957749543
 20
36.0230421938
 30
0.0
  0
SPLINE
  5
2A2
100
AcDbEntity
  8
0
100
AcDbSpline
 62
7
  6
CONTINUOUS
 70
0
 71
3
 72
11
 73
7
 74
0
 42
0.0000001
 43
0.0000001
 44
0.0000000001
 40
0.0
 40
0.0
 40
0.0
 40
0.0
 40
0.4485381719
 40
0.7600696021
 40
0.9409527835
 40
1.0
 40
1.0
 40
1.0
 40
1.0
 10
20.2957749543
 20
36.0230421938
 30
0.0
 10
20.4361836834
 20
35.7863710993
 30
0.0
 10
20.710087129
 20
35.4052629011
 30
0.0
 10
21.1147365317
 20
34.9914887768
 30
0.0
 10
21.3764147662
 20
34.7763291329
 30
0.0
 10
21.4954800391
 20
34.6897411593
 30
0.0
 10
21.5250982625
 20
34.6688814168
 30
0.0
  0
SPLINE
  5
2A3
100
AcDbEntity
  8
0
100
AcDbSpline
 62
7
  6
CONTINUOUS
 70
0
 71
3
 72
25
 73
21
 74
0
 42
0.0000001
 43
0.0000001
 44
0.0000000001
 40
0.0
 40
0.0
 40
0.0
 40
0.0
 40
0.0442831583
 40
0.089786925
 40
0.1397546211
 40
0.1968841252
 40
0.2624977601
 40
0.3363345257
 40
0.4166665043
 40
0.5006112146
 40
0.584619436
 40
0.6650885958
 40
0.7390074112
 40
0.8045155257
 40
0.8613023142
 40
0.9107563922
 40
0.9336613539
 40
0.9558908056
 40
0.9778747962
 40
1.0
 40
1.0
 40
1.0
 40
1.0
 10
27.5250982625
 20
37.9949866159
 30
0.0
 10
27.5250982605
 20
37.9400334079
 30
0.0
 10
27.5090055731
 20
37.8277507355
 30
0.0
 10
27.4312104079
 20
37.6697678733
 30
0.0
 10
27.3005200556
 20
37.5296077024
 30
0.0
 10
27.1204433754
 20
37.4106334029
 30
0.0
 10
26.895132951
 20
37.3145429777
 30
0.0
 10
26.6312742525
 20
37.2429036144
 30
0.0
 10
26.3388431651
 20
37.1971715911
 30
0.0
 10
26.0308866916
 20
37.1783860397
 30
0.0
 10
25.7223096008
 20
37.1870763561
 30
0.0
 10
25.4281889902
 20
37.223274228
 30
0.0
 10
25.1620148753
 20
37.2864067603
 30
0.0
 10
24.9342555501
 20
37.3754107341
 30
0.0
 10
24.7519914219
 20
37.4887827422
 30
0.0
 10
24.6389566864
 20
37.6055471269
 30
0.0
 10
24.5785168187
 20
37.7066817271
 30
0.0
 10
24.5473560629
 20
37.784307098
 30
0.0
 10
24.5290071732
 20
37.8648863262
 30
0.0
 10
24.5250982625
 20
37.9197199072
 30
0.0
 10
24.5250982625
 20
37.9471761901
 30
0.0
  0
SPLINE
  5
2A4
100
AcDbEntity
  8
0
100
AcDbSpline
 62
7
  6
CONTINUOUS
 70
0
 71
3
 72
25
 73
21
 74
0
 42
0.0000001
 43
0.0000001
 44
0.0000000001
 40
0.0
 40
0.0
 40
0.0
 40
0.0
 40
0.0221251028
 40
0.0441091819
 40
0.0663395815
 40
0.0892466828
 40
0.1387066574
 40
0.1955037821
 40
0.2610275417
 40
0.334959077
 40
0.4154354829
 40
0.4994456016
 40
0.5833872499
 40
0.6637111645
 40
0.7375353932
 40
0.803133906
 40
0.86025326
 40
0.9102153294
 40
0.9557165874
 40
1.0
 40
1.0
 40
1.0
 40
1.0
 10
24.5250982625
 20
57.1905866434
 30
0.0
 10
24.5250982625
 20
57.2180428009
 30
0.0
 10
24.5290068241
 20
57.272876384
 30
0.0
 10
24.5473559942
 20
57.3534567766
 30
0.0
 10
24.5785187839
 20
57.4310856342
 30
0.0
 10
24.638965979
 20
57.5322289219
 30
0.0
 10
24.7520201221
 20
57.6490072723
 30
0.0
 10
24.9343264193
 20
57.7623880955
 30
0.0
 10
25.1621381005
 20
57.8513900407
 30
0.0
 10
25.4283585183
 20
57.9145186744
 30
0.0
 10
25.7225087936
 20
57.9506991675
 30
0.0
 10
26.0310936829
 20
57.9593721915
 30
0.0
 10
26.3390379831
 20
57.9405726668
 30
0.0
 10
26.6314368027
 20
57.8948250073
 30
0.0
 10
26.8952490195
 20
57.8231839131
 30
0.0
 10
27.1205089221
 20
57.7270943786
 30
0.0
 10
27.3005447077
 20
57.6081295607
 30
0.0
 10
27.4312170726
 20
57.4679844698
 30
0.0
 10
27.5090049801
 20
57.310009348
 30
0.0
 10
27.5250982605
 20
57.197729741
 30
0.0
 10
27.5250982625
 20
57.1427762176
 30
0.0
  0
SPLINE
  5
2A5
100
AcDbEntity
  8
0
100
AcDbSpline
 62
7
  6
CONTINUOUS
 70
0
 71
3
 72
12
 73
8
 74
0
 42
0.0000001
 43
0.0000001
 44
0.0000000001
 40
0.0
 40
0.0
 40
0.0
 40
0.0
 40
0.2837498294
 40
0.5518715435
 40
0.7956561066
 40
0.9041017632
 40
1.0
 40
1.0
 40
1.0
 40
1.0
 10
20.2957749543
 20
59.1147206398
 30
0.0
 10
20.2542545884
 20
59.044734461
 30
0.0
 10
20.1811681213
 20
58.9039030573
 30
0.0
 10
20.0978783255
 20
58.6911060706
 30
0.0
 10
20.0504968009
 20
58.5191143365
 30
0.0
 10
20.029386124
 20
58.3922478728
 30
0.0
 10
20.0250982625
 20
58.3336423087
 30
0.0
 10
20.0250982625
 20
58.3061399591
 30
0.0
  0
SPLINE
  5
2A6
100
AcDbEntity
  8
0
100
AcDbSpline
 62
7
  6
CONTINUOUS
 70
0
 71
3
 72
9
 73
5
 74
0
 42
0.0000001
 43
0.0000001
 44
0.0000000001
 40
0.0
 40
0.0
 40
0.0
 40
0.0
 40
0.5055657145
 40
1.0
 40
1.0
 40
1.0
 40
1.0
 10
55.3251017609
 20
42.5613733172
 30
0.0
 10
55.325094018
 20
42.5017163887
 30
0.0
 10
55.3403615368
 20
42.3837057774
 30
0.0
 10
55.3727038117
 20
42.2700314658
 30
0.0
 10
55.391342937
 20
42.2147455069
 30
0.0
  0
SPLINE
  5
2A7
100
AcDbEntity
  8
0
100
AcDbSpline
 62
7
  6
CONTINUOUS
 70
0
 71
3
 72
18
 73
14
 74
0
 42
0.0000001
 43
0.0000001
 44
0.0000000001
 40
0.0
 40
0.0
 40
0.0
 40
0.0
 40
0.1751766723
 40
0.3529608875
 40
0.5236506076
 40
0.6766027947
 40
0.8023687778
 40
0.8536422899
 40
0.8967382057
 40
0.9316867758
 40
0.9594242052
 40
0.9814653842
 40
1.0
 40
1.0
 40
1.0
 40
1.0
 10
53.5389412045
 20
50.9774966609
 30
0.0
 10
53.4794933099
 20
50.9851225575
 30
0.0
 10
53.359406393
 20
50.9981930425
 30
0.0
 10
53.1806139609
 20
51.0105126864
 30
0.0
 10
53.0090076587
 20
51.013993413
 30
0.0
 10
52.8552605087
 20
51.0084129452
 30
0.0
 10
52.7429006689
 20
50.9951174508
 30
0.0
 10
52.6692734189
 20
50.9789674837
 30
0.0
 10
52.6269233641
 20
50.9659154659
 30
0.0
 10
52.5937408335
 20
50.9511684254
 30
0.0
 10
52.5694760152
 20
50.9349538978
 30
0.0
 10
52.5536113973
 20
50.9173181404
 30
0.0
 10
52.5485541988
 20
50.9039071508
 30
0.0
 10
52.547710526
 20
50.8976220819
 30
0.0
  0
SPLINE
  5
2A8
100
AcDbEntity
  8
0
100
AcDbSpline
 62
7
  6
CONTINUOUS
 70
0
 71
3
 72
15
 73
11
 74
0
 42
0.0000001
 43
0.0000001
 44
0.0000000001
 40
0.0
 40
0.0
 40
0.0
 40
0.0
 40
0.1713067558
 40
0.3362051374
 40
0.4892529194
 40
0.6258882251
 40
0.7431410343
 40
0.8415262181
 40
0.9246722736
 40
1.0
 40
1.0
 40
1.0
 40
1.0
 10
52.1908042021
 20
43.2638427199
 30
0.0
 10
52.2224479674
 20
43.3004582982
 30
0.0
 10
52.2869497038
 20
43.3702954176
 30
0.0
 10
52.3882291741
 20
43.4645890915
 30
0.0
 10
52.490273646
 20
43.5429177837
 30
0.0
 10
52.5892333131
 20
43.6021340028
 30
0.0
 10
52.6821858316
 20
43.6391193808
 30
0.0
 10
52.7663287915
 20
43.653331297
 30
0.0
 10
52.839585425
 20
43.6432665118
 30
0.0
 10
52.8797240623
 20
43.620793999
 30
0.0
 10
52.896025669
 20
43.6071153261
 30
0.0
  0
SPLINE
  5
2A9
100
AcDbEntity
  8
0
100
AcDbSpline
 62
7
  6
CONTINUOUS
 70
0
 71
3
 72
16
 73
12
 74
0
 42
0.0000001
 43
0.0000001
 44
0.0000000001
 40
0.0
 40
0.0
 40
0.0
 40
0.0
 40
0.0175851368
 40
0.0414451347
 40
0.0722938706
 40
0.1102995956
 40
0.206938031
 40
0.3289104708
 40
0.4727679818
 40
0.6349158466
 40
1.0
 40
1.0
 40
1.0
 40
1.0
 10
55.3335365955
 20
41.5720402755
 30
0.0
 10
55.3371970389
 20
41.5734119174
 30
0.0
 10
55.3448479528
 20
41.5790050146
 30
0.0
 10
55.3550438461
 20
41.5914747988
 30
0.0
 10
55.3656356422
 20
41.6092339223
 30
0.0
 10
55.3811126252
 20
41.6426474415
 30
0.0
 10
55.3988981574
 20
41.6970326167
 30
0.0
 10
55.4163165942
 20
41.7757810864
 30
0.0
 10
55.4285026063
 20
41.8703097475
 30
0.0
 10
55.4339398292
 20
42.0193660949
 30
0.0
 10
55.4172616202
 20
42.1378412214
 30
0.0
 10
55.391342937
 20
42.2147455069
 30
0.0
  0
SPLINE
  5
2AA
100
AcDbEntity
  8
0
100
AcDbSpline
 62
7
  6
CONTINUOUS
 70
0
 71
3
 72
9
 73
5
 74
0
 42
0.0000001
 43
0.0000001
 44
0.0000000001
 40
0.0
 40
0.0
 40
0.0
 40
0.0
 40
0.5055570588
 40
1.0
 40
1.0
 40
1.0
 40
1.0
 10
55.3251000758
 20
52.5764675267
 30
0.0
 10
55.3250985155
 20
52.6361094879
 30
0.0
 10
55.3403235401
 20
52.7540981956
 30
0.0
 10
55.3727084877
 20
52.8677336065
 30
0.0
 10
55.3913417692
 20
52.9230082193
 30
0.0
  0
SPLINE
  5
2AB
100
AcDbEntity
  8
0
100
AcDbSpline
 62
7
  6
CONTINUOUS
 70
0
 71
3
 72
16
 73
12
 74
0
 42
0.0000001
 43
0.0000001
 44
0.0000000001
 40
0.0
 40
0.0
 40
0.0
 40
0.0
 40
0.3650832121
 40
0.527233087
 40
0.6710916297
 40
0.7930646754
 40
0.8897032104
 40
0.9277083559
 40
0.9585563302
 40
0.9824156897
 40
1.0
 40
1.0
 40
1.0
 40
1.0
 10
55.3913417692
 20
52.9230082193
 30
0.0
 10
55.4172589172
 20
52.9999138611
 30
0.0
 10
55.4339346949
 20
53.1183902857
 30
0.0
 10
55.4285034171
 20
53.2674491301
 30
0.0
 10
55.4163177068
 20
53.3619799866
 30
0.0
 10
55.3988977165
 20
53.4407294677
 30
0.0
 10
55.381113002
 20
53.495115676
 30
0.0
 10
55.3656357102
 20
53.5285292949
 30
0.0
 10
55.3550431229
 20
53.5462877651
 30
0.0
 10
55.3448465154
 20
53.5587566021
 30
0.0
 10
55.3371956415
 20
53.5643492346
 30
0.0
 10
55.3335353372
 20
53.5657208617
 30
0.0
  0
SPLINE
  5
2AC
100
AcDbEntity
  8
0
100
AcDbSpline
 62
7
  6
CONTINUOUS
 70
0
 71
3
 72
17
 73
13
 74
0
 42
0.0000001
 43
0.0000001
 44
0.0000000001
 40
0.0
 40
0.0
 40
0.0
 40
0.0
 40
0.1846801124
 40
0.3614871828
 40
0.5240437935
 40
0.6666742862
 40
0.7848897563
 40
0.8774362322
 40
0.9145318777
 40
0.9464429777
 40
0.9744077863
 40
1.0
 40
1.0
 40
1.0
 40
1.0
 10
58.6728545097
 20
51.6360991099
 30
0.0
 10
58.6840401942
 20
51.6781161144
 30
0.0
 10
58.7042762712
 20
51.7608124813
 30
0.0
 10
58.7280381895
 20
51.8819410928
 30
0.0
 10
58.7433155745
 20
51.994454253
 30
0.0
 10
58.7495377454
 20
52.094098014
 30
0.0
 10
58.7459672602
 20
52.177350292
 30
0.0
 10
58.7348045703
 20
52.2351300477
 30
0.0
 10
58.7199999329
 20
52.2703236862
 30
0.0
 10
58.7075421504
 20
52.2896327919
 30
0.0
 10
58.6930600843
 20
52.3038787277
 30
0.0
 10
58.6818629569
 20
52.3100946716
 30
0.0
 10
58.6762212497
 20
52.3122102966
 30
0.0
  0
SPLINE
  5
2AD
100
AcDbEntity
  8
0
100
AcDbSpline
 62
7
  6
CONTINUOUS
 70
0
 71
3
 72
15
 73
11
 74
0
 42
0.0000001
 43
0.0000001
 44
0.0000000001
 40
0.0
 40
0.0
 40
0.0
 40
0.0
 40
0.1786226277
 40
0.3479943134
 40
0.5025030266
 40
0.6381595609
 40
0.7527769604
 40
0.8479260476
 40
0.9279026605
 40
1.0
 40
1.0
 40
1.0
 40
1.0
 10
52.1908036098
 20
51.8739195427
 30
0.0
 10
52.2238011235
 20
51.8357378091
 30
0.0
 10
52.2906875503
 20
51.7635449038
 30
0.0
 10
52.3951677762
 20
51.6671565911
 30
0.0
 10
52.4990263253
 20
51.5888502671
 30
0.0
 10
52.5982313693
 20
51.5311937321
 30
0.0
 10
52.6900309908
 20
51.4965049954
 30
0.0
 10
52.771936895
 20
51.4845401421
 30
0.0
 10
52.8421901974
 20
51.495676862
 30
0.0
 10
52.8804219405
 20
51.5175544145
 30
0.0
 10
52.8960255097
 20
51.5306473658
 30
0.0
  0
SPLINE
  5
2AE
100
AcDbEntity
  8
0
100
AcDbSpline
 62
7
  6
CONTINUOUS
 70
0
 71
3
 72
17
 73
13
 74
0
 42
0.0000001
 43
0.0000001
 44
0.0000000001
 40
0.0
 40
0.0
 40
0.0
 40
0.0
 40
0.1886797584
 40
0.3637207428
 40
0.5213241192
 40
0.658857347
 40
0.7744547613
 40
0.8675535013
 40
0.9062633324
 40
0.9404620596
 40
0.9712069597
 40
1.0
 40
1.0
 40
1.0
 40
1.0
 10
58.6728766227
 20
51.6361039392
 30
0.0
 10
58.7189518302
 20
51.631358437
 30
0.0
 10
58.807579668
 20
51.620162853
 30
0.0
 10
58.9335943583
 20
51.5974267308
 30
0.0
 10
59.0457479861
 20
51.5697766766
 30
0.0
 10
59.1415660585
 20
51.537872562
 30
0.0
 10
59.2190290789
 20
51.5025042363
 30
0.0
 10
59.270142577
 20
51.4687693857
 30
0.0
 10
59.2990864836
 20
51.4398734707
 30
0.0
 10
59.3138885486
 20
51.4189844071
 30
0.0
 10
59.3229929501
 20
51.3976281429
 30
0.0
 10
59.3250932888
 20
51.3829472193
 30
0.0
 10
59.3250932202
 20
51.3758788235
 30
0.0
  0
SPLINE
  5
2AF
100
AcDbEntity
  8
0
100
AcDbSpline
 62
7
  6
CONTINUOUS
 70
0
 71
3
 72
17
 73
13
 74
0
 42
0.0000001
 43
0.0000001
 44
0.0000000001
 40
0.0
 40
0.0
 40
0.0
 40
0.0
 40
0.0255921855
 40
0.0535569492
 40
0.0854679905
 40
0.1225635685
 40
0.2151099182
 40
0.3333252944
 40
0.4759557634
 40
0.6385124425
 40
0.8153196573
 40
1.0
 40
1.0
 40
1.0
 40
1.0
 10
58.67622115
 20
42.8255524996
 30
0.0
 10
58.6818628575
 20
42.8276681068
 30
0.0
 10
58.693059989
 20
42.8338840104
 30
0.0
 10
58.707542072
 20
42.8481298887
 30
0.0
 10
58.7199998745
 20
42.8674389372
 30
0.0
 10
58.7348045483
 20
42.9026325013
 30
0.0
 10
58.7459672769
 20
42.9604121898
 30
0.0
 10
58.7495378128
 20
43.0436644174
 30
0.0
 10
58.7433156736
 20
43.143308181
 30
0.0
 10
58.7280383058
 20
43.2558214012
 30
0.0
 10
58.7042763808
 20
43.3769501321
 30
0.0
 10
58.6840402816
 20
43.4596465943
 30
0.0
 10
58.6728545846
 20
43.5016636566
 30
0.0
  0
SPLINE
  5
2B0
100
AcDbEntity
  8
0
100
AcDbSpline
 62
7
  6
CONTINUOUS
 70
0
 71
3
 72
17
 73
13
 74
0
 42
0.0000001
 43
0.0000001
 44
0.0000000001
 40
0.0
 40
0.0
 40
0.0
 40
0.0
 40
0.1886780902
 40
0.3637275836
 40
0.521349804
 40
0.6588877563
 40
0.7744817163
 40
0.8675698182
 40
0.9062749779
 40
0.9404691134
 40
0.9712099642
 40
1.0
 40
1.0
 40
1.0
 40
1.0
 10
58.6728586739
 20
43.5016658362
 30
0.0
 10
58.7189349443
 20
43.5064114182
 30
0.0
 10
58.8075681005
 20
43.5175998407
 30
0.0
 10
58.9335947049
 20
43.5403296309
 30
0.0
 10
59.0457591004
 20
43.5679850694
 30
0.0
 10
59.1415839886
 20
43.5998939121
 30
0.0
 10
59.2190478046
 20
43.6352621121
 30
0.0
 10
59.2701567346
 20
43.6689987388
 30
0.0
 10
59.2990983102
 20
43.6978917885
 30
0.0
 10
59.3138985041
 20
43.7187793165
 30
0.0
 10
59.3229997206
 20
43.7401347036
 30
0.0
 10
59.3250985445
 20
43.7548144249
 30
0.0
 10
59.3250982625
 20
43.7618823082
 30
0.0
  0
SPLINE
  5
2B1
100
AcDbEntity
  8
0
100
AcDbSpline
 62
7
  6
CONTINUOUS
 70
0
 71
3
 72
31
 73
27
 74
0
 42
0.0000001
 43
0.0000001
 44
0.0000000001
 40
0.0
 40
0.0
 40
0.0
 40
0.0
 40
0.0199626002
 40
0.0400081283
 40
0.0606547072
 40
0.0824189855
 40
0.1309889222
 40
0.158550832
 40
0.1884919824
 40
0.2555580632
 40
0.3314150177
 40
0.3720202788
 40
0.4139410541
 40
0.5000175258
 40
0.5860917318
 40
0.6280092361
 40
0.668612161
 40
0.7444610495
 40
0.8115179873
 40
0.8414561814
 40
0.8690148696
 40
0.9175815278
 40
0.9393450348
 40
0.9599915079
 40
0.9800372631
 40
1.0
 40
1.0
 40
1.0
 40
1.0
 10
27.5250982625
 20
58.9886012209
 30
0.0
 10
27.5250982615
 20
59.0123528664
 30
0.0
 10
27.5209273464
 20
59.0600738082
 30
0.0
 10
27.5015820373
 20
59.1299988943
 30
0.0
 10
27.4690251709
 20
59.1972397125
 30
0.0
 10
27.4057222036
 20
59.2856016669
 30
0.0
 10
27.3163740301
 20
59.3628944629
 30
0.0
 10
27.2087712777
 20
59.4289679578
 30
0.0
 10
27.0754082176
 20
59.4941701262
 30
0.0
 10
26.8800321282
 20
59.5607982993
 30
0.0
 10
26.6661296607
 20
59.6065226256
 30
0.0
 10
26.4795257655
 20
59.6331515273
 30
0.0
 10
26.2798310325
 20
59.6528160303
 30
0.0
 10
26.0250382348
 20
59.6623889624
 30
0.0
 10
25.7702492565
 20
59.6528107688
 30
0.0
 10
25.5705649624
 20
59.6331361409
 30
0.0
 10
25.3839776435
 20
59.6065071085
 30
0.0
 10
25.170098453
 20
59.5607832734
 30
0.0
 10
24.9747488586
 20
59.4941533171
 30
0.0
 10
24.8414020548
 20
59.4289592437
 30
0.0
 10
24.7338128899
 20
59.3628850322
 30
0.0
 10
24.6444720618
 20
59.2855979196
 30
0.0
 10
24.5811723549
 20
59.1972396398
 30
0.0
 10
24.5486160521
 20
59.1299994746
 30
0.0
 10
24.5292697912
 20
59.0600743825
 30
0.0
 10
24.5250982625
 20
59.0123530114
 30
0.0
 10
24.5250982625
 20
58.9886012032
 30
0.0
  0
SPLINE
  5
2B2
100
AcDbEntity
  8
0
100
AcDbSpline
 62
7
  6
CONTINUOUS
 70
0
 71
3
 72
9
 73
5
 74
0
 42
0.0000001
 43
0.0000001
 44
0.0000000001
 40
0.0
 40
0.0
 40
0.0
 40
0.0
 40
0.504754442
 40
1.0
 40
1.0
 40
1.0
 40
1.0
 10
50.8250983297
 20
47.5688814168
 30
0.0
 10
50.8250985561
 20
47.0426152682
 30
0.0
 10
50.9236377726
 20
45.9990895048
 30
0.0
 10
51.1578237277
 20
44.9815322886
 30
0.0
 10
51.2918982557
 20
44.4828907113
 30
0.0
  0
SPLINE
  5
2B3
100
AcDbEntity
  8
0
100
AcDbSpline
 62
7
  6
CONTINUOUS
 70
0
 71
3
 72
11
 73
7
 74
0
 42
0.0000001
 43
0.0000001
 44
0.0000000001
 40
0.0
 40
0.0
 40
0.0
 40
0.0
 40
0.249249197
 40
0.4977180774
 40
0.7473490649
 40
1.0
 40
1.0
 40
1.0
 40
1.0
 10
51.2918981958
 20
44.4828906969
 30
0.0
 10
51.3253294174
 20
44.3585532286
 30
0.0
 10
51.4137112375
 20
44.1153968652
 30
0.0
 10
51.6116312888
 20
43.7812821834
 30
0.0
 10
51.8712375879
 20
43.4900049505
 30
0.0
 10
52.0796650645
 20
43.3322624508
 30
0.0
 10
52.190803775
 20
43.2638429828
 30
0.0
  0
SPLINE
  5
2B4
100
AcDbEntity
  8
0
100
AcDbSpline
 62
7
  6
CONTINUOUS
 70
0
 71
3
 72
15
 73
11
 74
0
 42
0.0000001
 43
0.0000001
 44
0.0000000001
 40
0.0
 40
0.0
 40
0.0
 40
0.0
 40
0.1264496439
 40
0.2525628725
 40
0.3783887931
 40
0.5038986202
 40
0.6289356907
 40
0.7533276588
 40
0.8770138978
 40
1.0
 40
1.0
 40
1.0
 40
1.0
 10
52.190803775
 20
43.2638429828
 30
0.0
 10
52.3195887437
 20
43.1865098561
 30
0.0
 10
52.5777816588
 20
43.0336493055
 30
0.0
 10
52.9678872818
 20
42.810261001
 30
0.0
 10
53.360929782
 20
42.594381674
 30
0.0
 10
53.7561962607
 20
42.3853523165
 30
0.0
 10
54.1514511618
 20
42.1799928537
 30
0.0
 10
54.5444884289
 20
41.9750637034
 30
0.0
 10
54.9351315938
 20
41.7708145679
 30
0.0
 10
55.1952189441
 20
41.6357998616
 30
0.0
 10
55.3250982625
 20
41.5688814164
 30
0.0
  0
SPLINE
  5
2B5
100
AcDbEntity
  8
0
100
AcDbSpline
 62
7
  6
CONTINUOUS
 70
0
 71
3
 72
17
 73
13
 74
0
 42
0.0000001
 43
0.0000001
 44
0.0000000001
 40
0.0
 40
0.0
 40
0.0
 40
0.0
 40
0.1611231613
 40
0.3247239708
 40
0.4829942453
 40
0.6274090613
 40
0.7510085391
 40
0.8043128412
 40
0.8518911058
 40
0.9317645659
 40
0.9667517701
 40
1.0
 40
1.0
 40
1.0
 40
1.0
 10
51.2918984235
 20
50.6548717295
 30
0.0
 10
51.364384757
 20
50.6394234438
 30
0.0
 10
51.5116652499
 20
50.613627596
 30
0.0
 10
51.7330639851
 20
50.5922113452
 30
0.0
 10
51.9479148605
 20
50.5917268215
 30
0.0
 10
52.1433667792
 20
50.6125947851
 30
0.0
 10
52.2871091479
 20
50.6507376977
 30
0.0
 10
52.3815395008
 20
50.6931908434
 30
0.0
 10
52.4525590713
 20
50.7365757063
 30
0.0
 10
52.5072406295
 20
50.790522555
 30
0.0
 10
52.5380064508
 20
50.8518546125
 30
0.0
 10
52.5456813503
 20
50.8825999365
 30
0.0
 10
52.5477177822
 20
50.8977574336
 30
0.0
  0
SPLINE
  5
2B6
100
AcDbEntity
  8
0
100
AcDbSpline
 62
7
  6
CONTINUOUS
 70
0
 71
3
 72
18
 73
14
 74
0
 42
0.0000001
 43
0.0000001
 44
0.0000000001
 40
0.0
 40
0.0
 40
0.0
 40
0.0
 40
0.0185346427
 40
0.0405758802
 40
0.0683133841
 40
0.1032620372
 40
0.1463580123
 40
0.1976315441
 40
0.3233975487
 40
0.4763497012
 40
0.6470392825
 40
0.8248234211
 40
1.0
 40
1.0
 40
1.0
 40
1.0
 10
52.5477103309
 20
44.2401404049
 30
0.0
 10
52.5485540515
 20
44.2338553401
 30
0.0
 10
52.5536113474
 20
44.2204443765
 30
0.0
 10
52.5694760595
 20
44.2028086715
 30
0.0
 10
52.593740955
 20
44.1865941867
 30
0.0
 10
52.6269235427
 20
44.1718471925
 30
0.0
 10
52.6692736138
 20
44.1587952071
 30
0.0
 10
52.7429008224
 20
44.1426452739
 30
0.0
 10
52.8552605472
 20
44.1293498417
 30
0.0
 10
53.0090074762
 20
44.1237693777
 30
0.0
 10
53.1806135066
 20
44.1272500882
 30
0.0
 10
53.3594056381
 20
44.1395697092
 30
0.0
 10
53.4794923699
 20
44.1526401412
 30
0.0
 10
53.5389401685
 20
44.1602660214
 30
0.0
  0
SPLINE
  5
2B7
100
AcDbEntity
  8
0
100
AcDbSpline
 62
7
  6
CONTINUOUS
 70
0
 71
3
 72
17
 73
13
 74
0
 42
0.0000001
 43
0.0000001
 44
0.0000000001
 40
0.0
 40
0.0
 40
0.0
 40
0.0
 40
0.1621477326
 40
0.3264822478
 40
0.4850764916
 40
0.6294212039
 40
0.7526257585
 40
0.80566717
 40
0.8529695272
 40
0.9323027227
 40
0.9670243162
 40
1.0
 40
1.0
 40
1.0
 40
1.0
 10
51.2918983031
 20
44.4828902976
 30
0.0
 10
51.3648421503
 20
44.4983692929
 30
0.0
 10
51.5129140487
 20
44.5241426031
 30
0.0
 10
51.7352439737
 20
44.5453670057
 30
0.0
 10
51.9505024239
 20
44.5455082923
 30
0.0
 10
52.14580731
 20
44.5242965693
 30
0.0
 10
52.2891137592
 20
44.4859446626
 30
0.0
 10
52.383022979
 20
44.4434405958
 30
0.0
 10
52.4534903481
 20
44.4001415507
 30
0.0
 10
52.5076672987
 20
44.3464480911
 30
0.0
 10
52.5381053538
 20
44.2855319597
 30
0.0
 10
52.5456985688
 20
44.2550346056
 30
0.0
 10
52.547717834
 20
44.2400048646
 30
0.0
  0
LINE
  5
2B8
100
AcDbEntity
  8
0
100
AcDbLine
 62
7
  6
CONTINUOUS
 10
55.3250982625
 20
52.5765208609
 11
53.5388447376
 21
50.9776931463
  0
SPLINE
  5
2B9
100
AcDbEntity
  8
0
100
AcDbSpline
 62
7
  6
CONTINUOUS
 70
0
 71
3
 72
19
 73
15
 74
0
 42
0.0000001
 43
0.0000001
 44
0.0000000001
 40
0.0
 40
0.0
 40
0.0
 40
0.0
 40
0.0147524141
 40
0.0341134818
 40
0.060221666
 40
0.0938545637
 40
0.135174497
 40
0.1840850684
 40
0.2403865562
 40
0.3037229318
 40
0.4496213019
 40
0.6177010349
 40
0.80318441
 40
1.0
 40
1.0
 40
1.0
 40
1.0
 10
52.8960251059
 20
51.530647027
 30
0.0
 10
52.8992800612
 20
51.5333801349
 30
0.0
 10
52.9091494393
 20
51.5368308268
 30
0.0
 10
52.9266192369
 20
51.5346484129
 30
0.0
 10
52.9482037055
 20
51.5270828642
 30
0.0
 10
52.9741667473
 20
51.5137660119
 30
0.0
 10
53.0044530927
 20
51.4948477963
 30
0.0
 10
53.0388718868
 20
51.4703679115
 30
0.0
 10
53.0771658575
 20
51.4404891708
 30
0.0
 10
53.1358263121
 20
51.391363049
 30
0.0
 10
53.2161339785
 20
51.3180293717
 30
0.0
 10
53.3185367742
 20
51.2168989552
 30
0.0
 10
53.4277888038
 20
51.1019439099
 30
0.0
 10
53.5015081522
 20
51.0200915184
 30
0.0
 10
53.5389413612
 20
50.9774997993
 30
0.0
  0
SPLINE
  5
2BA
100
AcDbEntity
  8
0
100
AcDbSpline
 62
7
  6
CONTINUOUS
 70
0
 71
3
 72
15
 73
11
 74
0
 42
0.0000001
 43
0.0000001
 44
0.0000000001
 40
0.0
 40
0.0
 40
0.0
 40
0.0
 40
0.1229843376
 40
0.2466708833
 40
0.3710640184
 40
0.4961015251
 40
0.621611222
 40
0.7474370819
 40
0.8735504332
 40
1.0
 40
1.0
 40
1.0
 40
1.0
 10
55.3250982625
 20
53.5688814168
 30
0.0
 10
55.1952282393
 20
53.5019495153
 30
0.0
 10
54.9351500259
 20
53.3669210925
 30
0.0
 10
54.5445040445
 20
53.162678092
 30
0.0
 10
54.1514507192
 20
52.9577748665
 30
0.0
 10
53.7561919751
 20
52.7524189897
 30
0.0
 10
53.360928948
 20
52.5433824482
 30
0.0
 10
52.9678883442
 20
52.3274999753
 30
0.0
 10
52.5777799705
 20
52.1041165671
 30
0.0
 10
52.3195872143
 20
51.9512555539
 30
0.0
 10
52.1908039502
 20
51.8739197715
 30
0.0
  0
SPLINE
  5
2BB
100
AcDbEntity
  8
0
100
AcDbSpline
 62
7
  6
CONTINUOUS
 70
0
 71
3
 72
11
 73
7
 74
0
 42
0.0000001
 43
0.0000001
 44
0.0000000001
 40
0.0
 40
0.0
 40
0.0
 40
0.0
 40
0.2526476369
 40
0.5022735351
 40
0.7507425709
 40
1.0
 40
1.0
 40
1.0
 40
1.0
 10
52.1908039502
 20
51.8739197715
 30
0.0
 10
52.0796732983
 20
51.8055049511
 30
0.0
 10
51.8712861252
 20
51.647731813
 30
0.0
 10
51.611802428
 20
51.3563808325
 30
0.0
 10
51.4139649001
 20
51.0222529155
 30
0.0
 10
51.3254633146
 20
50.7791703015
 30
0.0
 10
51.2918984894
 20
50.6548721899
 30
0.0
  0
SPLINE
  5
2BC
100
AcDbEntity
  8
0
100
AcDbSpline
 62
7
  6
CONTINUOUS
 70
0
 71
3
 72
9
 73
5
 74
0
 42
0.0000001
 43
0.0000001
 44
0.0000000001
 40
0.0
 40
0.0
 40
0.0
 40
0.0
 40
0.4952398674
 40
1.0
 40
1.0
 40
1.0
 40
1.0
 10
51.2918985442
 20
50.6548721766
 30
0.0
 10
51.1572833326
 20
50.1563729103
 30
0.0
 10
50.9230797588
 20
49.1387325746
 30
0.0
 10
50.8250985719
 20
48.0951628737
 30
0.0
 10
50.8250983233
 20
47.5688814168
 30
0.0
  0
SPLINE
  5
2BD
100
AcDbEntity
  8
0
100
AcDbSpline
 62
7
  6
CONTINUOUS
 70
0
 71
3
 72
19
 73
15
 74
0
 42
0.0000001
 43
0.0000001
 44
0.0000000001
 40
0.0
 40
0.0
 40
0.0
 40
0.0
 40
0.0147766837
 40
0.0341413341
 40
0.0602424856
 40
0.093862585
 40
0.1351676733
 40
0.1840639738
 40
0.2403517562
 40
0.303670112
 40
0.4495426229
 40
0.6176242469
 40
0.8031525394
 40
1.0
 40
1.0
 40
1.0
 40
1.0
 10
52.8960175041
 20
43.6071165126
 30
0.0
 10
52.8992768026
 20
43.6043790051
 30
0.0
 10
52.909147461
 20
43.6009151919
 30
0.0
 10
52.9266230408
 20
43.6030895279
 30
0.0
 10
52.948199486
 20
43.610648942
 30
0.0
 10
52.9741513422
 20
43.6239533557
 30
0.0
 10
53.004423859
 20
43.6428577618
 30
0.0
 10
53.0388266716
 20
43.6673246465
 30
0.0
 10
53.0771003412
 20
43.6971924148
 30
0.0
 10
53.135731032
 20
43.746304861
 30
0.0
 10
53.2160007901
 20
43.819630467
 30
0.0
 10
53.3183795958
 20
43.9207529542
 30
0.0
 10
53.4276463744
 20
44.0356817589
 30
0.0
 10
53.501383494
 20
44.1175191753
 30
0.0
 10
53.5388133842
 20
44.1601111943
 30
0.0
  0
SPLINE
  5
2BE
100
AcDbEntity
  8
0
100
AcDbSpline
 62
7
  6
CONTINUOUS
 70
0
 71
3
 72
31
 73
27
 74
0
 42
0.0000001
 43
0.0000001
 44
0.0000000001
 40
0.0
 40
0.0
 40
0.0
 40
0.0
 40
0.0199625894
 40
0.0400080813
 40
0.060654593
 40
0.0824187854
 40
0.130988671
 40
0.1585505743
 40
0.1884916793
 40
0.2555574058
 40
0.3314142768
 40
0.3720196496
 40
0.4139406104
 40
0.5000175276
 40
0.5860920793
 40
0.6280097228
 40
0.6686127802
 40
0.7444617474
 40
0.8115184864
 40
0.8414565076
 40
0.8690149364
 40
0.9175814298
 40
0.9393449533
 40
0.9599914545
 40
0.9800372434
 40
1.0
 40
1.0
 40
1.0
 40
1.0
 10
24.5250982625
 20
36.1491616304
 30
0.0
 10
24.5250982625
 20
36.1254099967
 30
0.0
 10
24.5292691486
 20
36.0776891108
 30
0.0
 10
24.5486143274
 20
36.0077641265
 30
0.0
 10
24.5811710128
 20
35.9405234779
 30
0.0
 10
24.6444735238
 20
35.8521614865
 30
0.0
 10
24.7338216662
 20
35.774868858
 30
0.0
 10
24.8414242525
 20
35.7087953374
 30
0.0
 10
24.9747868932
 20
35.6435933903
 30
0.0
 10
25.170162315
 20
35.5769651032
 30
0.0
 10
25.3840643368
 20
35.5312404271
 30
0.0
 10
25.5706685162
 20
35.5046116099
 30
0.0
 10
25.7703641901
 20
35.4849475842
 30
0.0
 10
26.0251580945
 20
35.4753740018
 30
0.0
 10
26.279948261
 20
35.4849514629
 30
0.0
 10
26.4796332313
 20
35.5046268683
 30
0.0
 10
26.6662209219
 20
35.5312561904
 30
0.0
 10
26.8801002327
 20
35.5769797094
 30
0.0
 10
27.07544926
 20
35.6436102598
 30
0.0
 10
27.2087953652
 20
35.7088040753
 30
0.0
 10
27.3163835874
 20
35.7748784875
 30
0.0
 10
27.4057241122
 20
35.8521650379
 30
0.0
 10
27.4690242759
 20
35.9405228422
 30
0.0
 10
27.501580613
 20
36.0077631219
 30
0.0
 10
27.5209267787
 20
36.077688344
 30
0.0
 10
27.5250982615
 20
36.12540978
 30
0.0
 10
27.5250982625
 20
36.1491616127
 30
0.0
  0
ENDSEC
  0
SECTION
  2
OBJECTS
  0
DICTIONARY
  5
C
100
AcDbDictionary
280
0
281
1
  3
ACAD_GROUP
350
D
  3
ACAD_MLINESTYLE
350
17
  3
ACAD_LAYOUT
350
1A
  3
ACAD_PLOTSETTINGS
350
19
  3
ACAD_PLOTSTYLENAME
350
E
  0
DICTIONARY
  5
D
102
{ACAD_REACTORS
330
C
102
}
100
AcDbDictionary
280
0
281
1
  0
ACDBDICTIONARYWDFLT
  5
E
102
{ACAD_REACTORS
330
C
102
}
100
AcDbDictionary
281
1
  3
Normal
350
F
100
AcDbDictionaryWithDefault
340
F
  0
DICTIONARY
  5
17
102
{ACAD_REACTORS
330
C
102
}
100
AcDbDictionary
280
0
281
1
  3
Standard
350
18
  0
DICTIONARY
  5
19
102
{ACAD_REACTORS
330
C
102
}
100
AcDbDictionary
281
1
  0
DICTIONARY
  5
1A
102
{ACAD_REACTORS
330
C
102
}
100
AcDbDictionary
281
1
  3
Model
350
2BF
  3
Layout1
350
2C0
  0
ACDBPLACEHOLDER
  5
F
102
{ACAD_REACTORS
330
E
102
}
  0
MLINESTYLE
  5
18
102
{ACAD_REACTORS
330
17
102
}
100
AcDbMlineStyle
  2
STANDARD
 70
0
  3

 62
256
 51
90.0
 52
90.0
 71
2
 49
0.5
 62
256
  6
BYLAYER
 49
-0.5
 62
256
  6
BYLAYER
  0
LAYOUT
  5
2BF
102
{ACAD_REACTORS
330
1A
102
}
100
AcDbPlotSettings
  1

  2
none_device
  4

  6

 40
0.0
 41
0.0
 42
0.0
 43
0.0
 44
210.0
 45
297.0
 46
0.0
 47
0.0
 48
0.0
 49
0.0
140
0.0
141
0.0
142
1.0
143
1.0
 70
1024
 72
1
 73
0
 74
0
  7

 75
0
147
1.0
148
0.0
149
0.0
100
AcDbLayout
  1
Model
 70
0
 71
0
 10
0.0
 20
0.0
 11
210.0
 21
297.0
 12
0.0
 22
0.0
 32
0.0
 14
0.0
 24
0.0
 34
0.0
 15
0.0
 25
0.0
 35
0.0
146
0.0
 13
0.0
 23
0.0
 33
0.0
 16
1.0
 26
0.0
 36
0.0
 17
0.0
 27
1.0
 37
0.0
 76
0
330
210
345
0
346
0
  0
LAYOUT
  5
2C0
102
{ACAD_REACTORS
330
1A
102
}
100
AcDbPlotSettings
  1

  2
none_device
  4

  6

 40
0.0
 41
0.0
 42
0.0
 43
0.0
 44
210.0
 45
297.0
 46
0.0
 47
0.0
 48
0.0
 49
0.0
140
0.0
141
0.0
142
1.0
143
1.0
 70
0
 72
1
 73
0
 74
0
  7

 75
0
147
1.0
148
0.0
149
0.0
100
AcDbLayout
  1
Layout1
 70
0
 71
1
 10
0.0
 20
0.0
 11
210.0
 21
297.0
 12
0.0
 22
0.0
 32
0.0
 14
0.0
 24
0.0
 34
0.0
 15
0.0
 25
0.0
 35
0.0
146
0.0
 13
0.0
 23
0.0
 33
0.0
 16
1.0
 26
0.0
 36
0.0
 17
0.0
 27
1.0
 37
0.0
 76
0
330
211
345
0
346
0
  0
ENDSEC
  0
EOF
