999
DXF file: C:\Users\sesa63760\Dev\_Creo\CAD\MCADID0003992_3D-CAD\drw0001_4.dxf
999
Pro/ENGINEER 2019471 by Parametric Technology Corporation
  0
SECTION
  2
HEADER
  9
$ACADVER
  1
AC1024
  9
$DWGCODEPAGE
  3
ANSI_1252
  9
$EXTMAX
 10
77.1895680947
 20
109.1681034483
 30
0.0
  9
$EXTMIN
 10
0.0
 20
0.0
 30
0.0
  9
$LIMMIN
 10
0.0
 20
0.0
  9
$LIMMAX
 10
77.1895680947
 20
109.1681034483
  9
$VIEWCTR
 10
38.5947840474
 20
54.5840517241
  9
$VIEWSIZE
 40
109.1681034483
  9
$CLAYER
  8
0
  9
$LTSCALE
 40
7.1161430396
  9
$CELTYPE
  6
BYLAYER
  9
$DIMSCALE
 40
1.0
  9
$DIMASZ
 40
0.9189234297
  9
$DIMEXO
 40
1.0
  9
$DIMDLI
 40
4.9166079183
  9
$DIMEXE
 40
1.0
  9
$DIMCEN
 40
1.1644597701
  9
$DIMLFAC
 40
1.0
  9
$DIMBLK
  1
_FILLED
  9
$DIMALT
 70
0
  9
$DIMALTF
 40
0.0393700787
  9
$DIMTXT
 40
1.2864928016
  9
$DIMTOL
 70
1
  9
$DIMLIM
 70
0
  9
$DIMTFAC
 40
1.0
  9
$DIMTP
 40
0.01
  9
$DIMTM
 40
0.01
  9
$DIMGAP
 40
0.625
  9
$DIMDSEP
 70
46
  9
$AUNITS
 70
0
  9
$PDMODE
 70
3
  9
$PDSIZE
 40
0.3125
  9
$HANDSEED
  5
26E
  9
$TILEMODE
 70
1
  9
$MEASUREMENT
 70
1
  9
$INSUNITS
 70
4
  0
ENDSEC
  0
SECTION
  2
CLASSES
  0
CLASS
  1
ACDBDICTIONARYWDFLT
  2
AcDbDictionaryWithDefault
  3
AutoCAD 2000
 90
0
 91
1
280
0
281
0
  0
CLASS
  1
ACDBPLACEHOLDER
  2
AcDbPlaceHolder
  3
AutoCAD 2000
 90
0
 91
1
280
0
281
0
  0
CLASS
  1
LAYOUT
  2
AcDbLayout
  3
AutoCAD 2000
 90
0
 91
0
280
0
281
0
  0
ENDSEC
  0
SECTION
  2
TABLES
  0
TABLE
  2
VPORT
  5
8
100
AcDbSymbolTable
 70
2
  0
VPORT
  5
1F4
100
AcDbSymbolTableRecord
100
AcDbViewportTableRecord
  2
*ACTIVE
 70
0
 10
0.0
 20
0.0
 11
1.0
 21
1.0
 12
38.5947840474
 22
54.5840517241
 13
0.0
 23
0.0
 14
1.0
 24
1.0
 15
0.0
 25
0.0
 16
0.0
 26
0.0
 36
1.0
 17
0.0
 27
0.0
 37
0.0
 40
109.1681034483
 41
0.7070707071
 42
50.0
 43
0.0
 44
0.0
 50
0.0
 51
0.0
 71
0
 72
100
 73
1
 74
1
 75
0
 76
0
 77
0
 78
0
  0
ENDTAB
  0
TABLE
  2
LTYPE
  5
5
100
AcDbSymbolTable
 70
6
  0
LTYPE
  5
14
100
AcDbSymbolTableRecord
100
AcDbLinetypeTableRecord
  2
BYBLOCK
 70
0
  3

 72
65
 73
0
 40
0.0
  0
LTYPE
  5
15
100
AcDbSymbolTableRecord
100
AcDbLinetypeTableRecord
  2
BYLAYER
 70
0
  3

 72
65
 73
0
 40
0.0
  0
LTYPE
  5
16
100
AcDbSymbolTableRecord
100
AcDbLinetypeTableRecord
  2
CONTINUOUS
 70
64
  3
Solid line
 72
65
 73
0
 40
0.0
  0
LTYPE
  5
1F5
100
AcDbSymbolTableRecord
100
AcDbLinetypeTableRecord
  2
CENTER
 70
64
  3
____ _ ____ _ ____ _ ____ _ ____ _ ____ _ ____
 72
65
 73
4
 40
0.6
 49
0.375
 74
0
 49
-0.075
 74
0
 49
0.075
 74
0
 49
-0.075
 74
0
  0
LTYPE
  5
1F6
100
AcDbSymbolTableRecord
100
AcDbLinetypeTableRecord
  2
HIDDEN
 70
64
  3
- - - - - - - - - - - - - - - - - - - -
 72
65
 73
2
 40
0.2
 49
0.1
 74
0
 49
-0.1
 74
0
  0
LTYPE
  5
1F7
100
AcDbSymbolTableRecord
100
AcDbLinetypeTableRecord
  2
PHANTOM
 70
64
  3
_____ _ _ _____ _ _ _____ _ _ _____
 72
65
 73
6
 40
0.8
 49
0.45
 74
0
 49
-0.05
 74
0
 49
0.1
 74
0
 49
-0.05
 74
0
 49
0.1
 74
0
 49
-0.05
 74
0
  0
LTYPE
  5
1F8
100
AcDbSymbolTableRecord
100
AcDbLinetypeTableRecord
  2
DOT
 70
64
  3
. . . . . . . . . . . . . . . . . . . .
 72
65
 73
2
 40
0.2
 49
0.1
 74
0
 49
-0.1
 74
0
  0
LTYPE
  5
1F9
100
AcDbSymbolTableRecord
100
AcDbLinetypeTableRecord
  2
DASHED
 70
64
  3
- - - - - - - - - - - - - - - - - - - -
 72
65
 73
2
 40
0.2
 49
0.1
 74
0
 49
-0.1
 74
0
  0
ENDTAB
  0
TABLE
  2
LAYER
  5
2
100
AcDbSymbolTable
 70
36
  0
LAYER
  5
10
100
AcDbSymbolTableRecord
100
AcDbLayerTableRecord
  2
0
 70
0
 62
7
  6
CONTINUOUS
370
-3
390
F
  0
LAYER
  5
1FA
100
AcDbSymbolTableRecord
100
AcDbLayerTableRecord
  2
DEFAULT_1
 70
0
 62
7
  6
CENTER
370
-3
390
F
  0
LAYER
  5
1FB
100
AcDbSymbolTableRecord
100
AcDbLayerTableRecord
  2
DEFAULT_2
 70
0
 62
7
  6
HIDDEN
370
-3
390
F
  0
LAYER
  5
1FC
100
AcDbSymbolTableRecord
100
AcDbLayerTableRecord
  2
DEFAULT_3
 70
0
 62
7
  6
PHANTOM
370
-3
390
F
  0
LAYER
  5
1FD
100
AcDbSymbolTableRecord
100
AcDbLayerTableRecord
  2
00_COMPONENTS
 70
0
 62
7
  6
CONTINUOUS
370
-3
390
F
  0
LAYER
  5
1FE
100
AcDbSymbolTableRecord
100
AcDbLayerTableRecord
  2
01_1_DEFAULT_DATUMS
 70
0
 62
7
  6
CONTINUOUS
370
-3
390
F
  0
LAYER
  5
1FF
100
AcDbSymbolTableRecord
100
AcDbLayerTableRecord
  2
01_PLANES
 70
0
 62
7
  6
CONTINUOUS
370
-3
390
F
  0
LAYER
  5
200
100
AcDbSymbolTableRecord
100
AcDbLayerTableRecord
  2
02_COORD_SYS
 70
0
 62
7
  6
CONTINUOUS
370
-3
390
F
  0
LAYER
  5
201
100
AcDbSymbolTableRecord
100
AcDbLayerTableRecord
  2
03_AXES
 70
0
 62
7
  6
CONTINUOUS
370
-3
390
F
  0
LAYER
  5
202
100
AcDbSymbolTableRecord
100
AcDbLayerTableRecord
  2
04_POINTS
 70
0
 62
7
  6
CONTINUOUS
370
-3
390
F
  0
LAYER
  5
203
100
AcDbSymbolTableRecord
100
AcDbLayerTableRecord
  2
05_CURVES
 70
0
 62
7
  6
CONTINUOUS
370
-3
390
F
  0
LAYER
  5
204
100
AcDbSymbolTableRecord
100
AcDbLayerTableRecord
  2
06_SURFS
 70
0
 62
7
  6
CONTINUOUS
370
-3
390
F
  0
LAYER
  5
205
100
AcDbSymbolTableRecord
100
AcDbLayerTableRecord
  2
07_COSMETICS
 70
0
 62
7
  6
CONTINUOUS
370
-3
390
F
  0
LAYER
  5
206
100
AcDbSymbolTableRecord
100
AcDbLayerTableRecord
  2
10_NOTES
 70
0
 62
7
  6
CONTINUOUS
370
-3
390
F
  0
LAYER
  5
207
100
AcDbSymbolTableRecord
100
AcDbLayerTableRecord
  2
11_NOTES_PUB
 70
0
 62
7
  6
CONTINUOUS
370
-3
390
F
  0
LAYER
  5
208
100
AcDbSymbolTableRecord
100
AcDbLayerTableRecord
  2
13_REF_GTOL
 70
0
 62
7
  6
CONTINUOUS
370
-3
390
F
  0
LAYER
  5
209
100
AcDbSymbolTableRecord
100
AcDbLayerTableRecord
  2
16_MISC
 70
0
 62
7
  6
CONTINUOUS
370
-3
390
F
  0
LAYER
  5
20A
100
AcDbSymbolTableRecord
100
AcDbLayerTableRecord
  2
17_NO_PRINT
 70
0
 62
7
  6
CONTINUOUS
370
-3
390
F
  0
LAYER
  5
20B
100
AcDbSymbolTableRecord
100
AcDbLayerTableRecord
  2
18_DATUM_CAMS_JOINTS
 70
0
 62
7
  6
CONTINUOUS
370
-3
390
F
  0
LAYER
  5
20C
100
AcDbSymbolTableRecord
100
AcDbLayerTableRecord
  2
19_DATUM_FUNCTIONAL
 70
0
 62
7
  6
CONTINUOUS
370
-3
390
F
  0
LAYER
  5
20D
100
AcDbSymbolTableRecord
100
AcDbLayerTableRecord
  2
20_DATUM_KINEMATIC_SCHEME
 70
0
 62
7
  6
CONTINUOUS
370
-3
390
F
  0
ENDTAB
  0
TABLE
  2
STYLE
  5
3
100
AcDbSymbolTable
 70
1
  0
STYLE
  5
11
100
AcDbSymbolTableRecord
100
AcDbTextStyleTableRecord
  2
STANDARD
 70
0
 40
0.0
 41
1.0
 50
0.0
 71
0
 42
0.2
  3
ARIAL.TTF
  4

  0
STYLE
  5
20E
100
AcDbSymbolTableRecord
100
AcDbTextStyleTableRecord
  2
TEXTSTYLE_1
 70
0
 40
0.0
 41
0.8
 50
0.0
 71
0
 42
0.2
  3
gdt
  4

  0
ENDTAB
  0
TABLE
  2
VIEW
  5
6
100
AcDbSymbolTable
 70
0
  0
ENDTAB
  0
TABLE
  2
UCS
  5
7
100
AcDbSymbolTable
 70
0
  0
ENDTAB
  0
TABLE
  2
APPID
  5
9
100
AcDbSymbolTable
 70
1
  0
APPID
  5
20F
100
AcDbSymbolTableRecord
100
AcDbRegAppTableRecord
  2
ACAD
 70
0
  0
ENDTAB
  0
TABLE
  2
BLOCK_RECORD
  5
1
100
AcDbSymbolTable
 70
0
  0
BLOCK_RECORD
  5
210
100
AcDbSymbolTableRecord
100
AcDbBlockTableRecord
  2
*Model_Space
  0
BLOCK_RECORD
  5
211
100
AcDbSymbolTableRecord
100
AcDbBlockTableRecord
  2
*Paper_Space
  0
BLOCK_RECORD
  5
212
100
AcDbSymbolTableRecord
100
AcDbBlockTableRecord
  2
_FILLED
  0
ENDTAB
  0
TABLE
  2
DIMSTYLE
  5
A
100
AcDbSymbolTable
 70
1
100
AcDbDimStyleTable
 71
0
  0
DIMSTYLE
105
213
100
AcDbSymbolTableRecord
100
AcDbDimStyleTableRecord
  2
STANDARD
 70
0
  3

  4

 40
1.0
 41
0.9189234297
 42
1.0
 43
0.38
 44
1.0
 45
0.0
 46
0.0
 47
0.01
 48
0.01
140
1.2864928016
141
0.09
142
0.0
143
25.4
144
1.0
145
0.0
146
1.0
147
0.625
 71
1
 72
0
 73
0
 74
0
 75
0
 76
0
 77
1
 78
8
 79
2
170
0
171
1
172
0
173
0
174
0
175
0
176
0
177
0
178
0
270
2
179
2
271
2
272
2
273
2
274
2
275
0
280
0
281
0
282
0
283
1
284
8
285
0
286
0
287
3
288
0
340
11
278
46
341
212
342
212
343
212
344
212
  0
ENDTAB
  0
ENDSEC
  0
SECTION
  2
BLOCKS
  0
BLOCK
  5
20
100
AcDbEntity
  8
0
100
AcDbBlockBegin
  2
*Model_Space
 70
0
 10
0.0
 20
0.0
 30
0.0
  3
*Model_Space
  1

  0
ENDBLK
  5
21
100
AcDbEntity
  8
0
100
AcDbBlockEnd
  0
BLOCK
  5
1C
100
AcDbEntity
  8
0
100
AcDbBlockBegin
  2
*Paper_Space
 70
0
 10
0.0
 20
0.0
 30
0.0
  3
*Paper_Space
  1

  0
ENDBLK
  5
1D
100
AcDbEntity
  8
0
100
AcDbBlockEnd
  0
BLOCK
  5
214
100
AcDbEntity
  8
0
100
AcDbBlockBegin
  2
_FILLED
 70
64
 10
0.0
 20
0.0
  3
_FILLED
  1

  0
SOLID
  5
215
100
AcDbEntity
  8
0
  6
BYBLOCK
 62
0
100
AcDbTrace
 10
0.0
 20
0.0
 11
-1.0
 21
0.25
 12
-1.0
 22
-0.25
 13
-1.0
 23
-0.25
  0
ENDBLK
  5
216
100
AcDbEntity
  8
0
  6
BYBLOCK
 62
0
100
AcDbBlockEnd
  0
ENDSEC
  0
SECTION
  2
ENTITIES
  0
LINE
  5
217
100
AcDbEntity
  8
0
100
AcDbLine
 62
7
  6
BYLAYER
 10
8.5969392198
 20
49.25
 11
8.5969392198
 21
59.25
  0
LINE
  5
218
100
AcDbEntity
  8
0
100
AcDbLine
 62
7
  6
BYLAYER
 10
28.5969392198
 20
49.15
 11
28.5969392198
 21
59.35
  0
LINE
  5
219
100
AcDbEntity
  8
0
100
AcDbLine
 62
7
  6
BYLAYER
 10
29.4969392198
 20
60.25
 11
28.5969392198
 21
59.35
  0
LINE
  5
21A
100
AcDbEntity
  8
0
100
AcDbLine
 62
7
  6
BYLAYER
 10
28.5969392198
 20
49.15
 11
29.4969392198
 21
48.25
  0
LINE
  5
21B
100
AcDbEntity
  8
0
100
AcDbLine
 62
7
  6
BYLAYER
 10
29.4969392198
 20
48.25
 11
29.4969392198
 21
60.25
  0
LINE
  5
21C
100
AcDbEntity
  8
0
100
AcDbLine
 62
7
  6
BYLAYER
 10
61.1405985695
 20
45.0125
 11
60.25427987
 21
45.0125
  0
LINE
  5
21D
100
AcDbEntity
  8
0
100
AcDbLine
 62
7
  6
BYLAYER
 10
56.0735985695
 20
45.0125
 11
55.18727987
 21
45.0125
  0
LINE
  5
21E
100
AcDbEntity
  8
0
100
AcDbLine
 62
7
  6
BYLAYER
 10
61.1405985695
 20
45.0234234479
 11
60.25427987
 21
45.0234234479
  0
LINE
  5
21F
100
AcDbEntity
  8
0
100
AcDbLine
 62
7
  6
BYLAYER
 10
56.0735985695
 20
45.0234234479
 11
55.18727987
 21
45.0234234479
  0
LINE
  5
220
100
AcDbEntity
  8
0
100
AcDbLine
 62
7
  6
BYLAYER
 10
29.4969392198
 20
48.25
 11
54.5969392198
 21
48.25
  0
LINE
  5
221
100
AcDbEntity
  8
0
100
AcDbLine
 62
7
  6
BYLAYER
 10
56.6639392198
 20
48.25
 11
59.6639392198
 21
48.25
  0
LINE
  5
222
100
AcDbEntity
  8
0
100
AcDbLine
 62
7
  6
BYLAYER
 10
61.7309392198
 20
48.25
 11
69.6969392198
 21
48.25
  0
LINE
  5
223
100
AcDbEntity
  8
0
100
AcDbLine
 62
7
  6
BYLAYER
 10
55.18727987
 20
49.247779168
 11
56.0735985695
 21
49.247779168
  0
LINE
  5
224
100
AcDbEntity
  8
0
100
AcDbLine
 62
7
  6
BYLAYER
 10
60.25427987
 20
49.247779168
 11
61.1405985695
 21
49.247779168
  0
LINE
  5
225
100
AcDbEntity
  8
0
100
AcDbLine
 62
7
  6
BYLAYER
 10
8.5969392198
 20
49.25
 11
28.5969392198
 21
49.25
  0
LINE
  5
226
100
AcDbEntity
  8
0
100
AcDbLine
 62
7
  6
BYLAYER
 10
61.1405985695
 20
50.0256442799
 11
60.25427987
 21
50.0256442799
  0
LINE
  5
227
100
AcDbEntity
  8
0
100
AcDbLine
 62
7
  6
BYLAYER
 10
56.0735985695
 20
50.0256442799
 11
55.18727987
 21
50.0256442799
  0
LINE
  5
228
100
AcDbEntity
  8
0
100
AcDbLine
 62
7
  6
BYLAYER
 10
55.18727987
 20
58.4743557201
 11
56.0735985695
 21
58.4743557201
  0
LINE
  5
229
100
AcDbEntity
  8
0
100
AcDbLine
 62
7
  6
BYLAYER
 10
60.25427987
 20
58.4743557201
 11
61.1405985695
 21
58.4743557201
  0
LINE
  5
22A
100
AcDbEntity
  8
0
100
AcDbLine
 62
7
  6
BYLAYER
 10
28.5969392198
 20
59.25
 11
8.5969392198
 21
59.25
  0
LINE
  5
22B
100
AcDbEntity
  8
0
100
AcDbLine
 62
7
  6
BYLAYER
 10
61.1405985695
 20
59.252220832
 11
60.25427987
 21
59.252220832
  0
LINE
  5
22C
100
AcDbEntity
  8
0
100
AcDbLine
 62
7
  6
BYLAYER
 10
56.0735985695
 20
59.252220832
 11
55.18727987
 21
59.252220832
  0
LINE
  5
22D
100
AcDbEntity
  8
0
100
AcDbLine
 62
7
  6
BYLAYER
 10
69.6969392198
 20
60.25
 11
61.7309392198
 21
60.25
  0
LINE
  5
22E
100
AcDbEntity
  8
0
100
AcDbLine
 62
7
  6
BYLAYER
 10
59.6639392198
 20
60.25
 11
56.6639392198
 21
60.25
  0
LINE
  5
22F
100
AcDbEntity
  8
0
100
AcDbLine
 62
7
  6
BYLAYER
 10
54.5969392198
 20
60.25
 11
29.4969392198
 21
60.25
  0
LINE
  5
230
100
AcDbEntity
  8
0
100
AcDbLine
 62
7
  6
BYLAYER
 10
54.5969392198
 20
62.465
 11
55.18727987
 21
63.4875
  0
LINE
  5
231
100
AcDbEntity
  8
0
100
AcDbLine
 62
7
  6
BYLAYER
 10
55.18727987
 20
45.0125
 11
54.5969392198
 21
46.035
  0
LINE
  5
232
100
AcDbEntity
  8
0
100
AcDbLine
 62
7
  6
BYLAYER
 10
55.18727987
 20
63.4765765521
 11
56.0735985695
 21
63.4765765521
  0
LINE
  5
233
100
AcDbEntity
  8
0
100
AcDbLine
 62
7
  6
BYLAYER
 10
60.25427987
 20
63.4765765521
 11
61.1405985695
 21
63.4765765521
  0
LINE
  5
234
100
AcDbEntity
  8
0
100
AcDbLine
 62
7
  6
BYLAYER
 10
55.18727987
 20
63.4875
 11
56.0735985695
 21
63.4875
  0
LINE
  5
235
100
AcDbEntity
  8
0
100
AcDbLine
 62
7
  6
BYLAYER
 10
60.25427987
 20
63.4875
 11
61.1405985695
 21
63.4875
  0
LINE
  5
236
100
AcDbEntity
  8
0
100
AcDbLine
 62
7
  6
BYLAYER
 10
54.5969392198
 20
46.035
 11
54.5969392198
 21
62.465
  0
LINE
  5
237
100
AcDbEntity
  8
0
100
AcDbLine
 62
7
  6
BYLAYER
 10
59.6639392198
 20
62.465
 11
60.25427987
 21
63.4875
  0
LINE
  5
238
100
AcDbEntity
  8
0
100
AcDbLine
 62
7
  6
BYLAYER
 10
60.25427987
 20
45.0125
 11
59.6639392198
 21
46.035
  0
LINE
  5
239
100
AcDbEntity
  8
0
100
AcDbLine
 62
7
  6
BYLAYER
 10
55.18727987
 20
45.0125
 11
55.18727987
 21
45.0234234479
  0
LINE
  5
23A
100
AcDbEntity
  8
0
100
AcDbLine
 62
7
  6
BYLAYER
 10
55.18727987
 20
49.247779168
 11
55.18727987
 21
50.0256442799
  0
LINE
  5
23B
100
AcDbEntity
  8
0
100
AcDbLine
 62
7
  6
BYLAYER
 10
55.18727987
 20
58.4743557201
 11
55.18727987
 21
59.252220832
  0
LINE
  5
23C
100
AcDbEntity
  8
0
100
AcDbLine
 62
7
  6
BYLAYER
 10
55.18727987
 20
63.4765765521
 11
55.18727987
 21
63.4875
  0
LINE
  5
23D
100
AcDbEntity
  8
0
100
AcDbLine
 62
7
  6
BYLAYER
 10
56.0735985695
 20
63.4875
 11
56.0735985695
 21
63.4765765521
  0
LINE
  5
23E
100
AcDbEntity
  8
0
100
AcDbLine
 62
7
  6
BYLAYER
 10
56.0735985695
 20
59.252220832
 11
56.0735985695
 21
58.4743557201
  0
LINE
  5
23F
100
AcDbEntity
  8
0
100
AcDbLine
 62
7
  6
BYLAYER
 10
56.0735985695
 20
50.0256442799
 11
56.0735985695
 21
49.247779168
  0
LINE
  5
240
100
AcDbEntity
  8
0
100
AcDbLine
 62
7
  6
BYLAYER
 10
56.0735985695
 20
45.0234234479
 11
56.0735985695
 21
45.0125
  0
LINE
  5
241
100
AcDbEntity
  8
0
100
AcDbLine
 62
7
  6
BYLAYER
 10
56.6639392198
 20
62.465
 11
56.6639392198
 21
46.035
  0
LINE
  5
242
100
AcDbEntity
  8
0
100
AcDbLine
 62
7
  6
BYLAYER
 10
56.6639392198
 20
46.035
 11
56.0735985695
 21
45.0125
  0
LINE
  5
243
100
AcDbEntity
  8
0
100
AcDbLine
 62
7
  6
BYLAYER
 10
56.0735985695
 20
63.4875
 11
56.6639392198
 21
62.465
  0
LINE
  5
244
100
AcDbEntity
  8
0
100
AcDbLine
 62
7
  6
BYLAYER
 10
59.6639392198
 20
46.035
 11
59.6639392198
 21
62.465
  0
LINE
  5
245
100
AcDbEntity
  8
0
100
AcDbLine
 62
7
  6
BYLAYER
 10
60.25427987
 20
45.0125
 11
60.25427987
 21
45.0234234479
  0
LINE
  5
246
100
AcDbEntity
  8
0
100
AcDbLine
 62
7
  6
BYLAYER
 10
60.25427987
 20
49.247779168
 11
60.25427987
 21
50.0256442799
  0
LINE
  5
247
100
AcDbEntity
  8
0
100
AcDbLine
 62
7
  6
BYLAYER
 10
60.25427987
 20
58.4743557201
 11
60.25427987
 21
59.252220832
  0
LINE
  5
248
100
AcDbEntity
  8
0
100
AcDbLine
 62
7
  6
BYLAYER
 10
60.25427987
 20
63.4765765521
 11
60.25427987
 21
63.4875
  0
LINE
  5
249
100
AcDbEntity
  8
0
100
AcDbLine
 62
7
  6
BYLAYER
 10
61.1405985695
 20
63.4875
 11
61.1405985695
 21
63.4765765521
  0
LINE
  5
24A
100
AcDbEntity
  8
0
100
AcDbLine
 62
7
  6
BYLAYER
 10
61.1405985695
 20
59.252220832
 11
61.1405985695
 21
58.4743557201
  0
LINE
  5
24B
100
AcDbEntity
  8
0
100
AcDbLine
 62
7
  6
BYLAYER
 10
61.1405985695
 20
50.0256442799
 11
61.1405985695
 21
49.247779168
  0
LINE
  5
24C
100
AcDbEntity
  8
0
100
AcDbLine
 62
7
  6
BYLAYER
 10
61.1405985695
 20
45.0234234479
 11
61.1405985695
 21
45.0125
  0
LINE
  5
24D
100
AcDbEntity
  8
0
100
AcDbLine
 62
7
  6
BYLAYER
 10
61.7309392198
 20
62.465
 11
61.7309392198
 21
46.035
  0
LINE
  5
24E
100
AcDbEntity
  8
0
100
AcDbLine
 62
7
  6
BYLAYER
 10
61.7309392198
 20
46.035
 11
61.1405985695
 21
45.0125
  0
LINE
  5
24F
100
AcDbEntity
  8
0
100
AcDbLine
 62
7
  6
BYLAYER
 10
61.1405985695
 20
63.4875
 11
61.7309392198
 21
62.465
  0
LINE
  5
250
100
AcDbEntity
  8
0
100
AcDbLine
 62
7
  6
BYLAYER
 10
69.6969392198
 20
48.25
 11
70.5969392198
 21
49.15
  0
LINE
  5
251
100
AcDbEntity
  8
0
100
AcDbLine
 62
7
  6
BYLAYER
 10
70.5969392198
 20
59.35
 11
69.6969392198
 21
60.25
  0
LINE
  5
252
100
AcDbEntity
  8
0
100
AcDbLine
 62
7
  6
BYLAYER
 10
69.6969392198
 20
60.25
 11
69.6969392198
 21
48.25
  0
LINE
  5
253
100
AcDbEntity
  8
0
100
AcDbLine
 62
7
  6
BYLAYER
 10
70.5969392198
 20
59.35
 11
70.5969392198
 21
49.15
  0
SPLINE
  5
254
100
AcDbEntity
  8
0
100
AcDbSpline
 62
7
  6
BYLAYER
 70
0
 71
3
 72
11
 73
7
 74
0
 42
0.0000001
 43
0.0000001
 44
0.0000000001
 40
0.0
 40
0.0
 40
0.0
 40
0.0
 40
0.250003683
 40
0.5000032542
 40
0.7500026326
 40
1.0
 40
1.0
 40
1.0
 40
1.0
 10
60.25427987
 20
50.0256442799
 30
0.0
 10
60.1632978313
 20
50.3702403033
 30
0.0
 10
59.9977222562
 20
51.0639294988
 30
0.0
 10
59.8092596172
 20
52.1170732763
 30
0.0
 10
59.6908342003
 20
53.1805294331
 30
0.0
 10
59.6639392198
 20
53.8936045272
 30
0.0
 10
59.6639392198
 20
54.25
 30
0.0
  0
SPLINE
  5
255
100
AcDbEntity
  8
0
100
AcDbSpline
 62
7
  6
BYLAYER
 70
0
 71
3
 72
11
 73
7
 74
0
 42
0.0000001
 43
0.0000001
 44
0.0000000001
 40
0.0
 40
0.0
 40
0.0
 40
0.0
 40
0.2499941613
 40
0.4999898134
 40
0.7499912908
 40
1.0
 40
1.0
 40
1.0
 40
1.0
 10
61.7309392198
 20
54.25
 30
0.0
 10
61.7309392198
 20
53.8936090785
 30
0.0
 10
61.7040561888
 20
53.1805421245
 30
0.0
 10
61.585579048
 20
52.1171007341
 30
0.0
 10
61.3972141819
 20
51.0639345684
 30
0.0
 10
61.2315824424
 20
50.37024725
 30
0.0
 10
61.1405985695
 20
50.0256442799
 30
0.0
  0
SPLINE
  5
256
100
AcDbEntity
  8
0
100
AcDbSpline
 62
7
  6
BYLAYER
 70
0
 71
3
 72
11
 73
7
 74
0
 42
0.0000001
 43
0.0000001
 44
0.0000000001
 40
0.0
 40
0.0
 40
0.0
 40
0.0
 40
0.2600111873
 40
0.5122785999
 40
0.7580406733
 40
1.0
 40
1.0
 40
1.0
 40
1.0
 10
61.1405985695
 20
49.247779168
 30
0.0
 10
61.2302021432
 20
49.0780916364
 30
0.0
 10
61.3938041018
 20
48.7366122151
 30
0.0
 10
61.5836044767
 20
48.2090943267
 30
0.0
 10
61.703520849
 20
47.6746641706
 30
0.0
 10
61.7309392198
 20
47.3141710637
 30
0.0
 10
61.7309392198
 20
47.1356013079
 30
0.0
  0
SPLINE
  5
257
100
AcDbEntity
  8
0
100
AcDbSpline
 62
7
  6
BYLAYER
 70
0
 71
3
 72
13
 73
9
 74
0
 42
0.0000001
 43
0.0000001
 44
0.0000000001
 40
0.0
 40
0.0
 40
0.0
 40
0.0
 40
0.1207700919
 40
0.2420484044
 40
0.3642858592
 40
0.4878721299
 40
0.7400595005
 40
1.0
 40
1.0
 40
1.0
 40
1.0
 10
61.7309392198
 20
61.3643986921
 30
0.0
 10
61.7309392198
 20
61.2752412569
 30
0.0
 10
61.7242159598
 20
61.0964793048
 30
0.0
 10
61.6941229642
 20
60.8290075339
 30
0.0
 10
61.6445239041
 20
60.5623432773
 30
0.0
 10
61.553006856
 20
60.2060196092
 30
0.0
 10
61.3938552982
 20
59.7633431378
 30
0.0
 10
61.2302051446
 20
59.4219140476
 30
0.0
 10
61.1405985695
 20
59.252220832
 30
0.0
  0
SPLINE
  5
258
100
AcDbEntity
  8
0
100
AcDbSpline
 62
7
  6
BYLAYER
 70
0
 71
3
 72
11
 73
7
 74
0
 42
0.0000001
 43
0.0000001
 44
0.0000000001
 40
0.0
 40
0.0
 40
0.0
 40
0.0
 40
0.250003683
 40
0.5000032542
 40
0.7500026326
 40
1.0
 40
1.0
 40
1.0
 40
1.0
 10
61.1405985695
 20
58.4743557201
 30
0.0
 10
61.2315806083
 20
58.1297596967
 30
0.0
 10
61.3971561834
 20
57.4360705012
 30
0.0
 10
61.5856188224
 20
56.3829267237
 30
0.0
 10
61.7040442393
 20
55.3194705669
 30
0.0
 10
61.7309392198
 20
54.6063954728
 30
0.0
 10
61.7309392198
 20
54.25
 30
0.0
  0
SPLINE
  5
259
100
AcDbEntity
  8
0
100
AcDbSpline
 62
7
  6
BYLAYER
 70
0
 71
3
 72
11
 73
7
 74
0
 42
0.0000001
 43
0.0000001
 44
0.0000000001
 40
0.0
 40
0.0
 40
0.0
 40
0.0
 40
0.2600111873
 40
0.5122785999
 40
0.7580406733
 40
1.0
 40
1.0
 40
1.0
 40
1.0
 10
61.1405985695
 20
63.4765765521
 30
0.0
 10
61.2302021432
 20
63.3068890205
 30
0.0
 10
61.3938041018
 20
62.9654095993
 30
0.0
 10
61.5836044767
 20
62.4378917109
 30
0.0
 10
61.703520849
 20
61.9034615548
 30
0.0
 10
61.7309392198
 20
61.5429684479
 30
0.0
 10
61.7309392198
 20
61.3643986921
 30
0.0
  0
SPLINE
  5
25A
100
AcDbEntity
  8
0
100
AcDbSpline
 62
7
  6
BYLAYER
 70
0
 71
3
 72
11
 73
7
 74
0
 42
0.0000001
 43
0.0000001
 44
0.0000000001
 40
0.0
 40
0.0
 40
0.0
 40
0.0
 40
0.2600111873
 40
0.5122785999
 40
0.7580406733
 40
1.0
 40
1.0
 40
1.0
 40
1.0
 10
60.25427987
 20
59.252220832
 30
0.0
 10
60.1646762964
 20
59.4219083636
 30
0.0
 10
60.0010743377
 20
59.7633877849
 30
0.0
 10
59.8112739629
 20
60.2909056733
 30
0.0
 10
59.6913575906
 20
60.8253358294
 30
0.0
 10
59.6639392198
 20
61.1858289363
 30
0.0
 10
59.6639392198
 20
61.3643986921
 30
0.0
  0
SPLINE
  5
25B
100
AcDbEntity
  8
0
100
AcDbSpline
 62
7
  6
BYLAYER
 70
0
 71
3
 72
13
 73
9
 74
0
 42
0.0000001
 43
0.0000001
 44
0.0000000001
 40
0.0
 40
0.0
 40
0.0
 40
0.0
 40
0.1207700919
 40
0.2420484044
 40
0.3642858592
 40
0.4878721299
 40
0.7400595005
 40
1.0
 40
1.0
 40
1.0
 40
1.0
 10
59.6639392198
 20
61.3643986921
 30
0.0
 10
59.6639392198
 20
61.4535561273
 30
0.0
 10
59.6706624798
 20
61.6323180794
 30
0.0
 10
59.7007554753
 20
61.8997898503
 30
0.0
 10
59.7503545355
 20
62.1664541068
 30
0.0
 10
59.8418715836
 20
62.522777775
 30
0.0
 10
60.0010231414
 20
62.9654542464
 30
0.0
 10
60.164673295
 20
63.3068833366
 30
0.0
 10
60.25427987
 20
63.4765765521
 30
0.0
  0
SPLINE
  5
25C
100
AcDbEntity
  8
0
100
AcDbSpline
 62
7
  6
BYLAYER
 70
0
 71
3
 72
11
 73
7
 74
0
 42
0.0000001
 43
0.0000001
 44
0.0000000001
 40
0.0
 40
0.0
 40
0.0
 40
0.0
 40
0.2499941613
 40
0.4999898134
 40
0.7499912908
 40
1.0
 40
1.0
 40
1.0
 40
1.0
 10
59.6639392198
 20
54.25
 30
0.0
 10
59.6639392198
 20
54.6063909215
 30
0.0
 10
59.6908222508
 20
55.3194578755
 30
0.0
 10
59.8092993916
 20
56.3828992659
 30
0.0
 10
59.9976642577
 20
57.4360654316
 30
0.0
 10
60.1632959972
 20
58.12975275
 30
0.0
 10
60.25427987
 20
58.4743557201
 30
0.0
  0
SPLINE
  5
25D
100
AcDbEntity
  8
0
100
AcDbSpline
 62
7
  6
BYLAYER
 70
0
 71
3
 72
13
 73
9
 74
0
 42
0.0000001
 43
0.0000001
 44
0.0000000001
 40
0.0
 40
0.0
 40
0.0
 40
0.0
 40
0.1207700919
 40
0.2420484044
 40
0.3642858592
 40
0.4878721299
 40
0.7400595005
 40
1.0
 40
1.0
 40
1.0
 40
1.0
 10
61.7309392198
 20
47.1356013079
 30
0.0
 10
61.7309392198
 20
47.0464438727
 30
0.0
 10
61.7242159598
 20
46.8676819206
 30
0.0
 10
61.6941229642
 20
46.6002101497
 30
0.0
 10
61.6445239041
 20
46.3335458932
 30
0.0
 10
61.553006856
 20
45.977222225
 30
0.0
 10
61.3938552982
 20
45.5345457536
 30
0.0
 10
61.2302051446
 20
45.1931166634
 30
0.0
 10
61.1405985695
 20
45.0234234479
 30
0.0
  0
SPLINE
  5
25E
100
AcDbEntity
  8
0
100
AcDbSpline
 62
7
  6
BYLAYER
 70
0
 71
3
 72
11
 73
7
 74
0
 42
0.0000001
 43
0.0000001
 44
0.0000000001
 40
0.0
 40
0.0
 40
0.0
 40
0.0
 40
0.2600111873
 40
0.5122785999
 40
0.7580406733
 40
1.0
 40
1.0
 40
1.0
 40
1.0
 10
60.25427987
 20
45.0234234479
 30
0.0
 10
60.1646762964
 20
45.1931109795
 30
0.0
 10
60.0010743377
 20
45.5345904007
 30
0.0
 10
59.8112739629
 20
46.0621082891
 30
0.0
 10
59.6913575906
 20
46.5965384452
 30
0.0
 10
59.6639392198
 20
46.9570315521
 30
0.0
 10
59.6639392198
 20
47.1356013079
 30
0.0
  0
SPLINE
  5
25F
100
AcDbEntity
  8
0
100
AcDbSpline
 62
7
  6
BYLAYER
 70
0
 71
3
 72
13
 73
9
 74
0
 42
0.0000001
 43
0.0000001
 44
0.0000000001
 40
0.0
 40
0.0
 40
0.0
 40
0.0
 40
0.1207700919
 40
0.2420484044
 40
0.3642858592
 40
0.4878721299
 40
0.7400595005
 40
1.0
 40
1.0
 40
1.0
 40
1.0
 10
59.6639392198
 20
47.1356013079
 30
0.0
 10
59.6639392198
 20
47.2247587431
 30
0.0
 10
59.6706624798
 20
47.4035206952
 30
0.0
 10
59.7007554753
 20
47.6709924661
 30
0.0
 10
59.7503545355
 20
47.9376567227
 30
0.0
 10
59.8418715836
 20
48.2939803908
 30
0.0
 10
60.0010231414
 20
48.7366568622
 30
0.0
 10
60.164673295
 20
49.0780859524
 30
0.0
 10
60.25427987
 20
49.247779168
 30
0.0
  0
SPLINE
  5
260
100
AcDbEntity
  8
0
100
AcDbSpline
 62
7
  6
BYLAYER
 70
0
 71
3
 72
11
 73
7
 74
0
 42
0.0000001
 43
0.0000001
 44
0.0000000001
 40
0.0
 40
0.0
 40
0.0
 40
0.0
 40
0.250003683
 40
0.5000032542
 40
0.7500026326
 40
1.0
 40
1.0
 40
1.0
 40
1.0
 10
55.18727987
 20
50.0256442799
 30
0.0
 10
55.0962978313
 20
50.3702403033
 30
0.0
 10
54.9307222562
 20
51.0639294988
 30
0.0
 10
54.7422596172
 20
52.1170732763
 30
0.0
 10
54.6238342003
 20
53.1805294331
 30
0.0
 10
54.5969392198
 20
53.8936045272
 30
0.0
 10
54.5969392198
 20
54.25
 30
0.0
  0
SPLINE
  5
261
100
AcDbEntity
  8
0
100
AcDbSpline
 62
7
  6
BYLAYER
 70
0
 71
3
 72
11
 73
7
 74
0
 42
0.0000001
 43
0.0000001
 44
0.0000000001
 40
0.0
 40
0.0
 40
0.0
 40
0.0
 40
0.2499941613
 40
0.4999898134
 40
0.7499912908
 40
1.0
 40
1.0
 40
1.0
 40
1.0
 10
56.6639392198
 20
54.25
 30
0.0
 10
56.6639392198
 20
53.8936090785
 30
0.0
 10
56.6370561888
 20
53.1805421245
 30
0.0
 10
56.518579048
 20
52.1171007341
 30
0.0
 10
56.3302141819
 20
51.0639345684
 30
0.0
 10
56.1645824424
 20
50.37024725
 30
0.0
 10
56.0735985695
 20
50.0256442799
 30
0.0
  0
SPLINE
  5
262
100
AcDbEntity
  8
0
100
AcDbSpline
 62
7
  6
BYLAYER
 70
0
 71
3
 72
11
 73
7
 74
0
 42
0.0000001
 43
0.0000001
 44
0.0000000001
 40
0.0
 40
0.0
 40
0.0
 40
0.0
 40
0.2600111873
 40
0.5122785999
 40
0.7580406733
 40
1.0
 40
1.0
 40
1.0
 40
1.0
 10
56.0735985695
 20
49.247779168
 30
0.0
 10
56.1632021432
 20
49.0780916364
 30
0.0
 10
56.3268041018
 20
48.7366122151
 30
0.0
 10
56.5166044767
 20
48.2090943267
 30
0.0
 10
56.636520849
 20
47.6746641706
 30
0.0
 10
56.6639392198
 20
47.3141710637
 30
0.0
 10
56.6639392198
 20
47.1356013079
 30
0.0
  0
SPLINE
  5
263
100
AcDbEntity
  8
0
100
AcDbSpline
 62
7
  6
BYLAYER
 70
0
 71
3
 72
13
 73
9
 74
0
 42
0.0000001
 43
0.0000001
 44
0.0000000001
 40
0.0
 40
0.0
 40
0.0
 40
0.0
 40
0.1207700919
 40
0.2420484044
 40
0.3642858592
 40
0.4878721299
 40
0.7400595005
 40
1.0
 40
1.0
 40
1.0
 40
1.0
 10
56.6639392198
 20
61.3643986921
 30
0.0
 10
56.6639392198
 20
61.2752412569
 30
0.0
 10
56.6572159598
 20
61.0964793048
 30
0.0
 10
56.6271229642
 20
60.8290075339
 30
0.0
 10
56.5775239041
 20
60.5623432773
 30
0.0
 10
56.486006856
 20
60.2060196092
 30
0.0
 10
56.3268552982
 20
59.7633431378
 30
0.0
 10
56.1632051446
 20
59.4219140476
 30
0.0
 10
56.0735985695
 20
59.252220832
 30
0.0
  0
SPLINE
  5
264
100
AcDbEntity
  8
0
100
AcDbSpline
 62
7
  6
BYLAYER
 70
0
 71
3
 72
11
 73
7
 74
0
 42
0.0000001
 43
0.0000001
 44
0.0000000001
 40
0.0
 40
0.0
 40
0.0
 40
0.0
 40
0.250003683
 40
0.5000032542
 40
0.7500026326
 40
1.0
 40
1.0
 40
1.0
 40
1.0
 10
56.0735985695
 20
58.4743557201
 30
0.0
 10
56.1645806083
 20
58.1297596967
 30
0.0
 10
56.3301561834
 20
57.4360705012
 30
0.0
 10
56.5186188224
 20
56.3829267237
 30
0.0
 10
56.6370442393
 20
55.3194705669
 30
0.0
 10
56.6639392198
 20
54.6063954728
 30
0.0
 10
56.6639392198
 20
54.25
 30
0.0
  0
SPLINE
  5
265
100
AcDbEntity
  8
0
100
AcDbSpline
 62
7
  6
BYLAYER
 70
0
 71
3
 72
11
 73
7
 74
0
 42
0.0000001
 43
0.0000001
 44
0.0000000001
 40
0.0
 40
0.0
 40
0.0
 40
0.0
 40
0.2600111873
 40
0.5122785999
 40
0.7580406733
 40
1.0
 40
1.0
 40
1.0
 40
1.0
 10
56.0735985695
 20
63.4765765521
 30
0.0
 10
56.1632021432
 20
63.3068890205
 30
0.0
 10
56.3268041018
 20
62.9654095993
 30
0.0
 10
56.5166044767
 20
62.4378917109
 30
0.0
 10
56.636520849
 20
61.9034615548
 30
0.0
 10
56.6639392198
 20
61.5429684479
 30
0.0
 10
56.6639392198
 20
61.3643986921
 30
0.0
  0
SPLINE
  5
266
100
AcDbEntity
  8
0
100
AcDbSpline
 62
7
  6
BYLAYER
 70
0
 71
3
 72
11
 73
7
 74
0
 42
0.0000001
 43
0.0000001
 44
0.0000000001
 40
0.0
 40
0.0
 40
0.0
 40
0.0
 40
0.2600111873
 40
0.5122785999
 40
0.7580406733
 40
1.0
 40
1.0
 40
1.0
 40
1.0
 10
55.18727987
 20
59.252220832
 30
0.0
 10
55.0976762964
 20
59.4219083636
 30
0.0
 10
54.9340743377
 20
59.7633877849
 30
0.0
 10
54.7442739629
 20
60.2909056733
 30
0.0
 10
54.6243575906
 20
60.8253358294
 30
0.0
 10
54.5969392198
 20
61.1858289363
 30
0.0
 10
54.5969392198
 20
61.3643986921
 30
0.0
  0
SPLINE
  5
267
100
AcDbEntity
  8
0
100
AcDbSpline
 62
7
  6
BYLAYER
 70
0
 71
3
 72
13
 73
9
 74
0
 42
0.0000001
 43
0.0000001
 44
0.0000000001
 40
0.0
 40
0.0
 40
0.0
 40
0.0
 40
0.1207700919
 40
0.2420484044
 40
0.3642858592
 40
0.4878721299
 40
0.7400595005
 40
1.0
 40
1.0
 40
1.0
 40
1.0
 10
54.5969392198
 20
61.3643986921
 30
0.0
 10
54.5969392198
 20
61.4535561273
 30
0.0
 10
54.6036624798
 20
61.6323180794
 30
0.0
 10
54.6337554753
 20
61.8997898503
 30
0.0
 10
54.6833545355
 20
62.1664541068
 30
0.0
 10
54.7748715836
 20
62.522777775
 30
0.0
 10
54.9340231414
 20
62.9654542464
 30
0.0
 10
55.097673295
 20
63.3068833366
 30
0.0
 10
55.18727987
 20
63.4765765521
 30
0.0
  0
SPLINE
  5
268
100
AcDbEntity
  8
0
100
AcDbSpline
 62
7
  6
BYLAYER
 70
0
 71
3
 72
11
 73
7
 74
0
 42
0.0000001
 43
0.0000001
 44
0.0000000001
 40
0.0
 40
0.0
 40
0.0
 40
0.0
 40
0.2499941613
 40
0.4999898134
 40
0.7499912908
 40
1.0
 40
1.0
 40
1.0
 40
1.0
 10
54.5969392198
 20
54.25
 30
0.0
 10
54.5969392198
 20
54.6063909215
 30
0.0
 10
54.6238222508
 20
55.3194578755
 30
0.0
 10
54.7422993916
 20
56.3828992659
 30
0.0
 10
54.9306642577
 20
57.4360654316
 30
0.0
 10
55.0962959972
 20
58.12975275
 30
0.0
 10
55.18727987
 20
58.4743557201
 30
0.0
  0
SPLINE
  5
269
100
AcDbEntity
  8
0
100
AcDbSpline
 62
7
  6
BYLAYER
 70
0
 71
3
 72
13
 73
9
 74
0
 42
0.0000001
 43
0.0000001
 44
0.0000000001
 40
0.0
 40
0.0
 40
0.0
 40
0.0
 40
0.1207700919
 40
0.2420484044
 40
0.3642858592
 40
0.4878721299
 40
0.7400595005
 40
1.0
 40
1.0
 40
1.0
 40
1.0
 10
56.6639392198
 20
47.1356013079
 30
0.0
 10
56.6639392198
 20
47.0464438727
 30
0.0
 10
56.6572159598
 20
46.8676819206
 30
0.0
 10
56.6271229642
 20
46.6002101497
 30
0.0
 10
56.5775239041
 20
46.3335458932
 30
0.0
 10
56.486006856
 20
45.977222225
 30
0.0
 10
56.3268552982
 20
45.5345457536
 30
0.0
 10
56.1632051446
 20
45.1931166634
 30
0.0
 10
56.0735985695
 20
45.0234234479
 30
0.0
  0
SPLINE
  5
26A
100
AcDbEntity
  8
0
100
AcDbSpline
 62
7
  6
BYLAYER
 70
0
 71
3
 72
11
 73
7
 74
0
 42
0.0000001
 43
0.0000001
 44
0.0000000001
 40
0.0
 40
0.0
 40
0.0
 40
0.0
 40
0.2600111873
 40
0.5122785999
 40
0.7580406733
 40
1.0
 40
1.0
 40
1.0
 40
1.0
 10
55.18727987
 20
45.0234234479
 30
0.0
 10
55.0976762964
 20
45.1931109795
 30
0.0
 10
54.9340743377
 20
45.5345904007
 30
0.0
 10
54.7442739629
 20
46.0621082891
 30
0.0
 10
54.6243575906
 20
46.5965384452
 30
0.0
 10
54.5969392198
 20
46.9570315521
 30
0.0
 10
54.5969392198
 20
47.1356013079
 30
0.0
  0
SPLINE
  5
26B
100
AcDbEntity
  8
0
100
AcDbSpline
 62
7
  6
BYLAYER
 70
0
 71
3
 72
13
 73
9
 74
0
 42
0.0000001
 43
0.0000001
 44
0.0000000001
 40
0.0
 40
0.0
 40
0.0
 40
0.0
 40
0.1207700919
 40
0.2420484044
 40
0.3642858592
 40
0.4878721299
 40
0.7400595005
 40
1.0
 40
1.0
 40
1.0
 40
1.0
 10
54.5969392198
 20
47.1356013079
 30
0.0
 10
54.5969392198
 20
47.2247587431
 30
0.0
 10
54.6036624798
 20
47.4035206952
 30
0.0
 10
54.6337554753
 20
47.6709924661
 30
0.0
 10
54.6833545355
 20
47.9376567227
 30
0.0
 10
54.7748715836
 20
48.2939803908
 30
0.0
 10
54.9340231414
 20
48.7366568622
 30
0.0
 10
55.097673295
 20
49.0780859524
 30
0.0
 10
55.18727987
 20
49.247779168
 30
0.0
  0
ENDSEC
  0
SECTION
  2
OBJECTS
  0
DICTIONARY
  5
C
100
AcDbDictionary
280
0
281
1
  3
ACAD_GROUP
350
D
  3
ACAD_MLINESTYLE
350
17
  3
ACAD_LAYOUT
350
1A
  3
ACAD_PLOTSETTINGS
350
19
  3
ACAD_PLOTSTYLENAME
350
E
  0
DICTIONARY
  5
D
102
{ACAD_REACTORS
330
C
102
}
100
AcDbDictionary
280
0
281
1
  0
ACDBDICTIONARYWDFLT
  5
E
102
{ACAD_REACTORS
330
C
102
}
100
AcDbDictionary
281
1
  3
Normal
350
F
100
AcDbDictionaryWithDefault
340
F
  0
DICTIONARY
  5
17
102
{ACAD_REACTORS
330
C
102
}
100
AcDbDictionary
280
0
281
1
  3
Standard
350
18
  0
DICTIONARY
  5
19
102
{ACAD_REACTORS
330
C
102
}
100
AcDbDictionary
281
1
  0
DICTIONARY
  5
1A
102
{ACAD_REACTORS
330
C
102
}
100
AcDbDictionary
281
1
  3
Model
350
26C
  3
Layout1
350
26D
  0
ACDBPLACEHOLDER
  5
F
102
{ACAD_REACTORS
330
E
102
}
  0
MLINESTYLE
  5
18
102
{ACAD_REACTORS
330
17
102
}
100
AcDbMlineStyle
  2
STANDARD
 70
0
  3

 62
256
 51
90.0
 52
90.0
 71
2
 49
0.5
 62
256
  6
BYLAYER
 49
-0.5
 62
256
  6
BYLAYER
  0
LAYOUT
  5
26C
102
{ACAD_REACTORS
330
1A
102
}
100
AcDbPlotSettings
  1

  2
none_device
  4

  6

 40
0.0
 41
0.0
 42
0.0
 43
0.0
 44
210.0
 45
297.0
 46
0.0
 47
0.0
 48
0.0
 49
0.0
140
0.0
141
0.0
142
1.0
143
1.0
 70
1024
 72
1
 73
0
 74
0
  7

 75
0
147
1.0
148
0.0
149
0.0
100
AcDbLayout
  1
Model
 70
0
 71
0
 10
0.0
 20
0.0
 11
210.0
 21
297.0
 12
0.0
 22
0.0
 32
0.0
 14
0.0
 24
0.0
 34
0.0
 15
0.0
 25
0.0
 35
0.0
146
0.0
 13
0.0
 23
0.0
 33
0.0
 16
1.0
 26
0.0
 36
0.0
 17
0.0
 27
1.0
 37
0.0
 76
0
330
210
345
0
346
0
  0
LAYOUT
  5
26D
102
{ACAD_REACTORS
330
1A
102
}
100
AcDbPlotSettings
  1

  2
none_device
  4

  6

 40
0.0
 41
0.0
 42
0.0
 43
0.0
 44
210.0
 45
297.0
 46
0.0
 47
0.0
 48
0.0
 49
0.0
140
0.0
141
0.0
142
1.0
143
1.0
 70
0
 72
1
 73
0
 74
0
  7

 75
0
147
1.0
148
0.0
149
0.0
100
AcDbLayout
  1
Layout1
 70
0
 71
1
 10
0.0
 20
0.0
 11
210.0
 21
297.0
 12
0.0
 22
0.0
 32
0.0
 14
0.0
 24
0.0
 34
0.0
 15
0.0
 25
0.0
 35
0.0
146
0.0
 13
0.0
 23
0.0
 33
0.0
 16
1.0
 26
0.0
 36
0.0
 17
0.0
 27
1.0
 37
0.0
 76
0
330
211
345
0
346
0
  0
ENDSEC
  0
EOF
