999
DXF file: C:\Users\sesa63760\Dev\_Creo\CAD\MCADID0005533_3D-CAD\drw0001_3.dxf
999
Pro/ENGINEER 2019471 by Parametric Technology Corporation
  0
SECTION
  2
HEADER
  9
$ACADVER
  1
AC1024
  9
$DWGCODEPAGE
  3
ANSI_1252
  9
$EXTMAX
 10
60.9147578314
 20
86.1508717902
 30
0.0
  9
$EXTMIN
 10
0.0
 20
0.0
 30
0.0
  9
$LIMMIN
 10
0.0
 20
0.0
  9
$LIMMAX
 10
60.9147578314
 20
86.1508717902
  9
$VIEWCTR
 10
30.4573789157
 20
43.0754358951
  9
$VIEWSIZE
 40
86.1508717902
  9
$CLAYER
  8
0
  9
$LTSCALE
 40
5.6157605315
  9
$CELTYPE
  6
BYLAYER
  9
$DIMSCALE
 40
1.0
  9
$DIMASZ
 40
0.7251756885
  9
$DIMEXO
 40
1.0
  9
$DIMDLI
 40
3.8799800036
  9
$DIMEXE
 40
1.0
  9
$DIMCEN
 40
0.9189426324
  9
$DIMLFAC
 40
1.0
  9
$DIMBLK
  1
_FILLED
  9
$DIMALT
 70
0
  9
$DIMALTF
 40
0.0393700787
  9
$DIMTXT
 40
1.0152459639
  9
$DIMTOL
 70
1
  9
$DIMLIM
 70
0
  9
$DIMTFAC
 40
1.0
  9
$DIMTP
 40
0.01
  9
$DIMTM
 40
0.01
  9
$DIMGAP
 40
0.625
  9
$DIMDSEP
 70
46
  9
$AUNITS
 70
0
  9
$PDMODE
 70
3
  9
$PDSIZE
 40
0.3125
  9
$HANDSEED
  5
2BE
  9
$TILEMODE
 70
1
  9
$MEASUREMENT
 70
1
  9
$INSUNITS
 70
4
  0
ENDSEC
  0
SECTION
  2
CLASSES
  0
CLASS
  1
ACDBDICTIONARYWDFLT
  2
AcDbDictionaryWithDefault
  3
AutoCAD 2000
 90
0
 91
1
280
0
281
0
  0
CLASS
  1
ACDBPLACEHOLDER
  2
AcDbPlaceHolder
  3
AutoCAD 2000
 90
0
 91
1
280
0
281
0
  0
CLASS
  1
LAYOUT
  2
AcDbLayout
  3
AutoCAD 2000
 90
0
 91
0
280
0
281
0
  0
ENDSEC
  0
SECTION
  2
TABLES
  0
TABLE
  2
VPORT
  5
8
100
AcDbSymbolTable
 70
2
  0
VPORT
  5
1F4
100
AcDbSymbolTableRecord
100
AcDbViewportTableRecord
  2
*ACTIVE
 70
0
 10
0.0
 20
0.0
 11
1.0
 21
1.0
 12
30.4573789157
 22
43.0754358951
 13
0.0
 23
0.0
 14
1.0
 24
1.0
 15
0.0
 25
0.0
 16
0.0
 26
0.0
 36
1.0
 17
0.0
 27
0.0
 37
0.0
 40
86.1508717902
 41
0.7070707071
 42
50.0
 43
0.0
 44
0.0
 50
0.0
 51
0.0
 71
0
 72
100
 73
1
 74
1
 75
0
 76
0
 77
0
 78
0
  0
ENDTAB
  0
TABLE
  2
LTYPE
  5
5
100
AcDbSymbolTable
 70
6
  0
LTYPE
  5
14
100
AcDbSymbolTableRecord
100
AcDbLinetypeTableRecord
  2
BYBLOCK
 70
0
  3

 72
65
 73
0
 40
0.0
  0
LTYPE
  5
15
100
AcDbSymbolTableRecord
100
AcDbLinetypeTableRecord
  2
BYLAYER
 70
0
  3

 72
65
 73
0
 40
0.0
  0
LTYPE
  5
16
100
AcDbSymbolTableRecord
100
AcDbLinetypeTableRecord
  2
CONTINUOUS
 70
64
  3
Solid line
 72
65
 73
0
 40
0.0
  0
LTYPE
  5
1F5
100
AcDbSymbolTableRecord
100
AcDbLinetypeTableRecord
  2
CENTER
 70
64
  3
____ _ ____ _ ____ _ ____ _ ____ _ ____ _ ____
 72
65
 73
4
 40
0.6
 49
0.375
 74
0
 49
-0.075
 74
0
 49
0.075
 74
0
 49
-0.075
 74
0
  0
LTYPE
  5
1F6
100
AcDbSymbolTableRecord
100
AcDbLinetypeTableRecord
  2
HIDDEN
 70
64
  3
- - - - - - - - - - - - - - - - - - - -
 72
65
 73
2
 40
0.2
 49
0.1
 74
0
 49
-0.1
 74
0
  0
LTYPE
  5
1F7
100
AcDbSymbolTableRecord
100
AcDbLinetypeTableRecord
  2
PHANTOM
 70
64
  3
_____ _ _ _____ _ _ _____ _ _ _____
 72
65
 73
6
 40
0.8
 49
0.45
 74
0
 49
-0.05
 74
0
 49
0.1
 74
0
 49
-0.05
 74
0
 49
0.1
 74
0
 49
-0.05
 74
0
  0
LTYPE
  5
1F8
100
AcDbSymbolTableRecord
100
AcDbLinetypeTableRecord
  2
DOT
 70
64
  3
. . . . . . . . . . . . . . . . . . . .
 72
65
 73
2
 40
0.2
 49
0.1
 74
0
 49
-0.1
 74
0
  0
LTYPE
  5
1F9
100
AcDbSymbolTableRecord
100
AcDbLinetypeTableRecord
  2
DASHED
 70
64
  3
- - - - - - - - - - - - - - - - - - - -
 72
65
 73
2
 40
0.2
 49
0.1
 74
0
 49
-0.1
 74
0
  0
ENDTAB
  0
TABLE
  2
LAYER
  5
2
100
AcDbSymbolTable
 70
36
  0
LAYER
  5
10
100
AcDbSymbolTableRecord
100
AcDbLayerTableRecord
  2
0
 70
0
 62
7
  6
CONTINUOUS
370
-3
390
F
  0
LAYER
  5
1FA
100
AcDbSymbolTableRecord
100
AcDbLayerTableRecord
  2
DEFAULT_1
 70
0
 62
7
  6
CENTER
370
-3
390
F
  0
LAYER
  5
1FB
100
AcDbSymbolTableRecord
100
AcDbLayerTableRecord
  2
DEFAULT_2
 70
0
 62
7
  6
HIDDEN
370
-3
390
F
  0
LAYER
  5
1FC
100
AcDbSymbolTableRecord
100
AcDbLayerTableRecord
  2
DEFAULT_3
 70
0
 62
7
  6
PHANTOM
370
-3
390
F
  0
LAYER
  5
1FD
100
AcDbSymbolTableRecord
100
AcDbLayerTableRecord
  2
00_COMPONENTS
 70
0
 62
7
  6
CONTINUOUS
370
-3
390
F
  0
LAYER
  5
1FE
100
AcDbSymbolTableRecord
100
AcDbLayerTableRecord
  2
01_1_DEFAULT_DATUMS
 70
0
 62
7
  6
CONTINUOUS
370
-3
390
F
  0
LAYER
  5
1FF
100
AcDbSymbolTableRecord
100
AcDbLayerTableRecord
  2
01_PLANES
 70
0
 62
7
  6
CONTINUOUS
370
-3
390
F
  0
LAYER
  5
200
100
AcDbSymbolTableRecord
100
AcDbLayerTableRecord
  2
02_COORD_SYS
 70
0
 62
7
  6
CONTINUOUS
370
-3
390
F
  0
LAYER
  5
201
100
AcDbSymbolTableRecord
100
AcDbLayerTableRecord
  2
03_AXES
 70
0
 62
7
  6
CONTINUOUS
370
-3
390
F
  0
LAYER
  5
202
100
AcDbSymbolTableRecord
100
AcDbLayerTableRecord
  2
04_POINTS
 70
0
 62
7
  6
CONTINUOUS
370
-3
390
F
  0
LAYER
  5
203
100
AcDbSymbolTableRecord
100
AcDbLayerTableRecord
  2
05_CURVES
 70
0
 62
7
  6
CONTINUOUS
370
-3
390
F
  0
LAYER
  5
204
100
AcDbSymbolTableRecord
100
AcDbLayerTableRecord
  2
06_SURFS
 70
0
 62
7
  6
CONTINUOUS
370
-3
390
F
  0
LAYER
  5
205
100
AcDbSymbolTableRecord
100
AcDbLayerTableRecord
  2
07_COSMETICS
 70
0
 62
7
  6
CONTINUOUS
370
-3
390
F
  0
LAYER
  5
206
100
AcDbSymbolTableRecord
100
AcDbLayerTableRecord
  2
10_NOTES
 70
0
 62
7
  6
CONTINUOUS
370
-3
390
F
  0
LAYER
  5
207
100
AcDbSymbolTableRecord
100
AcDbLayerTableRecord
  2
11_NOTES_PUB
 70
0
 62
7
  6
CONTINUOUS
370
-3
390
F
  0
LAYER
  5
208
100
AcDbSymbolTableRecord
100
AcDbLayerTableRecord
  2
13_REF_GTOL
 70
0
 62
7
  6
CONTINUOUS
370
-3
390
F
  0
LAYER
  5
209
100
AcDbSymbolTableRecord
100
AcDbLayerTableRecord
  2
16_MISC
 70
0
 62
7
  6
CONTINUOUS
370
-3
390
F
  0
LAYER
  5
20A
100
AcDbSymbolTableRecord
100
AcDbLayerTableRecord
  2
17_NO_PRINT
 70
0
 62
7
  6
CONTINUOUS
370
-3
390
F
  0
LAYER
  5
20B
100
AcDbSymbolTableRecord
100
AcDbLayerTableRecord
  2
18_DATUM_CAMS_JOINTS
 70
0
 62
7
  6
CONTINUOUS
370
-3
390
F
  0
LAYER
  5
20C
100
AcDbSymbolTableRecord
100
AcDbLayerTableRecord
  2
19_DATUM_FUNCTIONAL
 70
0
 62
7
  6
CONTINUOUS
370
-3
390
F
  0
LAYER
  5
20D
100
AcDbSymbolTableRecord
100
AcDbLayerTableRecord
  2
20_DATUM_KINEMATIC_SCHEME
 70
0
 62
7
  6
CONTINUOUS
370
-3
390
F
  0
ENDTAB
  0
TABLE
  2
STYLE
  5
3
100
AcDbSymbolTable
 70
1
  0
STYLE
  5
11
100
AcDbSymbolTableRecord
100
AcDbTextStyleTableRecord
  2
STANDARD
 70
0
 40
0.0
 41
1.0
 50
0.0
 71
0
 42
0.2
  3
ARIAL.TTF
  4

  0
STYLE
  5
20E
100
AcDbSymbolTableRecord
100
AcDbTextStyleTableRecord
  2
TEXTSTYLE_1
 70
0
 40
0.0
 41
0.8
 50
0.0
 71
0
 42
0.2
  3
gdt
  4

  0
ENDTAB
  0
TABLE
  2
VIEW
  5
6
100
AcDbSymbolTable
 70
0
  0
ENDTAB
  0
TABLE
  2
UCS
  5
7
100
AcDbSymbolTable
 70
0
  0
ENDTAB
  0
TABLE
  2
APPID
  5
9
100
AcDbSymbolTable
 70
1
  0
APPID
  5
20F
100
AcDbSymbolTableRecord
100
AcDbRegAppTableRecord
  2
ACAD
 70
0
  0
ENDTAB
  0
TABLE
  2
BLOCK_RECORD
  5
1
100
AcDbSymbolTable
 70
0
  0
BLOCK_RECORD
  5
210
100
AcDbSymbolTableRecord
100
AcDbBlockTableRecord
  2
*Model_Space
  0
BLOCK_RECORD
  5
211
100
AcDbSymbolTableRecord
100
AcDbBlockTableRecord
  2
*Paper_Space
  0
BLOCK_RECORD
  5
212
100
AcDbSymbolTableRecord
100
AcDbBlockTableRecord
  2
_FILLED
  0
ENDTAB
  0
TABLE
  2
DIMSTYLE
  5
A
100
AcDbSymbolTable
 70
1
100
AcDbDimStyleTable
 71
0
  0
DIMSTYLE
105
213
100
AcDbSymbolTableRecord
100
AcDbDimStyleTableRecord
  2
STANDARD
 70
0
  3

  4

 40
1.0
 41
0.7251756885
 42
1.0
 43
0.38
 44
1.0
 45
0.0
 46
0.0
 47
0.01
 48
0.01
140
1.0152459639
141
0.09
142
0.0
143
25.4
144
1.0
145
0.0
146
1.0
147
0.625
 71
1
 72
0
 73
0
 74
0
 75
0
 76
0
 77
1
 78
8
 79
2
170
0
171
1
172
0
173
0
174
0
175
0
176
0
177
0
178
0
270
2
179
2
271
2
272
2
273
2
274
2
275
0
280
0
281
0
282
0
283
1
284
8
285
0
286
0
287
3
288
0
340
11
278
46
341
212
342
212
343
212
344
212
  0
ENDTAB
  0
ENDSEC
  0
SECTION
  2
BLOCKS
  0
BLOCK
  5
20
100
AcDbEntity
  8
0
100
AcDbBlockBegin
  2
*Model_Space
 70
0
 10
0.0
 20
0.0
 30
0.0
  3
*Model_Space
  1

  0
ENDBLK
  5
21
100
AcDbEntity
  8
0
100
AcDbBlockEnd
  0
BLOCK
  5
1C
100
AcDbEntity
  8
0
100
AcDbBlockBegin
  2
*Paper_Space
 70
0
 10
0.0
 20
0.0
 30
0.0
  3
*Paper_Space
  1

  0
ENDBLK
  5
1D
100
AcDbEntity
  8
0
100
AcDbBlockEnd
  0
BLOCK
  5
214
100
AcDbEntity
  8
0
100
AcDbBlockBegin
  2
_FILLED
 70
64
 10
0.0
 20
0.0
  3
_FILLED
  1

  0
SOLID
  5
215
100
AcDbEntity
  8
0
  6
BYBLOCK
 62
0
100
AcDbTrace
 10
0.0
 20
0.0
 11
-1.0
 21
0.25
 12
-1.0
 22
-0.25
 13
-1.0
 23
-0.25
  0
ENDBLK
  5
216
100
AcDbEntity
  8
0
  6
BYBLOCK
 62
0
100
AcDbBlockEnd
  0
ENDSEC
  0
SECTION
  2
ENTITIES
  0
LINE
  5
217
100
AcDbEntity
  8
0
100
AcDbLine
 62
7
  6
BYLAYER
 10
39.3390191714
 20
6.9068324385
 11
37.0395487514
 21
6.9068324385
  0
LINE
  5
218
100
AcDbEntity
  8
0
100
AcDbLine
 62
7
  6
BYLAYER
 10
25.5623733493
 20
6.9068324385
 11
23.2629038359
 21
6.9068324385
  0
LINE
  5
219
100
AcDbEntity
  8
0
100
AcDbLine
 62
7
  6
BYLAYER
 10
22.2146873619
 20
8.1068324385
 11
27.0009615036
 21
8.1068324385
  0
LINE
  5
21A
100
AcDbEntity
  8
0
100
AcDbLine
 62
7
  6
BYLAYER
 10
35.6009615036
 20
8.1068324385
 11
40.3821281907
 21
8.1068324385
  0
LINE
  5
21B
100
AcDbEntity
  8
0
100
AcDbLine
 62
7
  6
BYLAYER
 10
35.6009615036
 20
8.4068324385
 11
27.0009615036
 21
8.4068324385
  0
LINE
  5
21C
100
AcDbEntity
  8
0
100
AcDbLine
 62
7
  6
BYLAYER
 10
34.8009617775
 20
11.3078324385
 11
27.8009617775
 21
11.3078324385
  0
LINE
  5
21D
100
AcDbEntity
  8
0
100
AcDbLine
 62
7
  6
BYLAYER
 10
20.9744778563
 20
11.5068324385
 11
22.6009615036
 21
11.5068324385
  0
LINE
  5
21E
100
AcDbEntity
  8
0
100
AcDbLine
 62
7
  6
BYLAYER
 10
40.0009615036
 20
11.5068324385
 11
41.6274682325
 21
11.5068324385
  0
LINE
  5
21F
100
AcDbEntity
  8
0
100
AcDbLine
 62
7
  6
BYLAYER
 10
41.8252189083
 20
14.1958324385
 11
40.0009615036
 21
14.1958324385
  0
LINE
  5
220
100
AcDbEntity
  8
0
100
AcDbLine
 62
7
  6
BYLAYER
 10
22.6009615036
 20
14.1958324385
 11
20.7767040989
 21
14.1958324385
  0
LINE
  5
221
100
AcDbEntity
  8
0
100
AcDbLine
 62
7
  6
BYLAYER
 10
23.3003364861
 20
14.1958324385
 11
39.3015865212
 21
14.1958324385
  0
LINE
  5
222
100
AcDbEntity
  8
0
100
AcDbLine
 62
7
  6
BYLAYER
 10
20.7767040989
 20
22.3958324385
 11
23.3003364861
 21
22.3958324385
  0
LINE
  5
223
100
AcDbEntity
  8
0
100
AcDbLine
 62
7
  6
BYLAYER
 10
39.3015865211
 20
22.3958324385
 11
41.8252189083
 21
22.3958324385
  0
LINE
  5
224
100
AcDbEntity
  8
0
100
AcDbLine
 62
7
  6
BYLAYER
 10
34.0268375096
 20
22.7958324385
 11
28.5750854976
 21
22.7958324385
  0
LINE
  5
225
100
AcDbEntity
  8
0
100
AcDbLine
 62
7
  6
BYLAYER
 10
41.9259615036
 20
22.8068324385
 11
20.6759615036
 21
22.8068324385
  0
LINE
  5
226
100
AcDbEntity
  8
0
100
AcDbLine
 62
7
  6
BYLAYER
 10
42.1759615036
 20
23.0568324385
 11
20.4259615036
 21
23.0568324385
  0
LINE
  5
227
100
AcDbEntity
  8
0
100
AcDbLine
 62
7
  6
BYLAYER
 10
21.7998919873
 20
23.146832439
 11
21.9682373949
 21
23.146832439
  0
LINE
  5
228
100
AcDbEntity
  8
0
100
AcDbLine
 62
7
  6
BYLAYER
 10
40.6336875809
 20
23.146832439
 11
40.8020328856
 21
23.146832439
  0
LINE
  5
229
100
AcDbEntity
  8
0
100
AcDbLine
 62
7
  6
BYLAYER
 10
20.8805153972
 20
24.7721297483
 11
23.1215750295
 21
24.7721297483
  0
LINE
  5
22A
100
AcDbEntity
  8
0
100
AcDbLine
 62
7
  6
BYLAYER
 10
39.4803479817
 20
24.7721297483
 11
41.7214076101
 21
24.7721297483
  0
LINE
  5
22B
100
AcDbEntity
  8
0
100
AcDbLine
 62
7
  6
BYLAYER
 10
41.7579339328
 20
24.9711819625
 11
39.4392027381
 21
24.9711819625
  0
LINE
  5
22C
100
AcDbEntity
  8
0
100
AcDbLine
 62
7
  6
BYLAYER
 10
23.1627202692
 20
24.9711819625
 11
20.8439890744
 21
24.9711819625
  0
LINE
  5
22D
100
AcDbEntity
  8
0
100
AcDbLine
 62
7
  6
BYLAYER
 10
43.9009615036
 20
25.7558324385
 11
18.7009615036
 21
25.7558324385
  0
LINE
  5
22E
100
AcDbEntity
  8
0
100
AcDbLine
 62
7
  6
BYLAYER
 10
45.5040764864
 20
27.0058326434
 11
17.0978465223
 21
27.0058326434
  0
LINE
  5
22F
100
AcDbEntity
  8
0
100
AcDbLine
 62
7
  6
BYLAYER
 10
21.3295009787
 20
23.7344686239
 11
20.8805153972
 21
24.7721297483
  0
LINE
  5
230
100
AcDbEntity
  8
0
100
AcDbLine
 62
7
  6
BYLAYER
 10
17.0509614999
 20
28.2058324385
 11
17.0509614999
 21
36.8919082606
  0
LINE
  5
231
100
AcDbEntity
  8
0
100
AcDbLine
 62
7
  6
BYLAYER
 10
17.9752542151
 20
50.3040183527
 11
17.9752542151
 21
53.6309782607
  0
LINE
  5
232
100
AcDbEntity
  8
0
100
AcDbLine
 62
7
  6
BYLAYER
 10
17.9127783028
 20
49.6766962302
 11
17.8006221844
 21
37.1152499641
  0
LINE
  5
233
100
AcDbEntity
  8
0
100
AcDbLine
 62
7
  6
BYLAYER
 10
45.5509594519
 20
28.2058324385
 11
45.5122246462
 21
28.2058324385
  0
LINE
  5
234
100
AcDbEntity
  8
0
100
AcDbLine
 62
7
  6
BYLAYER
 10
17.0896983611
 20
28.2058324385
 11
17.0509635553
 21
28.2058324385
  0
LINE
  5
235
100
AcDbEntity
  8
0
100
AcDbLine
 62
7
  6
BYLAYER
 10
34.8009617775
 20
11.3078324385
 11
36.6134596961
 21
8.4078357687
  0
LINE
  5
236
100
AcDbEntity
  8
0
100
AcDbLine
 62
7
  6
BYLAYER
 10
20.8438790925
 20
24.960659666
 11
20.8805153972
 21
24.7721297483
  0
LINE
  5
237
100
AcDbEntity
  8
0
100
AcDbLine
 62
7
  6
BYLAYER
 10
20.8439890744
 20
24.9711819625
 11
20.8438611588
 21
25.7558324385
  0
LINE
  5
238
100
AcDbEntity
  8
0
100
AcDbLine
 62
7
  6
BYLAYER
 10
18.7009615036
 20
27.0058324385
 11
18.7009615036
 21
25.7558324385
  0
LINE
  5
239
100
AcDbEntity
  8
0
100
AcDbLine
 62
7
  6
BYLAYER
 10
19.9002542046
 20
49.974018423
 11
19.9002542046
 21
50.3040183527
  0
LINE
  5
23A
100
AcDbEntity
  8
0
100
AcDbLine
 62
7
  6
BYLAYER
 10
20.4259615036
 20
23.0568324385
 11
20.4259615036
 21
25.7558324385
  0
LINE
  5
23B
100
AcDbEntity
  8
0
100
AcDbLine
 62
7
  6
BYLAYER
 10
20.7767040989
 20
22.3958324385
 11
20.7767040989
 21
14.1958324385
  0
LINE
  5
23C
100
AcDbEntity
  8
0
100
AcDbLine
 62
7
  6
BYLAYER
 10
20.8009615036
 20
22.3958324385
 11
20.8009615036
 21
22.8068324385
  0
LINE
  5
23D
100
AcDbEntity
  8
0
100
AcDbLine
 62
7
  6
BYLAYER
 10
20.9744778563
 20
10.6068073836
 11
20.9744778563
 21
11.5068324385
  0
LINE
  5
23E
100
AcDbEntity
  8
0
100
AcDbLine
 62
7
  6
BYLAYER
 10
21.0065510631
 20
11.5068324385
 11
21.0065510631
 21
10.4306082817
  0
LINE
  5
23F
100
AcDbEntity
  8
0
100
AcDbLine
 62
7
  6
BYLAYER
 10
20.8439890744
 20
24.9711819625
 11
20.8438790925
 21
24.960659666
  0
LINE
  5
240
100
AcDbEntity
  8
0
100
AcDbLine
 62
7
  6
BYLAYER
 10
21.3778467777
 20
78.1663365889
 11
21.1167192027
 21
64.0636991201
  0
LINE
  5
241
100
AcDbEntity
  8
0
100
AcDbLine
 62
7
  6
BYLAYER
 10
22.5322470917
 20
22.3958324385
 11
22.5322470917
 21
14.1958324385
  0
LINE
  5
242
100
AcDbEntity
  8
0
100
AcDbLine
 62
7
  6
BYLAYER
 10
22.5326977953
 20
11.5068324385
 11
22.5326977953
 21
8.1068324385
  0
LINE
  5
243
100
AcDbEntity
  8
0
100
AcDbLine
 62
7
  6
BYLAYER
 10
22.6009615036
 20
14.1958324385
 11
22.6009615036
 21
11.5068324385
  0
LINE
  5
244
100
AcDbEntity
  8
0
100
AcDbLine
 62
7
  6
BYLAYER
 10
22.8511094339
 20
8.1068324385
 11
22.8511094339
 21
22.3958324385
  0
LINE
  5
245
100
AcDbEntity
  8
0
100
AcDbLine
 62
7
  6
BYLAYER
 10
23.1627561456
 20
24.9711819625
 11
23.1627920124
 21
25.7558324385
  0
LINE
  5
246
100
AcDbEntity
  8
0
100
AcDbLine
 62
7
  6
BYLAYER
 10
23.300336528
 20
22.3958324385
 11
23.300336528
 21
14.1958324385
  0
LINE
  5
247
100
AcDbEntity
  8
0
100
AcDbLine
 62
7
  6
BYLAYER
 10
25.2536480505
 20
14.1958324385
 11
25.2536480505
 21
8.1068324385
  0
LINE
  5
248
100
AcDbEntity
  8
0
100
AcDbLine
 62
7
  6
BYLAYER
 10
25.4804082195
 20
6.9068324385
 11
25.4804082195
 21
8.1068324385
  0
LINE
  5
249
100
AcDbEntity
  8
0
100
AcDbLine
 62
7
  6
BYLAYER
 10
25.5013541299
 20
8.1068324385
 11
25.5013541299
 21
6.9068324385
  0
LINE
  5
24A
100
AcDbEntity
  8
0
100
AcDbLine
 62
7
  6
BYLAYER
 10
25.9884633111
 20
8.4078348923
 11
25.9884633111
 21
8.1068324385
  0
LINE
  5
24B
100
AcDbEntity
  8
0
100
AcDbLine
 62
7
  6
BYLAYER
 10
26.439602383
 20
55.154018423
 11
26.439602383
 21
59.9658324385
  0
LINE
  5
24C
100
AcDbEntity
  8
0
100
AcDbLine
 62
7
  6
BYLAYER
 10
34.2258710043
 20
60.1122796762
 11
36.1903279234
 21
62.8904407408
  0
LINE
  5
24D
100
AcDbEntity
  8
0
100
AcDbLine
 62
7
  6
BYLAYER
 10
38.6652016576
 20
62.8904407408
 11
36.7007447385
 21
60.1122796762
  0
LINE
  5
24E
100
AcDbEntity
  8
0
100
AcDbLine
 62
7
  6
BYLAYER
 10
17.0509614999
 20
36.8919082617
 11
45.5509615074
 21
36.8919082617
  0
LINE
  5
24F
100
AcDbEntity
  8
0
100
AcDbLine
 62
7
  6
BYLAYER
 10
17.8006223582
 20
37.115267354
 11
44.7998848088
 21
37.1154495351
  0
LINE
  5
250
100
AcDbEntity
  8
0
100
AcDbLine
 62
7
  6
BYLAYER
 10
27.0009615036
 20
8.1068324385
 11
27.0009615036
 21
8.4068324385
  0
LINE
  5
251
100
AcDbEntity
  8
0
100
AcDbLine
 62
7
  6
BYLAYER
 10
27.5940052214
 20
10.9767019487
 11
27.5940052214
 21
8.4068324385
  0
LINE
  5
252
100
AcDbEntity
  8
0
100
AcDbLine
 62
7
  6
BYLAYER
 10
28.1120485141
 20
11.3078324385
 11
28.1120485141
 21
8.4068324385
  0
LINE
  5
253
100
AcDbEntity
  8
0
100
AcDbLine
 62
7
  6
BYLAYER
 10
28.2576996813
 20
11.3078324385
 11
28.2576996813
 21
8.4068324385
  0
LINE
  5
254
100
AcDbEntity
  8
0
100
AcDbLine
 62
7
  6
BYLAYER
 10
28.5750854976
 20
14.1958324385
 11
28.5750854976
 21
22.7958324385
  0
LINE
  5
255
100
AcDbEntity
  8
0
100
AcDbLine
 62
7
  6
BYLAYER
 10
44.799883737
 20
37.1155695776
 11
45.5509615036
 21
36.8919082617
  0
LINE
  5
256
100
AcDbEntity
  8
0
100
AcDbLine
 62
7
  6
BYLAYER
 10
32.1671673106
 20
59.9658324385
 11
32.1671673106
 21
55.154018423
  0
LINE
  5
257
100
AcDbEntity
  8
0
100
AcDbLine
 62
7
  6
BYLAYER
 10
33.5460255339
 20
55.154018423
 11
33.5460255339
 21
59.9658324385
  0
LINE
  5
258
100
AcDbEntity
  8
0
100
AcDbLine
 62
7
  6
BYLAYER
 10
34.0268375096
 20
22.7958324385
 11
34.0268375096
 21
14.1958324385
  0
LINE
  5
259
100
AcDbEntity
  8
0
100
AcDbLine
 62
7
  6
BYLAYER
 10
17.8006212865
 20
37.1151473203
 11
17.0509615036
 21
36.8919082617
  0
LINE
  5
25A
100
AcDbEntity
  8
0
100
AcDbLine
 62
7
  6
BYLAYER
 10
34.3442233259
 20
11.3078324385
 11
34.3442233259
 21
8.4068324385
  0
LINE
  5
25B
100
AcDbEntity
  8
0
100
AcDbLine
 62
7
  6
BYLAYER
 10
34.4898744932
 20
8.4068324385
 11
34.4898744932
 21
11.3078324385
  0
LINE
  5
25C
100
AcDbEntity
  8
0
100
AcDbLine
 62
7
  6
BYLAYER
 10
35.0079175531
 20
10.9767031976
 11
35.0079175531
 21
8.4068324385
  0
LINE
  5
25D
100
AcDbEntity
  8
0
100
AcDbLine
 62
7
  6
BYLAYER
 10
35.6009615036
 20
8.4068324385
 11
35.6009615036
 21
8.1068324385
  0
LINE
  5
25E
100
AcDbEntity
  8
0
100
AcDbLine
 62
7
  6
BYLAYER
 10
36.6134596961
 20
8.1068324385
 11
36.6134596961
 21
8.4078357687
  0
LINE
  5
25F
100
AcDbEntity
  8
0
100
AcDbLine
 62
7
  6
BYLAYER
 10
21.4477025449
 20
62.8904447186
 11
23.4121624522
 21
60.1122790479
  0
LINE
  5
260
100
AcDbEntity
  8
0
100
AcDbLine
 62
7
  6
BYLAYER
 10
36.5213141991
 20
64.0636992053
 11
36.2604396519
 21
78.1526275206
  0
LINE
  5
261
100
AcDbEntity
  8
0
100
AcDbLine
 62
7
  6
BYLAYER
 10
38.7353133861
 20
78.1526275206
 11
38.9961879332
 21
64.0636992053
  0
LINE
  5
262
100
AcDbEntity
  8
0
100
AcDbLine
 62
7
  6
BYLAYER
 10
37.1005688774
 20
6.9068324385
 11
37.1005688774
 21
8.1068324385
  0
LINE
  5
263
100
AcDbEntity
  8
0
100
AcDbLine
 62
7
  6
BYLAYER
 10
37.1215147878
 20
8.1068324385
 11
37.1215147878
 21
6.9068324385
  0
LINE
  5
264
100
AcDbEntity
  8
0
100
AcDbLine
 62
7
  6
BYLAYER
 10
37.3482749567
 20
8.1068324385
 11
37.3482749567
 21
14.1958324385
  0
LINE
  5
265
100
AcDbEntity
  8
0
100
AcDbLine
 62
7
  6
BYLAYER
 10
39.3015865211
 20
14.1958324385
 11
39.3015865211
 21
22.3958324385
  0
LINE
  5
266
100
AcDbEntity
  8
0
100
AcDbLine
 62
7
  6
BYLAYER
 10
39.4391309948
 20
25.7558324385
 11
39.4391668617
 21
24.9711819625
  0
LINE
  5
267
100
AcDbEntity
  8
0
100
AcDbLine
 62
7
  6
BYLAYER
 10
17.9127783028
 20
49.6766962302
 11
44.6877304909
 21
49.6766962302
  0
LINE
  5
268
100
AcDbEntity
  8
0
100
AcDbLine
 62
7
  6
BYLAYER
 10
18.2127759522
 20
49.974018423
 11
44.3877328415
 21
49.974018423
  0
LINE
  5
269
100
AcDbEntity
  8
0
100
AcDbLine
 62
7
  6
BYLAYER
 10
44.6251426132
 20
50.3040183527
 11
17.9750828861
 21
50.3040183527
  0
LINE
  5
26A
100
AcDbEntity
  8
0
100
AcDbLine
 62
7
  6
BYLAYER
 10
41.7579339328
 20
24.9711819625
 11
41.7580439148
 21
24.960659666
  0
LINE
  5
26B
100
AcDbEntity
  8
0
100
AcDbLine
 62
7
  6
BYLAYER
 10
39.750813504
 20
22.3958324385
 11
39.7508135733
 21
8.1068324385
  0
LINE
  5
26C
100
AcDbEntity
  8
0
100
AcDbLine
 62
7
  6
BYLAYER
 10
40.0009615036
 20
11.5068324385
 11
40.0009615036
 21
14.1958324385
  0
LINE
  5
26D
100
AcDbEntity
  8
0
100
AcDbLine
 62
7
  6
BYLAYER
 10
40.0314060582
 20
11.5068324385
 11
40.0314060582
 21
8.1068324385
  0
LINE
  5
26E
100
AcDbEntity
  8
0
100
AcDbLine
 62
7
  6
BYLAYER
 10
40.0696759156
 20
22.3958324385
 11
40.0696759156
 21
14.1958324385
  0
LINE
  5
26F
100
AcDbEntity
  8
0
100
AcDbLine
 62
7
  6
BYLAYER
 10
41.6156064099
 20
11.5068324385
 11
41.6156064099
 21
10.4985980597
  0
LINE
  5
270
100
AcDbEntity
  8
0
100
AcDbLine
 62
7
  6
BYLAYER
 10
41.6274682325
 20
11.5068324385
 11
41.6274682325
 21
10.6068592434
  0
LINE
  5
271
100
AcDbEntity
  8
0
100
AcDbLine
 62
7
  6
BYLAYER
 10
41.8009615036
 20
22.8068324385
 11
41.8009615036
 21
22.3958324385
  0
LINE
  5
272
100
AcDbEntity
  8
0
100
AcDbLine
 62
7
  6
BYLAYER
 10
41.8252189083
 20
14.1958324385
 11
41.8252189083
 21
22.3958324385
  0
LINE
  5
273
100
AcDbEntity
  8
0
100
AcDbLine
 62
7
  6
BYLAYER
 10
41.7579339328
 20
24.9711819625
 11
41.7580618485
 21
25.7558324385
  0
LINE
  5
274
100
AcDbEntity
  8
0
100
AcDbLine
 62
7
  6
BYLAYER
 10
17.9752542151
 20
53.6309782607
 11
44.6252545786
 21
53.6309782607
  0
LINE
  5
275
100
AcDbEntity
  8
0
100
AcDbLine
 62
7
  6
BYLAYER
 10
44.3773488502
 20
53.9264223853
 11
18.2231599435
 21
53.9264223853
  0
LINE
  5
276
100
AcDbEntity
  8
0
100
AcDbLine
 62
7
  6
BYLAYER
 10
42.1759615036
 20
25.7558324385
 11
42.1759615036
 21
23.0568324385
  0
LINE
  5
277
100
AcDbEntity
  8
0
100
AcDbLine
 62
7
  6
BYLAYER
 10
42.7002545891
 20
49.974018423
 11
42.7002545891
 21
50.3040183527
  0
LINE
  5
278
100
AcDbEntity
  8
0
100
AcDbLine
 62
7
  6
BYLAYER
 10
43.9009615036
 20
25.7558324385
 11
43.9009615036
 21
27.0058324385
  0
LINE
  5
279
100
AcDbEntity
  8
0
100
AcDbLine
 62
7
  6
BYLAYER
 10
44.6252545786
 20
50.3040183527
 11
44.6252545786
 21
53.6309782607
  0
LINE
  5
27A
100
AcDbEntity
  8
0
100
AcDbLine
 62
7
  6
BYLAYER
 10
23.2002541867
 20
54.804018423
 11
18.2231600807
 21
53.9264224095
  0
LINE
  5
27B
100
AcDbEntity
  8
0
100
AcDbLine
 62
7
  6
BYLAYER
 10
23.2003702005
 20
54.804018423
 11
39.3999944909
 21
54.804018423
  0
LINE
  5
27C
100
AcDbEntity
  8
0
100
AcDbLine
 62
7
  6
BYLAYER
 10
23.7504182713
 20
55.154018423
 11
38.8502543968
 21
55.154018423
  0
LINE
  5
27D
100
AcDbEntity
  8
0
100
AcDbLine
 62
7
  6
BYLAYER
 10
39.400254607
 20
54.804018423
 11
44.377348713
 21
53.9264224095
  0
LINE
  5
27E
100
AcDbEntity
  8
0
100
AcDbLine
 62
7
  6
BYLAYER
 10
44.6877304909
 20
49.6766962302
 11
44.7998837556
 21
37.1155695665
  0
LINE
  5
27F
100
AcDbEntity
  8
0
100
AcDbLine
 62
7
  6
BYLAYER
 10
45.5509615074
 20
28.2058324385
 11
45.5509615074
 21
36.8919082606
  0
LINE
  5
280
100
AcDbEntity
  8
0
100
AcDbLine
 62
7
  6
BYLAYER
 10
41.7580439148
 20
24.960659666
 11
41.7214076101
 21
24.7721297483
  0
LINE
  5
281
100
AcDbEntity
  8
0
100
AcDbLine
 62
7
  6
BYLAYER
 10
25.9884633111
 20
8.4078348923
 11
27.8009617775
 21
11.3078324385
  0
LINE
  5
282
100
AcDbEntity
  8
0
100
AcDbLine
 62
7
  6
BYLAYER
 10
41.2724220285
 20
23.7344686239
 11
41.7214076101
 21
24.7721297483
  0
LINE
  5
283
100
AcDbEntity
  8
0
100
AcDbLine
 62
7
  6
BYLAYER
 10
34.0007533189
 20
59.965517493
 11
36.475627053
 21
59.965517493
  0
LINE
  5
284
100
AcDbEntity
  8
0
100
AcDbLine
 62
7
  6
BYLAYER
 10
23.6621624522
 20
59.9658324385
 11
33.9892722801
 21
59.9658324385
  0
LINE
  5
285
100
AcDbEntity
  8
0
100
AcDbLine
 62
7
  6
BYLAYER
 10
36.7007447385
 20
60.1122796762
 11
34.2258710043
 21
60.1122796762
  0
LINE
  5
286
100
AcDbEntity
  8
0
100
AcDbLine
 62
7
  6
BYLAYER
 10
33.9892722801
 20
59.9658324385
 11
34.0007531578
 21
59.9655930681
  0
LINE
  5
287
100
AcDbEntity
  8
0
100
AcDbLine
 62
7
  6
BYLAYER
 10
36.1903279234
 20
62.8904407408
 11
38.6652016576
 21
62.8904407408
  0
LINE
  5
288
100
AcDbEntity
  8
0
100
AcDbLine
 62
7
  6
BYLAYER
 10
38.9961879332
 20
64.0636992053
 11
36.5213141991
 21
64.0636992053
  0
LINE
  5
289
100
AcDbEntity
  8
0
100
AcDbLine
 62
7
  6
BYLAYER
 10
28.8186499208
 20
79.6658276929
 11
21.6937775785
 21
78.6399215687
  0
LINE
  5
28A
100
AcDbEntity
  8
0
100
AcDbLine
 62
7
  6
BYLAYER
 10
36.2604396519
 20
78.1526275206
 11
38.7353133861
 21
78.1526275206
  0
LINE
  5
28B
100
AcDbEntity
  8
0
100
AcDbLine
 62
7
  6
BYLAYER
 10
38.4376586944
 20
78.634308286
 11
35.9627849602
 21
78.634308286
  0
LINE
  5
28C
100
AcDbEntity
  8
0
100
AcDbLine
 62
7
  6
BYLAYER
 10
28.8186499208
 20
79.6658325799
 11
31.2935236549
 21
79.6658325799
  0
LINE
  5
28D
100
AcDbEntity
  8
0
100
AcDbLine
 62
7
  6
BYLAYER
 10
35.9627849602
 20
78.634308286
 11
28.8186499208
 21
79.6658276929
  0
LINE
  5
28E
100
AcDbEntity
  8
0
100
AcDbLine
 62
7
  6
BYLAYER
 10
31.2935236549
 20
79.6658276929
 11
38.4376586944
 21
78.634308286
  0
ARC
  5
28F
100
AcDbEntity
  8
0
100
AcDbCircle
 62
7
  6
BYLAYER
 10
32.702718528
 20
-1.0080682055
 40
10.1948156275
100
AcDbArc
 50
63.3894969536
 51
67.4430857775
  0
ARC
  5
290
100
AcDbEntity
  8
0
100
AcDbCircle
 62
7
  6
BYLAYER
 10
29.8138315244
 20
-0.8214573302
 40
9.9897341697
100
AcDbArc
 50
112.5152878097
 51
116.6521294591
  0
ARC
  5
291
100
AcDbEntity
  8
0
100
AcDbCircle
 62
7
  6
BYLAYER
 10
23.378735069
 20
64.0218174834
 40
2.2624035562
100
AcDbArc
 50
178.9392793817
 51
180.0000340764
  0
ARC
  5
292
100
AcDbEntity
  8
0
100
AcDbCircle
 62
7
  6
BYLAYER
 10
36.734173139
 20
64.0218173484
 40
2.2624024883
100
AcDbArc
 50
359.9999659231
 51
1.0607266971
  0
ARC
  5
293
100
AcDbEntity
  8
0
100
AcDbCircle
 62
7
  6
BYLAYER
 10
34.2592994047
 20
64.0218173484
 40
2.2624024884
100
AcDbArc
 50
359.9999659231
 51
1.060726697
  0
ARC
  5
294
100
AcDbEntity
  8
0
100
AcDbCircle
 62
7
  6
BYLAYER
 10
39.8924745925
 20
24.9611414648
 40
0.4533955419
100
AcDbArc
 50
180.0608851165
 51
204.6569690627
  0
ARC
  5
295
100
AcDbEntity
  8
0
100
AcDbCircle
 62
7
  6
BYLAYER
 10
22.7094484169
 20
24.9611414782
 40
0.4533955397
100
AcDbArc
 50
335.3430743427
 51
359.9391131884
  0
ARC
  5
296
100
AcDbEntity
  8
0
100
AcDbCircle
 62
7
  6
BYLAYER
 10
38.8502543968
 20
54.754018423
 40
0.4
100
AcDbArc
 50
7.1807557809
 51
90.0
  0
ARC
  5
297
100
AcDbEntity
  8
0
100
AcDbCircle
 62
7
  6
BYLAYER
 10
23.7502543968
 20
54.754018423
 40
0.4
100
AcDbArc
 50
90.0
 51
172.8192442191
  0
ARC
  5
298
100
AcDbEntity
  8
0
100
AcDbCircle
 62
7
  6
BYLAYER
 10
18.2752546036
 20
53.6309797014
 40
0.3000003885
100
AcDbArc
 50
100.0000270127
 51
180.0
  0
ARC
  5
299
100
AcDbEntity
  8
0
100
AcDbCircle
 62
7
  6
BYLAYER
 10
44.3252541901
 20
53.6309797014
 40
0.3000003885
100
AcDbArc
 50
0.0
 51
79.9999729873
  0
ARC
  5
29A
100
AcDbEntity
  8
0
100
AcDbCircle
 62
7
  6
BYLAYER
 10
18.2127663567
 20
49.6740184177
 40
0.3000000053
100
AcDbArc
 50
90.0000004148
 51
179.4884425458
  0
ARC
  5
29B
100
AcDbEntity
  8
0
100
AcDbCircle
 62
7
  6
BYLAYER
 10
44.387742437
 20
49.6740184177
 40
0.3000000053
100
AcDbArc
 50
0.5115574542
 51
89.9999995852
  0
ARC
  5
29C
100
AcDbEntity
  8
0
100
AcDbCircle
 62
7
  6
BYLAYER
 10
20.6759615036
 20
23.0568324385
 40
0.25
100
AcDbArc
 50
180.0
 51
270.0
  0
ARC
  5
29D
100
AcDbEntity
  8
0
100
AcDbCircle
 62
7
  6
BYLAYER
 10
41.9259615036
 20
23.0568324385
 40
0.25
100
AcDbArc
 50
270.0
 51
360.0
  0
SPLINE
  5
29E
100
AcDbEntity
  8
0
100
AcDbSpline
 62
7
  6
BYLAYER
 70
0
 71
3
 72
23
 73
19
 74
0
 42
0.0000001
 43
0.0000001
 44
0.0000000001
 40
0.0
 40
0.0
 40
0.0
 40
0.0
 40
0.0516289355
 40
0.105172122
 40
0.1619854791
 40
0.2228538456
 40
0.287815842
 40
0.3563438415
 40
0.4274809927
 40
0.4999915325
 40
0.5725020906
 40
0.6436395171
 40
0.712168985
 40
0.7771347558
 40
0.8380074219
 40
0.8948243673
 40
0.9483704959
 40
1.0
 40
1.0
 40
1.0
 40
1.0
 10
28.8190167017
 20
75.6658324385
 30
0.0
 10
28.9118428815
 20
75.6658324385
 30
0.0
 10
29.1018844894
 20
75.6388212418
 30
0.0
 10
29.371596869
 20
75.5209965767
 30
0.0
 10
29.6178324889
 20
75.3317765918
 30
0.0
 10
29.831857196
 20
75.0799541547
 30
0.0
 10
30.006506592
 20
74.7752772904
 30
0.0
 10
30.135847673
 20
74.4292846392
 30
0.0
 10
30.2153785216
 20
74.0548402182
 30
0.0
 10
30.2422253527
 20
73.6658791064
 30
0.0
 10
30.2153931658
 20
73.2769163739
 30
0.0
 10
30.1358723096
 20
72.9024664169
 30
0.0
 10
30.0065371341
 20
72.556461117
 30
0.0
 10
29.8318918787
 20
72.2517622738
 30
0.0
 10
29.6178631003
 20
71.9999150276
 30
0.0
 10
29.3716145415
 20
71.8106791597
 30
0.0
 10
29.101891859
 20
71.6928456041
 30
0.0
 10
28.9118439038
 20
71.6658324385
 30
0.0
 10
28.8190167017
 20
71.6658324385
 30
0.0
  0
SPLINE
  5
29F
100
AcDbEntity
  8
0
100
AcDbSpline
 62
7
  6
BYLAYER
 70
0
 71
3
 72
13
 73
9
 74
0
 42
0.0000001
 43
0.0000001
 44
0.0000000001
 40
0.0
 40
0.0
 40
0.0
 40
0.0
 40
0.1040189163
 40
0.2130155739
 40
0.3283946929
 40
0.450951351
 40
0.7160781936
 40
1.0
 40
1.0
 40
1.0
 40
1.0
 10
21.6937775785
 20
78.6399215687
 30
0.0
 10
21.6728591997
 20
78.6364869167
 30
0.0
 10
21.6307792634
 20
78.6239908408
 30
0.0
 10
21.572126879
 20
78.5907387388
 30
0.0
 10
21.5187948872
 20
78.5436227687
 30
0.0
 10
21.455139295
 20
78.4626706218
 30
0.0
 10
21.3982327915
 20
78.3358814664
 30
0.0
 10
21.3801952046
 20
78.2241505961
 30
0.0
 10
21.3778467777
 20
78.1663365889
 30
0.0
  0
SPLINE
  5
2A0
100
AcDbEntity
  8
0
100
AcDbSpline
 62
7
  6
BYLAYER
 70
0
 71
3
 72
10
 73
6
 74
0
 42
0.0000001
 43
0.0000001
 44
0.0000000001
 40
0.0
 40
0.0
 40
0.0
 40
0.0
 40
0.2619892614
 40
0.5191704102
 40
1.0
 40
1.0
 40
1.0
 40
1.0
 10
21.1163315128
 20
64.0218161379
 30
0.0
 10
21.1163315128
 20
63.9175466961
 30
0.0
 10
21.130696889
 20
63.7104950023
 30
0.0
 10
21.2132524451
 20
63.3206663503
 30
0.0
 10
21.3372173375
 20
63.0466943872
 30
0.0
 10
21.4477025449
 20
62.8904447186
 30
0.0
  0
SPLINE
  5
2A1
100
AcDbEntity
  8
0
100
AcDbSpline
 62
7
  6
BYLAYER
 70
0
 71
3
 72
11
 73
7
 74
0
 42
0.0000001
 43
0.0000001
 44
0.0000000001
 40
0.0
 40
0.0
 40
0.0
 40
0.0
 40
0.2730450542
 40
0.5281097632
 40
0.768321621
 40
1.0
 40
1.0
 40
1.0
 40
1.0
 10
23.4121624522
 20
60.1122790479
 30
0.0
 10
23.4279534012
 20
60.0899472737
 30
0.0
 10
23.4624746136
 20
60.0493442412
 30
0.0
 10
23.5240052157
 20
60.0020363831
 30
0.0
 10
23.5914524527
 20
59.9725907114
 30
0.0
 10
23.6389553962
 20
59.9658324385
 30
0.0
 10
23.6621624522
 20
59.9658324385
 30
0.0
  0
SPLINE
  5
2A2
100
AcDbEntity
  8
0
100
AcDbSpline
 62
7
  6
BYLAYER
 70
0
 71
3
 72
11
 73
7
 74
0
 42
0.0000001
 43
0.0000001
 44
0.0000000001
 40
0.0
 40
0.0
 40
0.0
 40
0.0
 40
0.2464087364
 40
0.5001867995
 40
0.7538669577
 40
1.0
 40
1.0
 40
1.0
 40
1.0
 10
30.0453229483
 20
74.6050315929
 30
0.0
 10
29.9896293603
 20
74.4569021467
 30
0.0
 10
29.9062617069
 20
74.1444047316
 30
0.0
 10
29.8656741936
 20
73.6596258068
 30
0.0
 10
29.908369029
 20
73.1752052474
 30
0.0
 10
29.9931196947
 20
72.8633188974
 30
0.0
 10
30.0494889276
 20
72.7156347466
 30
0.0
  0
SPLINE
  5
2A3
100
AcDbEntity
  8
0
100
AcDbSpline
 62
7
  6
BYLAYER
 70
0
 71
3
 72
12
 73
8
 74
0
 42
0.0000001
 43
0.0000001
 44
0.0000000001
 40
0.0
 40
0.0
 40
0.0
 40
0.0
 40
0.2124004932
 40
0.3285075081
 40
0.4517180565
 40
0.7173032265
 40
1.0
 40
1.0
 40
1.0
 40
1.0
 10
38.4376586944
 20
78.634308286
 30
0.0
 10
38.4793891002
 20
78.624781257
 30
0.0
 10
38.5407181018
 20
78.5932060761
 30
0.0
 10
38.6062990899
 20
78.5297279917
 30
0.0
 10
38.6665071756
 20
78.4470787942
 30
0.0
 10
38.7190236874
 20
78.320277522
 30
0.0
 10
38.7342786864
 20
78.2095887127
 30
0.0
 10
38.7353133861
 20
78.1526275206
 30
0.0
  0
SPLINE
  5
2A4
100
AcDbEntity
  8
0
100
AcDbSpline
 62
7
  6
BYLAYER
 70
0
 71
3
 72
10
 73
6
 74
0
 42
0.0000001
 43
0.0000001
 44
0.0000000001
 40
0.0
 40
0.0
 40
0.0
 40
0.0
 40
0.261989376
 40
0.5191705909
 40
1.0
 40
1.0
 40
1.0
 40
1.0
 10
38.9965756273
 20
64.0218160028
 30
0.0
 10
38.9965756273
 20
63.9175461012
 30
0.0
 10
38.9822101177
 20
63.7104935077
 30
0.0
 10
38.8996538326
 20
63.3206633906
 30
0.0
 10
38.7756878322
 20
63.0466905687
 30
0.0
 10
38.6652016576
 20
62.8904407408
 30
0.0
  0
SPLINE
  5
2A5
100
AcDbEntity
  8
0
100
AcDbSpline
 62
7
  6
BYLAYER
 70
0
 71
3
 72
11
 73
7
 74
0
 42
0.0000001
 43
0.0000001
 44
0.0000000001
 40
0.0
 40
0.0
 40
0.0
 40
0.0
 40
0.2759147072
 40
0.5320294204
 40
0.770963431
 40
1.0
 40
1.0
 40
1.0
 40
1.0
 10
36.7007447385
 20
60.1122796762
 30
0.0
 10
36.6874170763
 20
60.0902126709
 30
0.0
 10
36.6576359766
 20
60.0499073498
 30
0.0
 10
36.6026361895
 20
60.0023358152
 30
0.0
 10
36.5410065515
 20
59.9724262493
 30
0.0
 10
36.4970263981
 20
59.9655349003
 30
0.0
 10
36.4756269142
 20
59.9655216066
 30
0.0
  0
SPLINE
  5
2A6
100
AcDbEntity
  8
0
100
AcDbSpline
 62
7
  6
BYLAYER
 70
0
 71
3
 72
15
 73
11
 74
0
 42
0.0000001
 43
0.0000001
 44
0.0000000001
 40
0.0
 40
0.0
 40
0.0
 40
0.0
 40
0.0917047561
 40
0.1436247148
 40
0.1991075253
 40
0.3185198643
 40
0.446248471
 40
0.5796494701
 40
0.7170492648
 40
1.0
 40
1.0
 40
1.0
 40
1.0
 10
21.9682373949
 20
23.146832439
 30
0.0
 10
22.0280072842
 20
23.1632499777
 30
0.0
 10
22.1147450286
 20
23.212934249
 30
0.0
 10
22.2171253359
 20
23.2999741092
 30
0.0
 10
22.3239675135
 20
23.4103413627
 30
0.0
 10
22.4501897838
 20
23.5717919867
 30
0.0
 10
22.5922843769
 20
23.7863505059
 30
0.0
 10
22.7296027018
 20
24.0181802939
 30
0.0
 10
22.9095293368
 20
24.3464256016
 30
0.0
 10
23.0373574465
 20
24.6002510636
 30
0.0
 10
23.1215042892
 20
24.7719921364
 30
0.0
  0
LINE
  5
2A7
100
AcDbEntity
  8
0
100
AcDbLine
 62
7
  6
BYLAYER
 10
23.1628437006
 20
24.960659666
 11
23.1627561456
 21
24.9711819625
  0
SPLINE
  5
2A8
100
AcDbEntity
  8
0
100
AcDbSpline
 62
7
  6
BYLAYER
 70
0
 71
3
 72
23
 73
19
 74
0
 42
0.0000001
 43
0.0000001
 44
0.0000000001
 40
0.0
 40
0.0
 40
0.0
 40
0.0
 40
0.0516289355
 40
0.105172122
 40
0.1619854791
 40
0.2228538456
 40
0.287815842
 40
0.3563438415
 40
0.4274809927
 40
0.4999915325
 40
0.5725020906
 40
0.6436395171
 40
0.712168985
 40
0.7771347558
 40
0.8380074219
 40
0.8948243673
 40
0.9483704959
 40
1.0
 40
1.0
 40
1.0
 40
1.0
 10
28.8190167017
 20
71.6658324385
 30
0.0
 10
28.7261905219
 20
71.6658324385
 30
0.0
 10
28.5361489139
 20
71.6928436352
 30
0.0
 10
28.2664365344
 20
71.8106683003
 30
0.0
 10
28.0202009144
 20
71.9998882852
 30
0.0
 10
27.8061762073
 20
72.2517107223
 30
0.0
 10
27.6315268113
 20
72.5563875866
 30
0.0
 10
27.5021857304
 20
72.9023802378
 30
0.0
 10
27.4226548817
 20
73.2768246588
 30
0.0
 10
27.3958080507
 20
73.6657857706
 30
0.0
 10
27.4226402376
 20
74.0547485031
 30
0.0
 10
27.5021610937
 20
74.4291984601
 30
0.0
 10
27.6314962692
 20
74.77520376
 30
0.0
 10
27.8061415246
 20
75.0799026032
 30
0.0
 10
28.0201703031
 20
75.3317498494
 30
0.0
 10
28.2664188618
 20
75.5209857173
 30
0.0
 10
28.5361415443
 20
75.6388192729
 30
0.0
 10
28.7261894996
 20
75.6658324385
 30
0.0
 10
28.8190167017
 20
75.6658324385
 30
0.0
  0
SPLINE
  5
2A9
100
AcDbEntity
  8
0
100
AcDbSpline
 62
7
  6
BYLAYER
 70
0
 71
3
 72
10
 73
6
 74
0
 42
0.0000001
 43
0.0000001
 44
0.0000000001
 40
0.0
 40
0.0
 40
0.0
 40
0.0
 40
0.4808294091
 40
0.738010624
 40
1.0
 40
1.0
 40
1.0
 40
1.0
 10
36.1903279234
 20
62.8904407408
 30
0.0
 10
36.300814098
 20
63.0466905687
 30
0.0
 10
36.4247800984
 20
63.3206633906
 30
0.0
 10
36.5073363836
 20
63.7104935077
 30
0.0
 10
36.5217018932
 20
63.9175461012
 30
0.0
 10
36.5217018932
 20
64.0218160028
 30
0.0
  0
SPLINE
  5
2AA
100
AcDbEntity
  8
0
100
AcDbSpline
 62
7
  6
BYLAYER
 70
0
 71
3
 72
12
 73
8
 74
0
 42
0.0000001
 43
0.0000001
 44
0.0000000001
 40
0.0
 40
0.0
 40
0.0
 40
0.0
 40
0.2826967735
 40
0.5482819435
 40
0.6714924919
 40
0.7875995068
 40
1.0
 40
1.0
 40
1.0
 40
1.0
 10
36.2604396519
 20
78.1526275206
 30
0.0
 10
36.2594049523
 20
78.2095887127
 30
0.0
 10
36.2441499533
 20
78.320277522
 30
0.0
 10
36.1916334414
 20
78.4470787942
 30
0.0
 10
36.1314253557
 20
78.5297279917
 30
0.0
 10
36.0658443676
 20
78.5932060761
 30
0.0
 10
36.004515366
 20
78.624781257
 30
0.0
 10
35.9627849602
 20
78.634308286
 30
0.0
  0
SPLINE
  5
2AB
100
AcDbEntity
  8
0
100
AcDbSpline
 62
7
  6
BYLAYER
 70
0
 71
3
 72
15
 73
11
 74
0
 42
0.0000001
 43
0.0000001
 44
0.0000000001
 40
0.0
 40
0.0
 40
0.0
 40
0.0
 40
0.2829482993
 40
0.4203459481
 40
0.5537461765
 40
0.681473504
 40
0.8008865743
 40
0.8563702465
 40
0.908292723
 40
1.0
 40
1.0
 40
1.0
 40
1.0
 10
39.4804188615
 20
24.7719918099
 30
0.0
 10
39.5645650628
 20
24.6002520378
 30
0.0
 10
39.6923888861
 20
24.3464274603
 30
0.0
 10
39.8723193368
 20
24.0181879357
 30
0.0
 10
40.0096333137
 20
23.7863586792
 30
0.0
 10
40.1517285064
 20
23.5718008791
 30
0.0
 10
40.2779528043
 20
23.41035219
 30
0.0
 10
40.384788687
 20
23.2999746621
 30
0.0
 10
40.4871741479
 20
23.2129338967
 30
0.0
 10
40.5739159036
 20
23.1632501411
 30
0.0
 10
40.6336875809
 20
23.146832439
 30
0.0
  0
SPLINE
  5
2AC
100
AcDbEntity
  8
0
100
AcDbSpline
 62
7
  6
BYLAYER
 70
0
 71
3
 72
12
 73
8
 74
0
 42
0.0000001
 43
0.0000001
 44
0.0000000001
 40
0.0
 40
0.0
 40
0.0
 40
0.0
 40
0.2861407561
 40
0.5519853328
 40
0.6752073235
 40
0.7909152536
 40
1.0
 40
1.0
 40
1.0
 40
1.0
 10
21.3294957556
 20
23.7344606556
 30
0.0
 10
21.3587655047
 20
23.6668420739
 30
0.0
 10
21.4195876451
 20
23.5382132717
 30
0.0
 10
21.5099910196
 20
23.3890252577
 30
0.0
 10
21.5917319072
 20
23.2875288664
 30
0.0
 10
21.6741182627
 20
23.2068859899
 30
0.0
 10
21.7481802007
 20
23.1618190476
 30
0.0
 10
21.7998919873
 20
23.146832439
 30
0.0
  0
SPLINE
  5
2AD
100
AcDbEntity
  8
0
100
AcDbSpline
 62
7
  6
BYLAYER
 70
0
 71
3
 72
11
 73
7
 74
0
 42
0.0000001
 43
0.0000001
 44
0.0000000001
 40
0.0
 40
0.0
 40
0.0
 40
0.0
 40
0.229036569
 40
0.4679705796
 40
0.7240852928
 40
1.0
 40
1.0
 40
1.0
 40
1.0
 10
34.00075318
 20
59.9655216066
 30
0.0
 10
34.022152664
 20
59.9655349003
 30
0.0
 10
34.0661328174
 20
59.9724262493
 30
0.0
 10
34.1277624553
 20
60.0023358152
 30
0.0
 10
34.1827622424
 20
60.0499073498
 30
0.0
 10
34.2125433422
 20
60.0902126709
 30
0.0
 10
34.2258710043
 20
60.1122796762
 30
0.0
  0
SPLINE
  5
2AE
100
AcDbEntity
  8
0
100
AcDbSpline
 62
7
  6
BYLAYER
 70
0
 71
3
 72
12
 73
8
 74
0
 42
0.0000001
 43
0.0000001
 44
0.0000000001
 40
0.0
 40
0.0
 40
0.0
 40
0.0
 40
0.2090836961
 40
0.3247857823
 40
0.4480070048
 40
0.713849883
 40
1.0
 40
1.0
 40
1.0
 40
1.0
 10
40.8020328856
 20
23.146832439
 30
0.0
 10
40.8537441228
 20
23.1618192059
 30
0.0
 10
40.9278040293
 20
23.2068863346
 30
0.0
 10
41.0101850697
 20
23.2875307792
 30
0.0
 10
41.0919298783
 20
23.3890202891
 30
0.0
 10
41.1823375121
 20
23.5382077255
 30
0.0
 10
41.2431573396
 20
23.6668391479
 30
0.0
 10
41.2724276971
 20
23.7344597749
 30
0.0
  0
LINE
  5
2AF
100
AcDbEntity
  8
0
100
AcDbLine
 62
7
  6
BYLAYER
 10
39.4391668617
 20
24.9711819625
 11
39.4390793067
 21
24.960659666
  0
ELLIPSE
  5
2B0
100
AcDbEntity
  8
0
100
AcDbEllipse
 62
7
  6
BYLAYER
 10
26.0030909627
 20
-6.8318181622
 30
0.0
 11
0.0
 21
28.7445147379
 31
0.0
 40
0.0174550649
 41
1.0242914156
 42
1.0724686148
  0
ELLIPSE
  5
2B1
100
AcDbEntity
  8
0
100
AcDbEllipse
 62
7
  6
BYLAYER
 10
31.3009615036
 20
40.2058324385
 30
0.0
 11
0.0
 21
162.8571428998
 31
0.0
 40
0.0875
 41
-4.6386379301
 42
-4.6312473392
  0
ELLIPSE
  5
2B2
100
AcDbEntity
  8
0
100
AcDbEllipse
 62
7
  6
BYLAYER
 10
31.3009615036
 20
40.2058324385
 30
0.0
 11
0.0
 21
162.8571428998
 31
0.0
 40
0.0875
 41
-1.651937968
 42
-1.6445473771
  0
ELLIPSE
  5
2B3
100
AcDbEntity
  8
0
100
AcDbEllipse
 62
7
  6
BYLAYER
 10
31.3009615036
 20
225.8086866352
 30
0.0
 11
0.0
 21
509.8806585133
 31
0.0
 40
0.0174550649
 41
-4.2712537498
 42
-4.2686494957
  0
ELLIPSE
  5
2B4
100
AcDbEntity
  8
0
100
AcDbEllipse
 62
7
  6
BYLAYER
 10
21.4745029125
 20
10.6068073836
 30
0.0
 11
0.5000250562
 21
0.0
 31
0.0
 40
1.0
 41
3.1415926536
 42
3.5017062496
  0
ELLIPSE
  5
2B5
100
AcDbEntity
  8
0
100
AcDbEllipse
 62
7
  6
BYLAYER
 10
31.2984077763
 20
14.3054234712
 30
0.0
 11
10.9971135921
 21
-0.0
 31
0.0
 40
1.0
 41
-2.7815134241
 42
-2.5427871874
  0
ELLIPSE
  5
2B6
100
AcDbEntity
  8
0
100
AcDbEllipse
 62
7
  6
BYLAYER
 10
41.1274950358
 20
10.6068592434
 30
0.0
 11
0.4999731966
 21
0.0
 31
0.0
 40
1.0
 41
-0.2182628097
 42
0.0
  0
ELLIPSE
  5
2B7
100
AcDbEntity
  8
0
100
AcDbEllipse
 62
7
  6
BYLAYER
 10
31.2984077763
 20
14.3054234712
 30
0.0
 11
10.9971135921
 21
-0.0
 31
0.0
 40
1.0
 41
-0.5988054662
 42
-0.3534812045
  0
ELLIPSE
  5
2B8
100
AcDbEntity
  8
0
100
AcDbEllipse
 62
7
  6
BYLAYER
 10
31.3009615036
 20
225.8086866352
 30
0.0
 11
0.0
 21
509.8806585133
 31
0.0
 40
0.0174550649
 41
-2.0145358115
 42
-2.0119315574
  0
ELLIPSE
  5
2B9
100
AcDbEntity
  8
0
100
AcDbEllipse
 62
7
  6
BYLAYER
 10
36.5988228917
 20
-6.8320477359
 30
0.0
 11
0.0
 21
28.7450394449
 31
0.0
 40
0.0174550649
 41
-1.072469455
 42
-1.0242931714
  0
ELLIPSE
  5
2BA
100
AcDbEntity
  8
0
100
AcDbEllipse
 62
7
  6
BYLAYER
 10
30.8183582106
 20
206.0323612001
 30
0.0
 11
0.0
 21
414.2700652642
 31
0.0
 40
0.0174550649
 41
-4.2142752569
 42
-4.2109749532
  0
ELLIPSE
  5
2BB
100
AcDbEntity
  8
0
100
AcDbEllipse
 62
7
  6
BYLAYER
 10
31.7835647967
 20
206.0323612
 30
0.0
 11
0.0
 21
414.2700652641
 31
0.0
 40
0.0174550649
 41
-2.072210354
 42
-2.0689100503
  0
ENDSEC
  0
SECTION
  2
OBJECTS
  0
DICTIONARY
  5
C
100
AcDbDictionary
280
0
281
1
  3
ACAD_GROUP
350
D
  3
ACAD_MLINESTYLE
350
17
  3
ACAD_LAYOUT
350
1A
  3
ACAD_PLOTSETTINGS
350
19
  3
ACAD_PLOTSTYLENAME
350
E
  0
DICTIONARY
  5
D
102
{ACAD_REACTORS
330
C
102
}
100
AcDbDictionary
280
0
281
1
  0
ACDBDICTIONARYWDFLT
  5
E
102
{ACAD_REACTORS
330
C
102
}
100
AcDbDictionary
281
1
  3
Normal
350
F
100
AcDbDictionaryWithDefault
340
F
  0
DICTIONARY
  5
17
102
{ACAD_REACTORS
330
C
102
}
100
AcDbDictionary
280
0
281
1
  3
Standard
350
18
  0
DICTIONARY
  5
19
102
{ACAD_REACTORS
330
C
102
}
100
AcDbDictionary
281
1
  0
DICTIONARY
  5
1A
102
{ACAD_REACTORS
330
C
102
}
100
AcDbDictionary
281
1
  3
Model
350
2BC
  3
Layout1
350
2BD
  0
ACDBPLACEHOLDER
  5
F
102
{ACAD_REACTORS
330
E
102
}
  0
MLINESTYLE
  5
18
102
{ACAD_REACTORS
330
17
102
}
100
AcDbMlineStyle
  2
STANDARD
 70
0
  3

 62
256
 51
90.0
 52
90.0
 71
2
 49
0.5
 62
256
  6
BYLAYER
 49
-0.5
 62
256
  6
BYLAYER
  0
LAYOUT
  5
2BC
102
{ACAD_REACTORS
330
1A
102
}
100
AcDbPlotSettings
  1

  2
none_device
  4

  6

 40
0.0
 41
0.0
 42
0.0
 43
0.0
 44
210.0
 45
297.0
 46
0.0
 47
0.0
 48
0.0
 49
0.0
140
0.0
141
0.0
142
1.0
143
1.0
 70
1024
 72
1
 73
0
 74
0
  7

 75
0
147
1.0
148
0.0
149
0.0
100
AcDbLayout
  1
Model
 70
0
 71
0
 10
0.0
 20
0.0
 11
210.0
 21
297.0
 12
0.0
 22
0.0
 32
0.0
 14
0.0
 24
0.0
 34
0.0
 15
0.0
 25
0.0
 35
0.0
146
0.0
 13
0.0
 23
0.0
 33
0.0
 16
1.0
 26
0.0
 36
0.0
 17
0.0
 27
1.0
 37
0.0
 76
0
330
210
345
0
346
0
  0
LAYOUT
  5
2BD
102
{ACAD_REACTORS
330
1A
102
}
100
AcDbPlotSettings
  1

  2
none_device
  4

  6

 40
0.0
 41
0.0
 42
0.0
 43
0.0
 44
210.0
 45
297.0
 46
0.0
 47
0.0
 48
0.0
 49
0.0
140
0.0
141
0.0
142
1.0
143
1.0
 70
0
 72
1
 73
0
 74
0
  7

 75
0
147
1.0
148
0.0
149
0.0
100
AcDbLayout
  1
Layout1
 70
0
 71
1
 10
0.0
 20
0.0
 11
210.0
 21
297.0
 12
0.0
 22
0.0
 32
0.0
 14
0.0
 24
0.0
 34
0.0
 15
0.0
 25
0.0
 35
0.0
146
0.0
 13
0.0
 23
0.0
 33
0.0
 16
1.0
 26
0.0
 36
0.0
 17
0.0
 27
1.0
 37
0.0
 76
0
330
211
345
0
346
0
  0
ENDSEC
  0
EOF
