999
DXF file: C:\Users\sesa63760\OneDrive - Schneider Electric\Documents\7-Dev\_Creo\CAD\MCADPP0000101_3D-CAD\drw0001_3.dxf
999
Pro/ENGINEER 2019471 by Parametric Technology Corporation
  0
SECTION
  2
HEADER
  9
$ACADVER
  1
AC1024
  9
$DWGCODEPAGE
  3
ANSI_1252
  9
$EXTMAX
 10
494.5208260667
 20
699.3937397229
 30
0.0
  9
$EXTMIN
 10
0.0
 20
0.0
 30
0.0
  9
$LIMMIN
 10
0.0
 20
0.0
  9
$LIMMAX
 10
494.5208260667
 20
699.3937397229
  9
$VIEWCTR
 10
247.2604130334
 20
349.6968698615
  9
$VIEWSIZE
 40
699.3937397229
  9
$CLAYER
  8
0
  9
$LTSCALE
 40
45.5901104412
  9
$CELTYPE
  6
BYLAYER
  9
$DIMSCALE
 40
1.0
  9
$DIMASZ
 40
5.8871526913
  9
$DIMEXO
 40
1.0
  9
$DIMDLI
 40
31.4986217594
  9
$DIMEXE
 40
1.0
  9
$DIMCEN
 40
7.4601998904
  9
$DIMLFAC
 40
1.0
  9
$DIMBLK
  1
_FILLED
  9
$DIMALT
 70
0
  9
$DIMALTF
 40
0.0393700787
  9
$DIMTXT
 40
8.2420137678
  9
$DIMTOL
 70
1
  9
$DIMLIM
 70
0
  9
$DIMTFAC
 40
1.0
  9
$DIMTP
 40
0.01
  9
$DIMTM
 40
0.01
  9
$DIMGAP
 40
0.625
  9
$DIMDSEP
 70
46
  9
$AUNITS
 70
0
  9
$PDMODE
 70
3
  9
$PDSIZE
 40
0.3125
  9
$HANDSEED
  5
278
  9
$TILEMODE
 70
1
  9
$MEASUREMENT
 70
1
  9
$INSUNITS
 70
4
  0
ENDSEC
  0
SECTION
  2
CLASSES
  0
CLASS
  1
ACDBDICTIONARYWDFLT
  2
AcDbDictionaryWithDefault
  3
AutoCAD 2000
 90
0
 91
1
280
0
281
0
  0
CLASS
  1
ACDBPLACEHOLDER
  2
AcDbPlaceHolder
  3
AutoCAD 2000
 90
0
 91
1
280
0
281
0
  0
CLASS
  1
LAYOUT
  2
AcDbLayout
  3
AutoCAD 2000
 90
0
 91
0
280
0
281
0
  0
ENDSEC
  0
SECTION
  2
TABLES
  0
TABLE
  2
VPORT
  5
8
100
AcDbSymbolTable
 70
2
  0
VPORT
  5
1F4
100
AcDbSymbolTableRecord
100
AcDbViewportTableRecord
  2
*ACTIVE
 70
0
 10
0.0
 20
0.0
 11
1.0
 21
1.0
 12
247.2604130334
 22
349.6968698615
 13
0.0
 23
0.0
 14
1.0
 24
1.0
 15
0.0
 25
0.0
 16
0.0
 26
0.0
 36
1.0
 17
0.0
 27
0.0
 37
0.0
 40
699.3937397229
 41
0.7070707071
 42
50.0
 43
0.0
 44
0.0
 50
0.0
 51
0.0
 71
0
 72
100
 73
1
 74
1
 75
0
 76
0
 77
0
 78
0
  0
ENDTAB
  0
TABLE
  2
LTYPE
  5
5
100
AcDbSymbolTable
 70
6
  0
LTYPE
  5
14
100
AcDbSymbolTableRecord
100
AcDbLinetypeTableRecord
  2
BYBLOCK
 70
0
  3

 72
65
 73
0
 40
0.0
  0
LTYPE
  5
15
100
AcDbSymbolTableRecord
100
AcDbLinetypeTableRecord
  2
BYLAYER
 70
0
  3

 72
65
 73
0
 40
0.0
  0
LTYPE
  5
16
100
AcDbSymbolTableRecord
100
AcDbLinetypeTableRecord
  2
CONTINUOUS
 70
64
  3
Solid line
 72
65
 73
0
 40
0.0
  0
LTYPE
  5
1F5
100
AcDbSymbolTableRecord
100
AcDbLinetypeTableRecord
  2
CENTER
 70
64
  3
____ _ ____ _ ____ _ ____ _ ____ _ ____ _ ____
 72
65
 73
4
 40
0.6
 49
0.375
 74
0
 49
-0.075
 74
0
 49
0.075
 74
0
 49
-0.075
 74
0
  0
LTYPE
  5
1F6
100
AcDbSymbolTableRecord
100
AcDbLinetypeTableRecord
  2
HIDDEN
 70
64
  3
- - - - - - - - - - - - - - - - - - - -
 72
65
 73
2
 40
0.2
 49
0.1
 74
0
 49
-0.1
 74
0
  0
LTYPE
  5
1F7
100
AcDbSymbolTableRecord
100
AcDbLinetypeTableRecord
  2
PHANTOM
 70
64
  3
_____ _ _ _____ _ _ _____ _ _ _____
 72
65
 73
6
 40
0.8
 49
0.45
 74
0
 49
-0.05
 74
0
 49
0.1
 74
0
 49
-0.05
 74
0
 49
0.1
 74
0
 49
-0.05
 74
0
  0
LTYPE
  5
1F8
100
AcDbSymbolTableRecord
100
AcDbLinetypeTableRecord
  2
DOT
 70
64
  3
. . . . . . . . . . . . . . . . . . . .
 72
65
 73
2
 40
0.2
 49
0.1
 74
0
 49
-0.1
 74
0
  0
LTYPE
  5
1F9
100
AcDbSymbolTableRecord
100
AcDbLinetypeTableRecord
  2
DASHED
 70
64
  3
- - - - - - - - - - - - - - - - - - - -
 72
65
 73
2
 40
0.2
 49
0.1
 74
0
 49
-0.1
 74
0
  0
ENDTAB
  0
TABLE
  2
LAYER
  5
2
100
AcDbSymbolTable
 70
36
  0
LAYER
  5
10
100
AcDbSymbolTableRecord
100
AcDbLayerTableRecord
  2
0
 70
0
 62
7
  6
CONTINUOUS
370
-3
390
F
  0
LAYER
  5
1FA
100
AcDbSymbolTableRecord
100
AcDbLayerTableRecord
  2
DEFAULT_1
 70
0
 62
7
  6
CENTER
370
-3
390
F
  0
LAYER
  5
1FB
100
AcDbSymbolTableRecord
100
AcDbLayerTableRecord
  2
DEFAULT_2
 70
0
 62
8
  6
HIDDEN
370
-3
390
F
  0
LAYER
  5
1FC
100
AcDbSymbolTableRecord
100
AcDbLayerTableRecord
  2
DEFAULT_3
 70
0
 62
7
  6
PHANTOM
370
-3
390
F
  0
LAYER
  5
1FD
100
AcDbSymbolTableRecord
100
AcDbLayerTableRecord
  2
00_COMPONENTS
 70
0
 62
7
  6
CONTINUOUS
370
-3
390
F
  0
LAYER
  5
1FE
100
AcDbSymbolTableRecord
100
AcDbLayerTableRecord
  2
01_1_DEFAULT_DATUMS
 70
0
 62
7
  6
CONTINUOUS
370
-3
390
F
  0
LAYER
  5
1FF
100
AcDbSymbolTableRecord
100
AcDbLayerTableRecord
  2
01_PLANES
 70
0
 62
7
  6
CONTINUOUS
370
-3
390
F
  0
LAYER
  5
200
100
AcDbSymbolTableRecord
100
AcDbLayerTableRecord
  2
02_COORD_SYS
 70
0
 62
7
  6
CONTINUOUS
370
-3
390
F
  0
LAYER
  5
201
100
AcDbSymbolTableRecord
100
AcDbLayerTableRecord
  2
03_AXES
 70
0
 62
7
  6
CONTINUOUS
370
-3
390
F
  0
LAYER
  5
202
100
AcDbSymbolTableRecord
100
AcDbLayerTableRecord
  2
04_POINTS
 70
0
 62
7
  6
CONTINUOUS
370
-3
390
F
  0
LAYER
  5
203
100
AcDbSymbolTableRecord
100
AcDbLayerTableRecord
  2
05_CURVES
 70
0
 62
7
  6
CONTINUOUS
370
-3
390
F
  0
LAYER
  5
204
100
AcDbSymbolTableRecord
100
AcDbLayerTableRecord
  2
06_SURFS
 70
0
 62
7
  6
CONTINUOUS
370
-3
390
F
  0
LAYER
  5
205
100
AcDbSymbolTableRecord
100
AcDbLayerTableRecord
  2
07_COSMETICS
 70
0
 62
7
  6
CONTINUOUS
370
-3
390
F
  0
LAYER
  5
206
100
AcDbSymbolTableRecord
100
AcDbLayerTableRecord
  2
10_NOTES
 70
0
 62
7
  6
CONTINUOUS
370
-3
390
F
  0
LAYER
  5
207
100
AcDbSymbolTableRecord
100
AcDbLayerTableRecord
  2
11_NOTES_PUB
 70
0
 62
7
  6
CONTINUOUS
370
-3
390
F
  0
LAYER
  5
208
100
AcDbSymbolTableRecord
100
AcDbLayerTableRecord
  2
13_REF_GTOL
 70
0
 62
7
  6
CONTINUOUS
370
-3
390
F
  0
LAYER
  5
209
100
AcDbSymbolTableRecord
100
AcDbLayerTableRecord
  2
16_MISC
 70
0
 62
7
  6
CONTINUOUS
370
-3
390
F
  0
LAYER
  5
20A
100
AcDbSymbolTableRecord
100
AcDbLayerTableRecord
  2
17_NO_PRINT
 70
0
 62
7
  6
CONTINUOUS
370
-3
390
F
  0
LAYER
  5
20B
100
AcDbSymbolTableRecord
100
AcDbLayerTableRecord
  2
18_DATUM_CAMS_JOINTS
 70
0
 62
7
  6
CONTINUOUS
370
-3
390
F
  0
LAYER
  5
20C
100
AcDbSymbolTableRecord
100
AcDbLayerTableRecord
  2
19_DATUM_FUNCTIONAL
 70
0
 62
7
  6
CONTINUOUS
370
-3
390
F
  0
LAYER
  5
20D
100
AcDbSymbolTableRecord
100
AcDbLayerTableRecord
  2
20_DATUM_KINEMATIC_SCHEME
 70
0
 62
7
  6
CONTINUOUS
370
-3
390
F
  0
ENDTAB
  0
TABLE
  2
STYLE
  5
3
100
AcDbSymbolTable
 70
1
  0
STYLE
  5
11
100
AcDbSymbolTableRecord
100
AcDbTextStyleTableRecord
  2
STANDARD
 70
0
 40
0.0
 41
0.8
 50
0.0
 71
0
 42
0.2
  3
txt
  4

  0
STYLE
  5
20E
100
AcDbSymbolTableRecord
100
AcDbTextStyleTableRecord
  2
TEXTSTYLE_1
 70
0
 40
0.0
 41
0.8
 50
0.0
 71
0
 42
0.2
  3
gdt
  4

  0
ENDTAB
  0
TABLE
  2
VIEW
  5
6
100
AcDbSymbolTable
 70
0
  0
ENDTAB
  0
TABLE
  2
UCS
  5
7
100
AcDbSymbolTable
 70
0
  0
ENDTAB
  0
TABLE
  2
APPID
  5
9
100
AcDbSymbolTable
 70
1
  0
APPID
  5
20F
100
AcDbSymbolTableRecord
100
AcDbRegAppTableRecord
  2
ACAD
 70
0
  0
ENDTAB
  0
TABLE
  2
BLOCK_RECORD
  5
1
100
AcDbSymbolTable
 70
0
  0
BLOCK_RECORD
  5
210
100
AcDbSymbolTableRecord
100
AcDbBlockTableRecord
  2
*Model_Space
  0
BLOCK_RECORD
  5
211
100
AcDbSymbolTableRecord
100
AcDbBlockTableRecord
  2
*Paper_Space
  0
BLOCK_RECORD
  5
212
100
AcDbSymbolTableRecord
100
AcDbBlockTableRecord
  2
_FILLED
  0
ENDTAB
  0
TABLE
  2
DIMSTYLE
  5
A
100
AcDbSymbolTable
 70
1
100
AcDbDimStyleTable
 71
0
  0
DIMSTYLE
105
213
100
AcDbSymbolTableRecord
100
AcDbDimStyleTableRecord
  2
STANDARD
 70
0
  3

  4

 40
1.0
 41
5.8871526913
 42
1.0
 43
0.38
 44
1.0
 45
0.0
 46
0.0
 47
0.01
 48
0.01
140
8.2420137678
141
0.09
142
0.0
143
25.4
144
1.0
145
0.0
146
1.0
147
0.625
 71
1
 72
0
 73
0
 74
0
 75
0
 76
0
 77
1
 78
8
 79
2
170
0
171
1
172
0
173
0
174
0
175
0
176
0
177
0
178
0
270
2
179
2
271
2
272
2
273
2
274
2
275
0
280
0
281
0
282
0
283
1
284
8
285
0
286
0
287
3
288
0
340
11
278
46
341
212
342
212
343
212
344
212
  0
ENDTAB
  0
ENDSEC
  0
SECTION
  2
BLOCKS
  0
BLOCK
  5
20
100
AcDbEntity
  8
0
100
AcDbBlockBegin
  2
*Model_Space
 70
0
 10
0.0
 20
0.0
 30
0.0
  3
*Model_Space
  1

  0
ENDBLK
  5
21
100
AcDbEntity
  8
0
100
AcDbBlockEnd
  0
BLOCK
  5
1C
100
AcDbEntity
  8
0
100
AcDbBlockBegin
  2
*Paper_Space
 70
0
 10
0.0
 20
0.0
 30
0.0
  3
*Paper_Space
  1

  0
ENDBLK
  5
1D
100
AcDbEntity
  8
0
100
AcDbBlockEnd
  0
BLOCK
  5
214
100
AcDbEntity
  8
0
100
AcDbBlockBegin
  2
_FILLED
 70
64
 10
0.0
 20
0.0
  3
_FILLED
  1

  0
SOLID
  5
215
100
AcDbEntity
  8
0
  6
BYBLOCK
 62
0
100
AcDbTrace
 10
0.0
 20
0.0
 11
-1.0
 21
0.25
 12
-1.0
 22
-0.25
 13
-1.0
 23
-0.25
  0
ENDBLK
  5
216
100
AcDbEntity
  8
0
  6
BYBLOCK
 62
0
100
AcDbBlockEnd
  0
ENDSEC
  0
SECTION
  2
ENTITIES
  0
LINE
  5
217
100
AcDbEntity
  8
0
100
AcDbLine
 62
7
  6
CONTINUOUS
 10
306.3588217455
 20
56.0713463303
 11
201.8588217455
 21
56.0713463303
  0
LINE
  5
218
100
AcDbEntity
  8
0
100
AcDbLine
 62
7
  6
CONTINUOUS
 10
306.3757858384
 20
69.8713463303
 11
306.3588217455
 21
69.8713463303
  0
LINE
  5
219
100
AcDbEntity
  8
0
100
AcDbLine
 62
7
  6
CONTINUOUS
 10
201.8588217455
 20
69.8713463303
 11
201.8418576526
 21
69.8713463303
  0
LINE
  5
21A
100
AcDbEntity
  8
0
100
AcDbLine
 62
7
  6
CONTINUOUS
 10
306.3588217455
 20
70.5213463303
 11
201.8588217455
 21
70.5213463303
  0
LINE
  5
21B
100
AcDbEntity
  8
0
100
AcDbLine
 62
7
  6
CONTINUOUS
 10
299.6088217455
 20
105.5713463303
 11
208.6088217455
 21
105.5713463303
  0
LINE
  5
21C
100
AcDbEntity
  8
0
100
AcDbLine
 62
7
  6
CONTINUOUS
 10
245.3589722383
 20
109.1213463303
 11
281.3586712526
 21
109.1213463303
  0
LINE
  5
21D
100
AcDbEntity
  8
0
100
AcDbLine
 62
7
  6
CONTINUOUS
 10
281.3586712526
 20
110.6413463303
 11
245.3589722383
 21
110.6413463303
  0
LINE
  5
21E
100
AcDbEntity
  8
0
100
AcDbLine
 62
7
  6
CONTINUOUS
 10
277.7240575597
 20
117.1189311138
 11
274.2236841843
 21
117.1189311138
  0
LINE
  5
21F
100
AcDbEntity
  8
0
100
AcDbLine
 62
7
  6
CONTINUOUS
 10
272.8094706219
 20
117.1189311138
 11
264.3588217455
 21
117.1189311138
  0
LINE
  5
220
100
AcDbEntity
  8
0
100
AcDbLine
 62
7
  6
CONTINUOUS
 10
262.3588217455
 20
117.1189311138
 11
253.908172869
 21
117.1189311138
  0
LINE
  5
221
100
AcDbEntity
  8
0
100
AcDbLine
 62
7
  6
CONTINUOUS
 10
252.4939593067
 20
117.1189311138
 11
248.9935859312
 21
117.1189311138
  0
LINE
  5
222
100
AcDbEntity
  8
0
100
AcDbLine
 62
7
  6
CONTINUOUS
 10
248.9588233835
 20
120.1189311138
 11
277.7588201074
 21
120.1189311138
  0
LINE
  5
223
100
AcDbEntity
  8
0
100
AcDbLine
 62
7
  6
CONTINUOUS
 10
254.4783137468
 20
135.6712977487
 11
272.2393297441
 21
135.6712977487
  0
LINE
  5
224
100
AcDbEntity
  8
0
100
AcDbLine
 62
7
  6
CONTINUOUS
 10
251.4784561725
 20
141.6712977487
 11
275.2391873184
 21
141.6712977487
  0
LINE
  5
225
100
AcDbEntity
  8
0
100
AcDbLine
 62
7
  6
CONTINUOUS
 10
275.2391873184
 20
153.6712977487
 11
251.4784561725
 21
153.6712977487
  0
LINE
  5
226
100
AcDbEntity
  8
0
100
AcDbLine
 62
7
  6
CONTINUOUS
 10
275.9196747974
 20
636.2716465862
 11
277.6601267969
 21
641.6072121371
  0
LINE
  5
227
100
AcDbEntity
  8
0
100
AcDbLine
 62
7
  6
CONTINUOUS
 10
201.8418576526
 20
69.8713463303
 11
201.8418576526
 21
67.8713463303
  0
LINE
  5
228
100
AcDbEntity
  8
0
100
AcDbLine
 62
7
  6
CONTINUOUS
 10
201.8588217455
 20
56.0713463303
 11
201.8588217455
 21
70.5213463303
  0
LINE
  5
229
100
AcDbEntity
  8
0
100
AcDbLine
 62
7
  6
CONTINUOUS
 10
208.6088217455
 20
70.5213463303
 11
208.6088217455
 21
105.5713463303
  0
LINE
  5
22A
100
AcDbEntity
  8
0
100
AcDbLine
 62
7
  6
CONTINUOUS
 10
225.8632189417
 20
600.1512977487
 11
225.8632189417
 21
613.5465977487
  0
LINE
  5
22B
100
AcDbEntity
  8
0
100
AcDbLine
 62
7
  6
CONTINUOUS
 10
233.5132189417
 20
600.1512977487
 11
233.5132189417
 21
598.1712977487
  0
LINE
  5
22C
100
AcDbEntity
  8
0
100
AcDbLine
 62
7
  6
CONTINUOUS
 10
235.8632189417
 20
613.5465977487
 11
235.8632189417
 21
619.2845060987
  0
LINE
  5
22D
100
AcDbEntity
  8
0
100
AcDbLine
 62
7
  6
CONTINUOUS
 10
257.6075192869
 20
120.1189311138
 11
257.0644186766
 21
135.6712977487
  0
LINE
  5
22E
100
AcDbEntity
  8
0
100
AcDbLine
 62
7
  6
CONTINUOUS
 10
238.8632189417
 20
598.1712977487
 11
238.8632189417
 21
592.5512977487
  0
LINE
  5
22F
100
AcDbEntity
  8
0
100
AcDbLine
 62
7
  6
CONTINUOUS
 10
245.3588217455
 20
110.6413463303
 11
245.3588217455
 21
109.1213463303
  0
LINE
  5
230
100
AcDbEntity
  8
0
100
AcDbLine
 62
7
  6
CONTINUOUS
 10
248.9588217455
 20
120.1189311138
 11
248.9588217455
 21
110.6413463303
  0
LINE
  5
231
100
AcDbEntity
  8
0
100
AcDbLine
 62
7
  6
CONTINUOUS
 10
248.9935859312
 20
120.1189311138
 11
248.9935859312
 21
117.1189311138
  0
LINE
  5
232
100
AcDbEntity
  8
0
100
AcDbLine
 62
7
  6
CONTINUOUS
 10
250.8588217455
 20
109.1213463303
 11
250.8588217455
 21
105.5713463303
  0
LINE
  5
233
100
AcDbEntity
  8
0
100
AcDbLine
 62
7
  6
CONTINUOUS
 10
251.4005610024
 20
117.1189311138
 11
251.4005610024
 21
120.1189311138
  0
LINE
  5
234
100
AcDbEntity
  8
0
100
AcDbLine
 62
7
  6
CONTINUOUS
 10
251.478304324
 20
153.6712977487
 11
251.478304324
 21
141.6712977487
  0
LINE
  5
235
100
AcDbEntity
  8
0
100
AcDbLine
 62
7
  6
CONTINUOUS
 10
252.4939593067
 20
117.1189311138
 11
252.4939593067
 21
120.1189311138
  0
LINE
  5
236
100
AcDbEntity
  8
0
100
AcDbLine
 62
7
  6
CONTINUOUS
 10
253.908172869
 20
120.1189311138
 11
253.908172869
 21
117.1189311138
  0
LINE
  5
237
100
AcDbEntity
  8
0
100
AcDbLine
 62
7
  6
CONTINUOUS
 10
254.478304324
 20
141.6712977487
 11
254.478304324
 21
135.6712977487
  0
LINE
  5
238
100
AcDbEntity
  8
0
100
AcDbLine
 62
7
  6
CONTINUOUS
 10
255.610161264
 20
117.1189311138
 11
255.610161264
 21
120.1189311138
  0
LINE
  5
239
100
AcDbEntity
  8
0
100
AcDbLine
 62
7
  6
CONTINUOUS
 10
256.1238707582
 20
616.6065977487
 11
256.1238707582
 21
613.5465977487
  0
LINE
  5
23A
100
AcDbEntity
  8
0
100
AcDbLine
 62
7
  6
CONTINUOUS
 10
257.578782517
 20
616.6065977487
 11
257.578782517
 21
613.5465977487
  0
LINE
  5
23B
100
AcDbEntity
  8
0
100
AcDbLine
 62
7
  6
CONTINUOUS
 10
258.3588217456
 20
592.5512977487
 11
258.3588217456
 21
153.6712977487
  0
LINE
  5
23C
100
AcDbEntity
  8
0
100
AcDbLine
 62
7
  6
CONTINUOUS
 10
262.3588217455
 20
117.1189311138
 11
262.3588217455
 21
120.1189311138
  0
LINE
  5
23D
100
AcDbEntity
  8
0
100
AcDbLine
 62
7
  6
CONTINUOUS
 10
264.3588217455
 20
120.1189311138
 11
264.3588217455
 21
117.1189311138
  0
LINE
  5
23E
100
AcDbEntity
  8
0
100
AcDbLine
 62
7
  6
CONTINUOUS
 10
268.3588217456
 20
592.5512977487
 11
268.3588217456
 21
153.6712977487
  0
LINE
  5
23F
100
AcDbEntity
  8
0
100
AcDbLine
 62
7
  6
CONTINUOUS
 10
271.1074822269
 20
120.1189311138
 11
271.1074822269
 21
117.1189311138
  0
LINE
  5
240
100
AcDbEntity
  8
0
100
AcDbLine
 62
7
  6
CONTINUOUS
 10
272.239339167
 20
141.6712977487
 11
272.239339167
 21
135.6712977487
  0
LINE
  5
241
100
AcDbEntity
  8
0
100
AcDbLine
 62
7
  6
CONTINUOUS
 10
272.8094706219
 20
117.1189311138
 11
272.8094706219
 21
120.1189311138
  0
LINE
  5
242
100
AcDbEntity
  8
0
100
AcDbLine
 62
7
  6
CONTINUOUS
 10
274.2236841843
 20
120.1189311138
 11
274.2236841843
 21
117.1189311138
  0
LINE
  5
243
100
AcDbEntity
  8
0
100
AcDbLine
 62
7
  6
CONTINUOUS
 10
275.239339167
 20
153.6712977487
 11
275.239339167
 21
141.6712977487
  0
LINE
  5
244
100
AcDbEntity
  8
0
100
AcDbLine
 62
7
  6
CONTINUOUS
 10
275.3170824886
 20
120.1189311138
 11
275.3170824886
 21
117.1189311138
  0
LINE
  5
245
100
AcDbEntity
  8
0
100
AcDbLine
 62
7
  6
CONTINUOUS
 10
275.8588217455
 20
109.1213463303
 11
275.8588217455
 21
105.5713463303
  0
LINE
  5
246
100
AcDbEntity
  8
0
100
AcDbLine
 62
7
  6
CONTINUOUS
 10
277.7240575597
 20
117.1189311138
 11
277.7240575597
 21
120.1189311138
  0
LINE
  5
247
100
AcDbEntity
  8
0
100
AcDbLine
 62
7
  6
CONTINUOUS
 10
277.7588217455
 20
120.1189311138
 11
277.7588217455
 21
110.6413463303
  0
LINE
  5
248
100
AcDbEntity
  8
0
100
AcDbLine
 62
7
  6
CONTINUOUS
 10
281.3588217455
 20
110.6413463303
 11
281.3588217455
 21
109.1213463303
  0
LINE
  5
249
100
AcDbEntity
  8
0
100
AcDbLine
 62
7
  6
CONTINUOUS
 10
287.8632189417
 20
598.1712977487
 11
287.8632189417
 21
592.5512977487
  0
LINE
  5
24A
100
AcDbEntity
  8
0
100
AcDbLine
 62
7
  6
CONTINUOUS
 10
290.8632189417
 20
616.6065977487
 11
290.8632189417
 21
618.7871613772
  0
LINE
  5
24B
100
AcDbEntity
  8
0
100
AcDbLine
 62
7
  6
CONTINUOUS
 10
293.2132189417
 20
600.1512977487
 11
293.2132189417
 21
598.1712977487
  0
LINE
  5
24C
100
AcDbEntity
  8
0
100
AcDbLine
 62
7
  6
CONTINUOUS
 10
269.110124204
 20
120.1189311138
 11
269.6532248143
 21
135.6712977487
  0
LINE
  5
24D
100
AcDbEntity
  8
0
100
AcDbLine
 62
7
  6
CONTINUOUS
 10
299.6088217455
 20
70.5213463303
 11
299.6088217455
 21
105.5713463303
  0
LINE
  5
24E
100
AcDbEntity
  8
0
100
AcDbLine
 62
7
  6
CONTINUOUS
 10
300.8632189417
 20
600.1512977487
 11
300.8632189417
 21
616.6065977487
  0
LINE
  5
24F
100
AcDbEntity
  8
0
100
AcDbLine
 62
7
  6
CONTINUOUS
 10
306.3588217455
 20
56.0713463303
 11
306.3588217455
 21
70.5213463303
  0
LINE
  5
250
100
AcDbEntity
  8
0
100
AcDbLine
 62
7
  6
CONTINUOUS
 10
306.3757858384
 20
69.8713463303
 11
306.3757858384
 21
67.8713463303
  0
LINE
  5
251
100
AcDbEntity
  8
0
100
AcDbLine
 62
7
  6
CONTINUOUS
 10
238.8635399394
 20
592.5512977487
 11
287.8628979441
 21
592.5512977487
  0
LINE
  5
252
100
AcDbEntity
  8
0
100
AcDbLine
 62
7
  6
CONTINUOUS
 10
233.5132354168
 20
598.1712977487
 11
293.2132024666
 21
598.1712977487
  0
LINE
  5
253
100
AcDbEntity
  8
0
100
AcDbLine
 62
7
  6
CONTINUOUS
 10
225.8632189417
 20
600.1512977487
 11
300.8632189417
 21
600.1512977487
  0
LINE
  5
254
100
AcDbEntity
  8
0
100
AcDbLine
 62
7
  6
CONTINUOUS
 10
257.578782517
 20
613.5465977487
 11
225.8632189417
 21
613.5465977487
  0
LINE
  5
255
100
AcDbEntity
  8
0
100
AcDbLine
 62
7
  6
CONTINUOUS
 10
279.2468879086
 20
618.4440318854
 11
276.7582533123
 21
618.4395582552
  0
LINE
  5
256
100
AcDbEntity
  8
0
100
AcDbLine
 62
7
  6
CONTINUOUS
 10
256.1238707582
 20
616.6065977487
 11
300.8632189417
 21
616.6065977487
  0
LINE
  5
257
100
AcDbEntity
  8
0
100
AcDbLine
 62
7
  6
CONTINUOUS
 10
253.371416501
 20
644.2853588584
 11
286.441050618
 21
644.2853588584
  0
LINE
  5
258
100
AcDbEntity
  8
0
100
AcDbLine
 62
7
  6
CONTINUOUS
 10
286.492330471
 20
646.7465977487
 11
240.2673831354
 21
646.7465977487
  0
LINE
  5
259
100
AcDbEntity
  8
0
100
AcDbLine
 62
7
  6
CONTINUOUS
 10
288.5552098151
 20
618.4440335449
 11
289.5889795921
 21
618.4395579301
  0
ARC
  5
25A
100
AcDbEntity
  8
0
100
AcDbCircle
 62
7
  6
CONTINUOUS
 10
282.2162652953
 20
639.4476040267
 40
6.9866507244
100
AcDbArc
 50
180.0082522349
 51
206.1325200359
  0
ARC
  5
25B
100
AcDbEntity
  8
0
100
AcDbCircle
 62
7
  6
CONTINUOUS
 10
282.2125147825
 20
639.4460275799
 40
6.9829001625
100
AcDbArc
 50
149.0806079361
 51
179.9953216765
  0
SPLINE
  5
25C
100
AcDbEntity
  8
0
100
AcDbSpline
 62
7
  6
CONTINUOUS
 70
0
 71
3
 72
21
 73
17
 74
0
 42
0.0000001
 43
0.0000001
 44
0.0000000001
 40
0.0
 40
0.0
 40
0.0
 40
0.0
 40
0.0067276285
 40
0.0157296945
 40
0.0272635322
 40
0.0414741483
 40
0.0780490171
 40
0.1248978857
 40
0.1804773057
 40
0.2428559679
 40
0.3102397665
 40
0.3812133121
 40
0.5301833584
 40
0.6846471227
 40
0.8418316847
 40
1.0
 40
1.0
 40
1.0
 40
1.0
 10
290.8632146924
 20
618.7871433162
 30
0.0
 10
290.8632141855
 20
618.845536868
 30
0.0
 10
290.844612
 20
618.9817404897
 30
0.0
 10
290.7855512732
 20
619.2109204495
 30
0.0
 10
290.6927893942
 20
619.4980620293
 30
0.0
 10
290.5112299239
 20
620.0075775298
 30
0.0
 10
290.2135758253
 20
620.80105688
 30
0.0
 10
289.8052875276
 20
621.9364379439
 30
0.0
 10
289.3537030695
 20
623.2939502317
 30
0.0
 10
288.8897901519
 20
624.8345541506
 30
0.0
 10
288.4367868462
 20
626.5172257454
 30
0.0
 10
287.8588972238
 20
628.943560822
 30
0.0
 10
287.2482444126
 20
632.1375165926
 30
0.0
 10
286.7284832535
 20
636.1038461974
 30
0.0
 10
286.4370974795
 20
640.1737074953
 30
0.0
 10
286.4123934382
 20
642.9128102256
 30
0.0
 10
286.441050618
 20
644.2853588584
 30
0.0
  0
SPLINE
  5
25D
100
AcDbEntity
  8
0
100
AcDbSpline
 62
7
  6
CONTINUOUS
 70
0
 71
3
 72
9
 73
5
 74
0
 42
0.0000001
 43
0.0000001
 44
0.0000000001
 40
0.0
 40
0.0
 40
0.0
 40
0.0
 40
0.4986304014
 40
1.0
 40
1.0
 40
1.0
 40
1.0
 10
263.3421029786
 20
641.181245927
 30
0.0
 10
263.2090084021
 20
640.9140060243
 30
0.0
 10
262.9982321929
 20
640.3476964779
 30
0.0
 10
262.9247924904
 20
639.7467865181
 30
0.0
 10
262.9247924904
 20
639.4465977487
 30
0.0
  0
SPLINE
  5
25E
100
AcDbEntity
  8
0
100
AcDbSpline
 62
7
  6
CONTINUOUS
 70
0
 71
3
 72
11
 73
7
 74
0
 42
0.0000001
 43
0.0000001
 44
0.0000000001
 40
0.0
 40
0.0
 40
0.0
 40
0.0
 40
0.238509353
 40
0.4879207295
 40
0.742746455
 40
1.0
 40
1.0
 40
1.0
 40
1.0
 10
261.4088085245
 20
643.2215496576
 30
0.0
 10
261.7322398373
 20
643.0396177876
 30
0.0
 10
262.3537433592
 20
642.591711718
 30
0.0
 10
263.1276048938
 20
641.7195158033
 30
0.0
 10
263.6694931379
 20
640.6489330544
 30
0.0
 10
263.801645393
 20
639.8468501931
 30
0.0
 10
263.801645393
 20
639.4465977487
 30
0.0
  0
SPLINE
  5
25F
100
AcDbEntity
  8
0
100
AcDbSpline
 62
7
  6
CONTINUOUS
 70
0
 71
3
 72
11
 73
7
 74
0
 42
0.0000001
 43
0.0000001
 44
0.0000000001
 40
0.0
 40
0.0
 40
0.0
 40
0.0
 40
0.238509353
 40
0.4879207295
 40
0.742746455
 40
1.0
 40
1.0
 40
1.0
 40
1.0
 10
268.6740689047
 20
643.2215496576
 30
0.0
 10
268.9975002175
 20
643.0396177876
 30
0.0
 10
269.6190037395
 20
642.591711718
 30
0.0
 10
270.392865274
 20
641.7195158033
 30
0.0
 10
270.9347535181
 20
640.6489330544
 30
0.0
 10
271.0669057733
 20
639.8468501931
 30
0.0
 10
271.0669057733
 20
639.4465977487
 30
0.0
  0
SPLINE
  5
260
100
AcDbEntity
  8
0
100
AcDbSpline
 62
7
  6
CONTINUOUS
 70
0
 71
3
 72
11
 73
7
 74
0
 42
0.0000001
 43
0.0000001
 44
0.0000000001
 40
0.0
 40
0.0
 40
0.0
 40
0.0
 40
0.238509353
 40
0.4879207295
 40
0.742746455
 40
1.0
 40
1.0
 40
1.0
 40
1.0
 10
275.9393292849
 20
643.2215496576
 30
0.0
 10
276.2627605977
 20
643.0396177876
 30
0.0
 10
276.8842641197
 20
642.591711718
 30
0.0
 10
277.6581256543
 20
641.7195158033
 30
0.0
 10
278.2000138984
 20
640.6489330544
 30
0.0
 10
278.3321661535
 20
639.8468501931
 30
0.0
 10
278.3321661535
 20
639.4465977487
 30
0.0
  0
SPLINE
  5
261
100
AcDbEntity
  8
0
100
AcDbSpline
 62
7
  6
CONTINUOUS
 70
0
 71
3
 72
11
 73
7
 74
0
 42
0.0000001
 43
0.0000001
 44
0.0000000001
 40
0.0
 40
0.0
 40
0.0
 40
0.0
 40
0.2558088634
 40
0.5095792121
 40
0.7588982627
 40
1.0
 40
1.0
 40
1.0
 40
1.0
 10
278.3321661535
 20
639.4465977487
 30
0.0
 10
278.3321661535
 20
639.0799560615
 30
0.0
 10
278.2216802835
 20
638.3453822808
 30
0.0
 10
277.7618386038
 20
637.3463203585
 30
0.0
 10
277.0905723183
 20
636.5062015919
 30
0.0
 10
276.5429955926
 20
636.0567509655
 30
0.0
 10
276.2552770653
 20
635.8653574353
 30
0.0
  0
SPLINE
  5
262
100
AcDbEntity
  8
0
100
AcDbSpline
 62
7
  6
CONTINUOUS
 70
0
 71
3
 72
9
 73
5
 74
0
 42
0.0000001
 43
0.0000001
 44
0.0000000001
 40
0.0
 40
0.0
 40
0.0
 40
0.0
 40
0.4162990355
 40
1.0
 40
1.0
 40
1.0
 40
1.0
 10
288.5552153213
 20
618.4432327651
 30
0.0
 10
287.2635409575
 20
618.4479093058
 30
0.0
 10
284.1607567006
 20
618.4500143598
 30
0.0
 10
281.0579833532
 20
618.4464538734
 30
0.0
 10
279.2468926305
 20
618.4432327651
 30
0.0
  0
SPLINE
  5
263
100
AcDbEntity
  8
0
100
AcDbSpline
 62
7
  6
CONTINUOUS
 70
0
 71
3
 72
11
 73
7
 74
0
 42
0.0000001
 43
0.0000001
 44
0.0000000001
 40
0.0
 40
0.0
 40
0.0
 40
0.0
 40
0.2558088634
 40
0.5095792121
 40
0.7588982627
 40
1.0
 40
1.0
 40
1.0
 40
1.0
 10
271.0669057733
 20
639.4465977487
 30
0.0
 10
271.0669057733
 20
639.0799560615
 30
0.0
 10
270.9564199033
 20
638.3453822808
 30
0.0
 10
270.4965782236
 20
637.3463203585
 30
0.0
 10
269.8253119381
 20
636.5062015919
 30
0.0
 10
269.2777352124
 20
636.0567509655
 30
0.0
 10
268.9900166851
 20
635.8653574353
 30
0.0
  0
SPLINE
  5
264
100
AcDbEntity
  8
0
100
AcDbSpline
 62
7
  6
CONTINUOUS
 70
0
 71
3
 72
19
 73
15
 74
0
 42
0.0000001
 43
0.0000001
 44
0.0000000001
 40
0.0
 40
0.0
 40
0.0
 40
0.0
 40
0.047496075
 40
0.0977001779
 40
0.1522389962
 40
0.2118131502
 40
0.3446425523
 40
0.4901308563
 40
0.6378517786
 40
0.7768360108
 40
0.8402836274
 40
0.8985248245
 40
0.9514742379
 40
1.0
 40
1.0
 40
1.0
 40
1.0
 10
262.6277614168
 20
643.6965977487
 30
0.0
 10
262.4501297583
 20
643.6965977487
 30
0.0
 10
262.0826198824
 20
643.6374020468
 30
0.0
 10
261.5655222337
 20
643.3831056919
 30
0.0
 10
261.0957230542
 20
642.9780855974
 30
0.0
 10
260.5380447263
 20
642.2348381734
 30
0.0
 10
260.0818899006
 20
641.0282397284
 30
0.0
 10
259.980196013
 20
639.4177124686
 30
0.0
 10
260.3215897154
 20
637.8180239992
 30
0.0
 10
260.942646804
 20
636.6406710463
 30
0.0
 10
261.5967260267
 20
635.9118508377
 30
0.0
 10
262.1188208597
 20
635.5118703597
 30
0.0
 10
262.6660002186
 20
635.2588574771
 30
0.0
 10
263.0469730474
 20
635.1965977487
 30
0.0
 10
263.2284556559
 20
635.1965977487
 30
0.0
  0
SPLINE
  5
265
100
AcDbEntity
  8
0
100
AcDbSpline
 62
7
  6
CONTINUOUS
 70
0
 71
3
 72
11
 73
7
 74
0
 42
0.0000001
 43
0.0000001
 44
0.0000000001
 40
0.0
 40
0.0
 40
0.0
 40
0.0
 40
0.2558088634
 40
0.5095792121
 40
0.7588982627
 40
1.0
 40
1.0
 40
1.0
 40
1.0
 10
263.801645393
 20
639.4465977487
 30
0.0
 10
263.801645393
 20
639.0799560615
 30
0.0
 10
263.6911595231
 20
638.3453822808
 30
0.0
 10
263.2313178433
 20
637.3463203585
 30
0.0
 10
262.5600515579
 20
636.5062015919
 30
0.0
 10
262.0124748322
 20
636.0567509655
 30
0.0
 10
261.7247563049
 20
635.8653574353
 30
0.0
  0
SPLINE
  5
266
100
AcDbEntity
  8
0
100
AcDbSpline
 62
7
  6
CONTINUOUS
 70
0
 71
3
 72
9
 73
5
 74
0
 42
0.0000001
 43
0.0000001
 44
0.0000000001
 40
0.0
 40
0.0
 40
0.0
 40
0.0
 40
0.501326916
 40
1.0
 40
1.0
 40
1.0
 40
1.0
 10
262.9247924904
 20
639.4465977487
 30
0.0
 10
262.9247924904
 20
639.1496322409
 30
0.0
 10
262.9966491306
 20
638.5551723608
 30
0.0
 10
263.2030542671
 20
637.9942087258
 30
0.0
 10
263.3335622506
 20
637.729208767
 30
0.0
  0
SPLINE
  5
267
100
AcDbEntity
  8
0
100
AcDbSpline
 62
7
  6
CONTINUOUS
 70
0
 71
3
 72
19
 73
15
 74
0
 42
0.0000001
 43
0.0000001
 44
0.0000000001
 40
0.0
 40
0.0
 40
0.0
 40
0.0
 40
0.047496075
 40
0.0977001779
 40
0.1522389962
 40
0.2118131502
 40
0.3446425523
 40
0.4901308563
 40
0.6378517786
 40
0.7768360108
 40
0.8402836274
 40
0.8985248245
 40
0.9514742379
 40
1.0
 40
1.0
 40
1.0
 40
1.0
 10
269.893021797
 20
643.6965977487
 30
0.0
 10
269.7153901386
 20
643.6965977487
 30
0.0
 10
269.3478802626
 20
643.6374020468
 30
0.0
 10
268.8307826139
 20
643.3831056919
 30
0.0
 10
268.3609834344
 20
642.9780855974
 30
0.0
 10
267.8033051065
 20
642.2348381734
 30
0.0
 10
267.3471502808
 20
641.0282397283
 30
0.0
 10
267.2454563933
 20
639.4177124686
 30
0.0
 10
267.5868500957
 20
637.8180239992
 30
0.0
 10
268.2079071842
 20
636.6406710463
 30
0.0
 10
268.861986407
 20
635.9118508377
 30
0.0
 10
269.3840812399
 20
635.5118703597
 30
0.0
 10
269.9312605988
 20
635.2588574771
 30
0.0
 10
270.3122334276
 20
635.1965977487
 30
0.0
 10
270.4937160361
 20
635.1965977487
 30
0.0
  0
SPLINE
  5
268
100
AcDbEntity
  8
0
100
AcDbSpline
 62
7
  6
CONTINUOUS
 70
0
 71
3
 72
19
 73
15
 74
0
 42
0.0000001
 43
0.0000001
 44
0.0000000001
 40
0.0
 40
0.0
 40
0.0
 40
0.0
 40
0.047496075
 40
0.0977001779
 40
0.1522389962
 40
0.2118131502
 40
0.3446425523
 40
0.4901308563
 40
0.6378517786
 40
0.7768360108
 40
0.8402836274
 40
0.8985248245
 40
0.9514742379
 40
1.0
 40
1.0
 40
1.0
 40
1.0
 10
277.1582821772
 20
643.6965977487
 30
0.0
 10
276.9806505188
 20
643.6965977487
 30
0.0
 10
276.6131406428
 20
643.6374020468
 30
0.0
 10
276.0960429941
 20
643.3831056919
 30
0.0
 10
275.6262438147
 20
642.9780855974
 30
0.0
 10
275.0685654867
 20
642.2348381734
 30
0.0
 10
274.612410661
 20
641.0282397284
 30
0.0
 10
274.5107167735
 20
639.4177124686
 30
0.0
 10
274.8521104759
 20
637.8180239992
 30
0.0
 10
275.4731675644
 20
636.6406710463
 30
0.0
 10
276.1272467872
 20
635.9118508377
 30
0.0
 10
276.6493416201
 20
635.5118703597
 30
0.0
 10
277.196520979
 20
635.2588574771
 30
0.0
 10
277.5774938078
 20
635.1965977487
 30
0.0
 10
277.7589764163
 20
635.1965977487
 30
0.0
  0
SPLINE
  5
269
100
AcDbEntity
  8
0
100
AcDbSpline
 62
7
  6
CONTINUOUS
 70
0
 71
3
 72
20
 73
16
 74
0
 42
0.0000001
 43
0.0000001
 44
0.0000000001
 40
0.0
 40
0.0
 40
0.0
 40
0.0
 40
0.1606632776
 40
0.3201817677
 40
0.4764398497
 40
0.6261954239
 40
0.6970158027
 40
0.7638011306
 40
0.8251267598
 40
0.8792936298
 40
0.9246061593
 40
0.9598372777
 40
0.9846716513
 40
0.9934117797
 40
1.0
 40
1.0
 40
1.0
 40
1.0
 10
240.3498954446
 20
643.6194864878
 30
0.0
 10
240.3852128312
 20
642.2854669607
 30
0.0
 10
240.3663608914
 20
639.6235285775
 30
0.0
 10
240.0600509472
 20
635.6750873819
 30
0.0
 10
239.5104813315
 20
631.8449319401
 30
0.0
 10
238.8678941461
 20
628.7792079262
 30
0.0
 10
238.2673491891
 20
626.4688163717
 30
0.0
 10
237.8032857601
 20
624.8827031117
 30
0.0
 10
237.3345611946
 20
623.4428218375
 30
0.0
 10
236.8856517085
 20
622.1847397248
 30
0.0
 10
236.4852216169
 20
621.1397125341
 30
0.0
 10
236.1655834276
 20
620.3253047823
 30
0.0
 10
235.9660214795
 20
619.7888499715
 30
0.0
 10
235.8805994844
 20
619.4662523405
 30
0.0
 10
235.8632242784
 20
619.3392104796
 30
0.0
 10
235.8632226564
 20
619.2844879937
 30
0.0
  0
SPLINE
  5
26A
100
AcDbEntity
  8
0
100
AcDbSpline
 62
7
  6
CONTINUOUS
 70
0
 71
3
 72
22
 73
18
 74
0
 42
0.0000001
 43
0.0000001
 44
0.0000000001
 40
0.0
 40
0.0
 40
0.0
 40
0.0
 40
0.0569041671
 40
0.1162162204
 40
0.1774096719
 40
0.2399316854
 40
0.3032023421
 40
0.3666923157
 40
0.4300857722
 40
0.4933182814
 40
0.556460227
 40
0.6196007006
 40
0.7459874161
 40
0.8093910618
 40
0.8728823005
 40
0.9364308712
 40
1.0
 40
1.0
 40
1.0
 40
1.0
 10
276.7582532292
 20
618.439652871
 30
0.0
 10
275.986581352
 20
618.4397313988
 30
0.0
 10
274.4105439294
 20
618.4432178196
 30
0.0
 10
272.0050439036
 20
618.4915416306
 30
0.0
 10
269.5263464234
 20
618.6589325548
 30
0.0
 10
267.0221406334
 20
619.0989212256
 30
0.0
 10
264.5740963225
 20
619.907190451
 30
0.0
 10
262.2898672257
 20
621.1344124397
 30
0.0
 10
260.2677152688
 20
622.7558001286
 30
0.0
 10
258.5516835364
 20
624.6875587924
 30
0.0
 10
257.1322809362
 20
626.8388005667
 30
0.0
 10
255.5930643949
 20
629.9067004919
 30
0.0
 10
254.523232735
 20
633.1877910963
 30
0.0
 10
253.8356117768
 20
636.5543533373
 30
0.0
 10
253.4955547048
 20
639.1169249137
 30
0.0
 10
253.3357932578
 20
641.6986051504
 30
0.0
 10
253.3406020752
 20
643.4238549921
 30
0.0
 10
253.371416501
 20
644.2853588584
 30
0.0
  0
SPLINE
  5
26B
100
AcDbEntity
  8
0
100
AcDbSpline
 62
7
  6
CONTINUOUS
 70
0
 71
3
 72
9
 73
5
 74
0
 42
0.0000001
 43
0.0000001
 44
0.0000000001
 40
0.0
 40
0.0
 40
0.0
 40
0.0
 40
0.4638308306
 40
1.0
 40
1.0
 40
1.0
 40
1.0
 10
268.1537700588
 20
636.8305559029
 30
0.0
 10
268.2142869912
 20
637.2312990315
 30
0.0
 10
268.2782107481
 20
638.1045871554
 30
0.0
 10
268.2947675541
 20
638.9781030977
 30
0.0
 10
268.2947675541
 20
639.4465977487
 30
0.0
  0
SPLINE
  5
26C
100
AcDbEntity
  8
0
100
AcDbSpline
 62
7
  6
CONTINUOUS
 70
0
 71
3
 72
20
 73
16
 74
0
 42
0.0000001
 43
0.0000001
 44
0.0000000001
 40
0.0
 40
0.0
 40
0.0
 40
0.0
 40
0.0479002477
 40
0.0964576485
 40
0.1485573152
 40
0.2060769328
 40
0.269632642
 40
0.3388156876
 40
0.4886389424
 40
0.6414156041
 40
0.781272989
 40
0.8432346281
 40
0.8994518033
 40
0.9509989992
 40
1.0
 40
1.0
 40
1.0
 40
1.0
 10
270.4937160361
 20
635.1965977487
 30
0.0
 10
270.6665339591
 20
635.1965977487
 30
0.0
 10
271.0175663782
 20
635.2517055936
 30
0.0
 10
271.4986105755
 20
635.5073017449
 30
0.0
 10
271.9074510989
 20
635.9151959937
 30
0.0
 10
272.2364016118
 20
636.4516044825
 30
0.0
 10
272.4825964314
 20
637.0957285677
 30
0.0
 10
272.7025666757
 20
638.0939800528
 30
0.0
 10
272.744212815
 20
639.4472670406
 30
0.0
 10
272.4735454745
 20
641.0294245685
 30
0.0
 10
271.9762169198
 20
642.2286047261
 30
0.0
 10
271.4126381664
 20
642.9759232389
 30
0.0
 10
270.9474021129
 20
643.3824976639
 30
0.0
 10
270.434857206
 20
643.637968836
 30
0.0
 10
270.0698110955
 20
643.6965977487
 30
0.0
 10
269.893021797
 20
643.6965977487
 30
0.0
  0
SPLINE
  5
26D
100
AcDbEntity
  8
0
100
AcDbSpline
 62
7
  6
CONTINUOUS
 70
0
 71
3
 72
20
 73
16
 74
0
 42
0.0000001
 43
0.0000001
 44
0.0000000001
 40
0.0
 40
0.0
 40
0.0
 40
0.0
 40
0.0479002477
 40
0.0964576485
 40
0.1485573152
 40
0.2060769328
 40
0.269632642
 40
0.3388156876
 40
0.4886389424
 40
0.6414156041
 40
0.781272989
 40
0.8432346281
 40
0.8994518033
 40
0.9509989992
 40
1.0
 40
1.0
 40
1.0
 40
1.0
 10
277.7589764163
 20
635.1965977487
 30
0.0
 10
277.9317943393
 20
635.1965977487
 30
0.0
 10
278.2828267584
 20
635.2517055936
 30
0.0
 10
278.7638709557
 20
635.5073017449
 30
0.0
 10
279.1727114791
 20
635.9151959937
 30
0.0
 10
279.501661992
 20
636.4516044825
 30
0.0
 10
279.7478568116
 20
637.0957285677
 30
0.0
 10
279.9678270559
 20
638.0939800528
 30
0.0
 10
280.0094731952
 20
639.4472670406
 30
0.0
 10
279.7388058547
 20
641.0294245685
 30
0.0
 10
279.2414773
 20
642.2286047261
 30
0.0
 10
278.6778985466
 20
642.9759232389
 30
0.0
 10
278.2126624931
 20
643.3824976639
 30
0.0
 10
277.7001175862
 20
643.637968836
 30
0.0
 10
277.3350714757
 20
643.6965977487
 30
0.0
 10
277.1582821772
 20
643.6965977487
 30
0.0
  0
SPLINE
  5
26E
100
AcDbEntity
  8
0
100
AcDbSpline
 62
7
  6
CONTINUOUS
 70
0
 71
3
 72
10
 73
6
 74
0
 42
0.0000001
 43
0.0000001
 44
0.0000000001
 40
0.0
 40
0.0
 40
0.0
 40
0.0
 40
0.549572783
 40
0.7905746
 40
1.0
 40
1.0
 40
1.0
 40
1.0
 10
268.2947675541
 20
639.4465977487
 30
0.0
 10
268.2947675541
 20
640.000839903
 30
0.0
 10
268.2792709722
 20
640.7987784834
 30
0.0
 10
268.1966047382
 20
641.8040989966
 30
0.0
 10
268.1267680197
 20
642.2539435633
 30
0.0
 10
268.0799292143
 20
642.459889126
 30
0.0
  0
SPLINE
  5
26F
100
AcDbEntity
  8
0
100
AcDbSpline
 62
7
  6
CONTINUOUS
 70
0
 71
3
 72
10
 73
6
 74
0
 42
0.0000001
 43
0.0000001
 44
0.0000000001
 40
0.0
 40
0.0
 40
0.0
 40
0.0
 40
0.549572783
 40
0.7905746
 40
1.0
 40
1.0
 40
1.0
 40
1.0
 10
261.0295071738
 20
639.4465977487
 30
0.0
 10
261.0295071738
 20
640.000839903
 30
0.0
 10
261.0140105919
 20
640.7987784834
 30
0.0
 10
260.931344358
 20
641.8040989966
 30
0.0
 10
260.8615076394
 20
642.2539435633
 30
0.0
 10
260.814668834
 20
642.459889126
 30
0.0
  0
SPLINE
  5
270
100
AcDbEntity
  8
0
100
AcDbSpline
 62
7
  6
CONTINUOUS
 70
0
 71
3
 72
14
 73
10
 74
0
 42
0.0000001
 43
0.0000001
 44
0.0000000001
 40
0.0
 40
0.0
 40
0.0
 40
0.0
 40
0.3827625854
 40
0.5339508864
 40
0.6585481846
 40
0.7579788636
 40
0.8372822586
 40
0.9103159892
 40
1.0
 40
1.0
 40
1.0
 40
1.0
 10
289.5889794088
 20
618.439652611
 30
0.0
 10
289.7742661099
 20
618.4397075053
 30
0.0
 10
290.0328287053
 20
618.4400644755
 30
0.0
 10
290.3513390975
 20
618.4538741632
 30
0.0
 10
290.5323092282
 20
618.4726031405
 30
0.0
 10
290.6758586819
 20
618.5047814289
 30
0.0
 10
290.7874579506
 20
618.5613649027
 30
0.0
 10
290.8558878979
 20
618.6628552975
 30
0.0
 10
290.8632150692
 20
618.7437293153
 30
0.0
 10
290.8632146924
 20
618.7871433162
 30
0.0
  0
SPLINE
  5
271
100
AcDbEntity
  8
0
100
AcDbSpline
 62
7
  6
CONTINUOUS
 70
0
 71
3
 72
20
 73
16
 74
0
 42
0.0000001
 43
0.0000001
 44
0.0000000001
 40
0.0
 40
0.0
 40
0.0
 40
0.0
 40
0.0479002477
 40
0.0964576485
 40
0.1485573152
 40
0.2060769328
 40
0.269632642
 40
0.3388156876
 40
0.4886389424
 40
0.6414156041
 40
0.781272989
 40
0.8432346281
 40
0.8994518033
 40
0.9509989992
 40
1.0
 40
1.0
 40
1.0
 40
1.0
 10
263.2284556559
 20
635.1965977487
 30
0.0
 10
263.4012735789
 20
635.1965977487
 30
0.0
 10
263.752305998
 20
635.2517055936
 30
0.0
 10
264.2333501953
 20
635.5073017449
 30
0.0
 10
264.6421907187
 20
635.9151959937
 30
0.0
 10
264.9711412316
 20
636.4516044825
 30
0.0
 10
265.2173360512
 20
637.0957285677
 30
0.0
 10
265.4373062954
 20
638.0939800528
 30
0.0
 10
265.4789524348
 20
639.4472670406
 30
0.0
 10
265.2082850943
 20
641.0294245685
 30
0.0
 10
264.7109565396
 20
642.2286047261
 30
0.0
 10
264.1473777862
 20
642.9759232389
 30
0.0
 10
263.6821417327
 20
643.3824976639
 30
0.0
 10
263.1695968257
 20
643.637968836
 30
0.0
 10
262.8045507153
 20
643.6965977487
 30
0.0
 10
262.6277614168
 20
643.6965977487
 30
0.0
  0
SPLINE
  5
272
100
AcDbEntity
  8
0
100
AcDbSpline
 62
7
  6
CONTINUOUS
 70
0
 71
3
 72
9
 73
5
 74
0
 42
0.0000001
 43
0.0000001
 44
0.0000000001
 40
0.0
 40
0.0
 40
0.0
 40
0.0
 40
0.4638308306
 40
1.0
 40
1.0
 40
1.0
 40
1.0
 10
260.8885096785
 20
636.8305559029
 30
0.0
 10
260.949026611
 20
637.2312990315
 30
0.0
 10
261.0129503678
 20
638.1045871554
 30
0.0
 10
261.0295071738
 20
638.9781030977
 30
0.0
 10
261.0295071738
 20
639.4465977487
 30
0.0
  0
ELLIPSE
  5
273
100
AcDbEntity
  8
0
100
AcDbEllipse
 62
7
  6
CONTINUOUS
 10
263.3632189417
 20
462.923707538
 30
0.0
 11
-21.3350258032
 21
596.661017289
 31
0.0
 40
0.0290806211
 41
1.2565761686
 42
1.262080271
  0
ELLIPSE
  5
274
100
AcDbEntity
  8
0
100
AcDbEllipse
 62
7
  6
CONTINUOUS
 10
263.3632189417
 20
413.2752115364
 30
0.0
 11
21.3283230035
 21
752.6248969436
 31
0.0
 40
0.0230652899
 41
-1.2581673532
 42
-1.2547293726
  0
ELLIPSE
  5
275
100
AcDbEntity
  8
0
100
AcDbEllipse
 62
7
  6
CONTINUOUS
 10
263.3632189417
 20
413.2752115364
 30
0.0
 11
21.3283230035
 21
752.6248969436
 31
0.0
 40
0.0230652899
 41
1.2560366477
 42
1.2594746283
  0
ENDSEC
  0
SECTION
  2
OBJECTS
  0
DICTIONARY
  5
C
100
AcDbDictionary
280
0
281
1
  3
ACAD_GROUP
350
D
  3
ACAD_MLINESTYLE
350
17
  3
ACAD_LAYOUT
350
1A
  3
ACAD_PLOTSETTINGS
350
19
  3
ACAD_PLOTSTYLENAME
350
E
  0
DICTIONARY
  5
D
102
{ACAD_REACTORS
330
C
102
}
100
AcDbDictionary
280
0
281
1
  0
ACDBDICTIONARYWDFLT
  5
E
102
{ACAD_REACTORS
330
C
102
}
100
AcDbDictionary
281
1
  3
Normal
350
F
100
AcDbDictionaryWithDefault
340
F
  0
DICTIONARY
  5
17
102
{ACAD_REACTORS
330
C
102
}
100
AcDbDictionary
280
0
281
1
  3
Standard
350
18
  0
DICTIONARY
  5
19
102
{ACAD_REACTORS
330
C
102
}
100
AcDbDictionary
281
1
  0
DICTIONARY
  5
1A
102
{ACAD_REACTORS
330
C
102
}
100
AcDbDictionary
281
1
  3
Model
350
276
  3
Layout1
350
277
  0
ACDBPLACEHOLDER
  5
F
102
{ACAD_REACTORS
330
E
102
}
  0
MLINESTYLE
  5
18
102
{ACAD_REACTORS
330
17
102
}
100
AcDbMlineStyle
  2
STANDARD
 70
0
  3

 62
256
 51
90.0
 52
90.0
 71
2
 49
0.5
 62
256
  6
BYLAYER
 49
-0.5
 62
256
  6
BYLAYER
  0
LAYOUT
  5
276
102
{ACAD_REACTORS
330
1A
102
}
100
AcDbPlotSettings
  1

  2
none_device
  4

  6

 40
0.0
 41
0.0
 42
0.0
 43
0.0
 44
210.0
 45
297.0
 46
0.0
 47
0.0
 48
0.0
 49
0.0
140
0.0
141
0.0
142
1.0
143
1.0
 70
1024
 72
1
 73
0
 74
0
  7

 75
0
147
1.0
148
0.0
149
0.0
100
AcDbLayout
  1
Model
 70
0
 71
0
 10
0.0
 20
0.0
 11
210.0
 21
297.0
 12
0.0
 22
0.0
 32
0.0
 14
0.0
 24
0.0
 34
0.0
 15
0.0
 25
0.0
 35
0.0
146
0.0
 13
0.0
 23
0.0
 33
0.0
 16
1.0
 26
0.0
 36
0.0
 17
0.0
 27
1.0
 37
0.0
 76
0
330
210
345
0
346
0
  0
LAYOUT
  5
277
102
{ACAD_REACTORS
330
1A
102
}
100
AcDbPlotSettings
  1

  2
none_device
  4

  6

 40
0.0
 41
0.0
 42
0.0
 43
0.0
 44
210.0
 45
297.0
 46
0.0
 47
0.0
 48
0.0
 49
0.0
140
0.0
141
0.0
142
1.0
143
1.0
 70
0
 72
1
 73
0
 74
0
  7

 75
0
147
1.0
148
0.0
149
0.0
100
AcDbLayout
  1
Layout1
 70
0
 71
1
 10
0.0
 20
0.0
 11
210.0
 21
297.0
 12
0.0
 22
0.0
 32
0.0
 14
0.0
 24
0.0
 34
0.0
 15
0.0
 25
0.0
 35
0.0
146
0.0
 13
0.0
 23
0.0
 33
0.0
 16
1.0
 26
0.0
 36
0.0
 17
0.0
 27
1.0
 37
0.0
 76
0
330
211
345
0
346
0
  0
ENDSEC
  0
EOF
