999
DXF file: C:\Users\sesa63760\Dev\_Creo\CAD\MCADID0000530_3D-CAD\drw0001_3.dxf
999
Pro/ENGINEER 2019471 by Parametric Technology Corporation
  0
SECTION
  2
HEADER
  9
$ACADVER
  1
AC1024
  9
$DWGCODEPAGE
  3
ANSI_1252
  9
$EXTMAX
 10
251.2908810505
 20
355.3971032
 30
0.0
  9
$EXTMIN
 10
0.0
 20
0.0
 30
0.0
  9
$LIMMIN
 10
0.0
 20
0.0
  9
$LIMMAX
 10
251.2908810505
 20
355.3971032
  9
$VIEWCTR
 10
125.6454405253
 20
177.6985516
  9
$VIEWSIZE
 40
355.3971032
  9
$CLAYER
  8
0
  9
$LTSCALE
 40
23.1666259864
  9
$CELTYPE
  6
BYLAYER
  9
$DIMSCALE
 40
1.0
  9
$DIMASZ
 40
2.9915581077
  9
$DIMEXO
 40
1.0
  9
$DIMDLI
 40
16.0060324997
  9
$DIMEXE
 40
1.0
  9
$DIMCEN
 40
3.7909024341
  9
$DIMLFAC
 40
1.0
  9
$DIMBLK
  1
_FILLED
  9
$DIMALT
 70
0
  9
$DIMALTF
 40
0.0393700787
  9
$DIMTXT
 40
4.1881813508
  9
$DIMTOL
 70
1
  9
$DIMLIM
 70
0
  9
$DIMTFAC
 40
1.0
  9
$DIMTP
 40
0.01
  9
$DIMTM
 40
0.01
  9
$DIMGAP
 40
0.625
  9
$DIMDSEP
 70
46
  9
$AUNITS
 70
0
  9
$PDMODE
 70
3
  9
$PDSIZE
 40
0.3125
  9
$HANDSEED
  5
256
  9
$TILEMODE
 70
1
  9
$MEASUREMENT
 70
1
  9
$INSUNITS
 70
4
  0
ENDSEC
  0
SECTION
  2
CLASSES
  0
CLASS
  1
ACDBDICTIONARYWDFLT
  2
AcDbDictionaryWithDefault
  3
AutoCAD 2000
 90
0
 91
1
280
0
281
0
  0
CLASS
  1
ACDBPLACEHOLDER
  2
AcDbPlaceHolder
  3
AutoCAD 2000
 90
0
 91
1
280
0
281
0
  0
CLASS
  1
LAYOUT
  2
AcDbLayout
  3
AutoCAD 2000
 90
0
 91
0
280
0
281
0
  0
ENDSEC
  0
SECTION
  2
TABLES
  0
TABLE
  2
VPORT
  5
8
100
AcDbSymbolTable
 70
2
  0
VPORT
  5
1F4
100
AcDbSymbolTableRecord
100
AcDbViewportTableRecord
  2
*ACTIVE
 70
0
 10
0.0
 20
0.0
 11
1.0
 21
1.0
 12
125.6454405253
 22
177.6985516
 13
0.0
 23
0.0
 14
1.0
 24
1.0
 15
0.0
 25
0.0
 16
0.0
 26
0.0
 36
1.0
 17
0.0
 27
0.0
 37
0.0
 40
355.3971032
 41
0.7070707071
 42
50.0
 43
0.0
 44
0.0
 50
0.0
 51
0.0
 71
0
 72
100
 73
1
 74
1
 75
0
 76
0
 77
0
 78
0
  0
ENDTAB
  0
TABLE
  2
LTYPE
  5
5
100
AcDbSymbolTable
 70
6
  0
LTYPE
  5
14
100
AcDbSymbolTableRecord
100
AcDbLinetypeTableRecord
  2
BYBLOCK
 70
0
  3

 72
65
 73
0
 40
0.0
  0
LTYPE
  5
15
100
AcDbSymbolTableRecord
100
AcDbLinetypeTableRecord
  2
BYLAYER
 70
0
  3

 72
65
 73
0
 40
0.0
  0
LTYPE
  5
16
100
AcDbSymbolTableRecord
100
AcDbLinetypeTableRecord
  2
CONTINUOUS
 70
64
  3
Solid line
 72
65
 73
0
 40
0.0
  0
LTYPE
  5
1F5
100
AcDbSymbolTableRecord
100
AcDbLinetypeTableRecord
  2
CENTER
 70
64
  3
____ _ ____ _ ____ _ ____ _ ____ _ ____ _ ____
 72
65
 73
4
 40
0.6
 49
0.375
 74
0
 49
-0.075
 74
0
 49
0.075
 74
0
 49
-0.075
 74
0
  0
LTYPE
  5
1F6
100
AcDbSymbolTableRecord
100
AcDbLinetypeTableRecord
  2
HIDDEN
 70
64
  3
- - - - - - - - - - - - - - - - - - - -
 72
65
 73
2
 40
0.2
 49
0.1
 74
0
 49
-0.1
 74
0
  0
LTYPE
  5
1F7
100
AcDbSymbolTableRecord
100
AcDbLinetypeTableRecord
  2
PHANTOM
 70
64
  3
_____ _ _ _____ _ _ _____ _ _ _____
 72
65
 73
6
 40
0.8
 49
0.45
 74
0
 49
-0.05
 74
0
 49
0.1
 74
0
 49
-0.05
 74
0
 49
0.1
 74
0
 49
-0.05
 74
0
  0
LTYPE
  5
1F8
100
AcDbSymbolTableRecord
100
AcDbLinetypeTableRecord
  2
DOT
 70
64
  3
. . . . . . . . . . . . . . . . . . . .
 72
65
 73
2
 40
0.2
 49
0.1
 74
0
 49
-0.1
 74
0
  0
LTYPE
  5
1F9
100
AcDbSymbolTableRecord
100
AcDbLinetypeTableRecord
  2
DASHED
 70
64
  3
- - - - - - - - - - - - - - - - - - - -
 72
65
 73
2
 40
0.2
 49
0.1
 74
0
 49
-0.1
 74
0
  0
ENDTAB
  0
TABLE
  2
LAYER
  5
2
100
AcDbSymbolTable
 70
36
  0
LAYER
  5
10
100
AcDbSymbolTableRecord
100
AcDbLayerTableRecord
  2
0
 70
0
 62
7
  6
CONTINUOUS
370
-3
390
F
  0
LAYER
  5
1FA
100
AcDbSymbolTableRecord
100
AcDbLayerTableRecord
  2
DEFAULT_1
 70
0
 62
7
  6
CENTER
370
-3
390
F
  0
LAYER
  5
1FB
100
AcDbSymbolTableRecord
100
AcDbLayerTableRecord
  2
DEFAULT_2
 70
0
 62
8
  6
HIDDEN
370
-3
390
F
  0
LAYER
  5
1FC
100
AcDbSymbolTableRecord
100
AcDbLayerTableRecord
  2
DEFAULT_3
 70
0
 62
7
  6
PHANTOM
370
-3
390
F
  0
LAYER
  5
1FD
100
AcDbSymbolTableRecord
100
AcDbLayerTableRecord
  2
00_COMPONENTS
 70
0
 62
7
  6
CONTINUOUS
370
-3
390
F
  0
LAYER
  5
1FE
100
AcDbSymbolTableRecord
100
AcDbLayerTableRecord
  2
01_1_DEFAULT_DATUMS
 70
0
 62
7
  6
CONTINUOUS
370
-3
390
F
  0
LAYER
  5
1FF
100
AcDbSymbolTableRecord
100
AcDbLayerTableRecord
  2
01_PLANES
 70
0
 62
7
  6
CONTINUOUS
370
-3
390
F
  0
LAYER
  5
200
100
AcDbSymbolTableRecord
100
AcDbLayerTableRecord
  2
02_COORD_SYS
 70
0
 62
7
  6
CONTINUOUS
370
-3
390
F
  0
LAYER
  5
201
100
AcDbSymbolTableRecord
100
AcDbLayerTableRecord
  2
03_AXES
 70
0
 62
7
  6
CONTINUOUS
370
-3
390
F
  0
LAYER
  5
202
100
AcDbSymbolTableRecord
100
AcDbLayerTableRecord
  2
04_POINTS
 70
0
 62
7
  6
CONTINUOUS
370
-3
390
F
  0
LAYER
  5
203
100
AcDbSymbolTableRecord
100
AcDbLayerTableRecord
  2
05_CURVES
 70
0
 62
7
  6
CONTINUOUS
370
-3
390
F
  0
LAYER
  5
204
100
AcDbSymbolTableRecord
100
AcDbLayerTableRecord
  2
06_SURFS
 70
0
 62
7
  6
CONTINUOUS
370
-3
390
F
  0
LAYER
  5
205
100
AcDbSymbolTableRecord
100
AcDbLayerTableRecord
  2
07_COSMETICS
 70
0
 62
7
  6
CONTINUOUS
370
-3
390
F
  0
LAYER
  5
206
100
AcDbSymbolTableRecord
100
AcDbLayerTableRecord
  2
10_NOTES
 70
0
 62
7
  6
CONTINUOUS
370
-3
390
F
  0
LAYER
  5
207
100
AcDbSymbolTableRecord
100
AcDbLayerTableRecord
  2
11_NOTES_PUB
 70
0
 62
7
  6
CONTINUOUS
370
-3
390
F
  0
LAYER
  5
208
100
AcDbSymbolTableRecord
100
AcDbLayerTableRecord
  2
13_REF_GTOL
 70
0
 62
7
  6
CONTINUOUS
370
-3
390
F
  0
LAYER
  5
209
100
AcDbSymbolTableRecord
100
AcDbLayerTableRecord
  2
16_MISC
 70
0
 62
7
  6
CONTINUOUS
370
-3
390
F
  0
LAYER
  5
20A
100
AcDbSymbolTableRecord
100
AcDbLayerTableRecord
  2
17_NO_PRINT
 70
0
 62
7
  6
CONTINUOUS
370
-3
390
F
  0
LAYER
  5
20B
100
AcDbSymbolTableRecord
100
AcDbLayerTableRecord
  2
18_DATUM_CAMS_JOINTS
 70
0
 62
7
  6
CONTINUOUS
370
-3
390
F
  0
LAYER
  5
20C
100
AcDbSymbolTableRecord
100
AcDbLayerTableRecord
  2
19_DATUM_FUNCTIONAL
 70
0
 62
7
  6
CONTINUOUS
370
-3
390
F
  0
LAYER
  5
20D
100
AcDbSymbolTableRecord
100
AcDbLayerTableRecord
  2
20_DATUM_KINEMATIC_SCHEME
 70
0
 62
7
  6
CONTINUOUS
370
-3
390
F
  0
ENDTAB
  0
TABLE
  2
STYLE
  5
3
100
AcDbSymbolTable
 70
1
  0
STYLE
  5
11
100
AcDbSymbolTableRecord
100
AcDbTextStyleTableRecord
  2
STANDARD
 70
0
 40
0.0
 41
0.8
 50
0.0
 71
0
 42
0.2
  3
txt
  4

  0
STYLE
  5
20E
100
AcDbSymbolTableRecord
100
AcDbTextStyleTableRecord
  2
TEXTSTYLE_1
 70
0
 40
0.0
 41
0.8
 50
0.0
 71
0
 42
0.2
  3
gdt
  4

  0
ENDTAB
  0
TABLE
  2
VIEW
  5
6
100
AcDbSymbolTable
 70
0
  0
ENDTAB
  0
TABLE
  2
UCS
  5
7
100
AcDbSymbolTable
 70
0
  0
ENDTAB
  0
TABLE
  2
APPID
  5
9
100
AcDbSymbolTable
 70
1
  0
APPID
  5
20F
100
AcDbSymbolTableRecord
100
AcDbRegAppTableRecord
  2
ACAD
 70
0
  0
ENDTAB
  0
TABLE
  2
BLOCK_RECORD
  5
1
100
AcDbSymbolTable
 70
0
  0
BLOCK_RECORD
  5
210
100
AcDbSymbolTableRecord
100
AcDbBlockTableRecord
  2
*Model_Space
  0
BLOCK_RECORD
  5
211
100
AcDbSymbolTableRecord
100
AcDbBlockTableRecord
  2
*Paper_Space
  0
BLOCK_RECORD
  5
212
100
AcDbSymbolTableRecord
100
AcDbBlockTableRecord
  2
_FILLED
  0
ENDTAB
  0
TABLE
  2
DIMSTYLE
  5
A
100
AcDbSymbolTable
 70
1
100
AcDbDimStyleTable
 71
0
  0
DIMSTYLE
105
213
100
AcDbSymbolTableRecord
100
AcDbDimStyleTableRecord
  2
STANDARD
 70
0
  3

  4

 40
1.0
 41
2.9915581077
 42
1.0
 43
0.38
 44
1.0
 45
0.0
 46
0.0
 47
0.01
 48
0.01
140
4.1881813508
141
0.09
142
0.0
143
25.4
144
1.0
145
0.0
146
1.0
147
0.625
 71
1
 72
0
 73
0
 74
0
 75
0
 76
0
 77
1
 78
8
 79
2
170
0
171
1
172
0
173
0
174
0
175
0
176
0
177
0
178
0
270
2
179
2
271
2
272
2
273
2
274
2
275
0
280
0
281
0
282
0
283
1
284
8
285
0
286
0
287
3
288
0
340
11
278
46
341
212
342
212
343
212
344
212
  0
ENDTAB
  0
ENDSEC
  0
SECTION
  2
BLOCKS
  0
BLOCK
  5
20
100
AcDbEntity
  8
0
100
AcDbBlockBegin
  2
*Model_Space
 70
0
 10
0.0
 20
0.0
 30
0.0
  3
*Model_Space
  1

  0
ENDBLK
  5
21
100
AcDbEntity
  8
0
100
AcDbBlockEnd
  0
BLOCK
  5
1C
100
AcDbEntity
  8
0
100
AcDbBlockBegin
  2
*Paper_Space
 70
0
 10
0.0
 20
0.0
 30
0.0
  3
*Paper_Space
  1

  0
ENDBLK
  5
1D
100
AcDbEntity
  8
0
100
AcDbBlockEnd
  0
BLOCK
  5
214
100
AcDbEntity
  8
0
100
AcDbBlockBegin
  2
_FILLED
 70
64
 10
0.0
 20
0.0
  3
_FILLED
  1

  0
SOLID
  5
215
100
AcDbEntity
  8
0
  6
BYBLOCK
 62
0
100
AcDbTrace
 10
0.0
 20
0.0
 11
-1.0
 21
0.25
 12
-1.0
 22
-0.25
 13
-1.0
 23
-0.25
  0
ENDBLK
  5
216
100
AcDbEntity
  8
0
  6
BYBLOCK
 62
0
100
AcDbBlockEnd
  0
ENDSEC
  0
SECTION
  2
ENTITIES
  0
LINE
  5
217
100
AcDbEntity
  8
0
100
AcDbLine
 62
7
  6
CONTINUOUS
 10
29.7235493463
 20
204.4185567486
 11
29.7235493463
 21
147.2185567486
  0
LINE
  5
218
100
AcDbEntity
  8
0
100
AcDbLine
 62
7
  6
CONTINUOUS
 10
32.8357085714
 20
150.2185567486
 11
32.8357052898
 21
201.4349024789
  0
LINE
  5
219
100
AcDbEntity
  8
0
100
AcDbLine
 62
7
  6
CONTINUOUS
 10
37.2235493463
 20
204.4185567486
 11
37.2235493463
 21
147.2185567486
  0
LINE
  5
21A
100
AcDbEntity
  8
0
100
AcDbLine
 62
7
  6
CONTINUOUS
 10
46.1735493463
 20
206.4185567486
 11
46.1735493463
 21
204.4185567486
  0
LINE
  5
21B
100
AcDbEntity
  8
0
100
AcDbLine
 62
7
  6
CONTINUOUS
 10
50.9735493463
 20
204.4185567486
 11
50.9735493463
 21
206.4185567486
  0
LINE
  5
21C
100
AcDbEntity
  8
0
100
AcDbLine
 62
7
  6
CONTINUOUS
 10
52.4735493463
 20
207.9185567486
 11
52.4735493463
 21
206.4185567486
  0
LINE
  5
21D
100
AcDbEntity
  8
0
100
AcDbLine
 62
7
  6
CONTINUOUS
 10
52.9735493463
 20
209.9185567486
 11
52.9735493463
 21
207.9185567486
  0
LINE
  5
21E
100
AcDbEntity
  8
0
100
AcDbLine
 62
7
  6
CONTINUOUS
 10
59.9735493463
 20
207.9185567486
 11
59.9735493463
 21
209.9185567486
  0
LINE
  5
21F
100
AcDbEntity
  8
0
100
AcDbLine
 62
7
  6
CONTINUOUS
 10
60.4735493463
 20
206.4185567486
 11
60.4735493463
 21
207.9185567486
  0
LINE
  5
220
100
AcDbEntity
  8
0
100
AcDbLine
 62
7
  6
CONTINUOUS
 10
64.9735493463
 20
206.4185567486
 11
64.9735493463
 21
208.5007362937
  0
LINE
  5
221
100
AcDbEntity
  8
0
100
AcDbLine
 62
7
  6
CONTINUOUS
 10
65.2235493463
 20
209.9185567486
 11
64.9735493463
 21
208.5007362937
  0
LINE
  5
222
100
AcDbEntity
  8
0
100
AcDbLine
 62
7
  6
CONTINUOUS
 10
78.7235493463
 20
209.9185567486
 11
78.4735493463
 21
208.5007362937
  0
LINE
  5
223
100
AcDbEntity
  8
0
100
AcDbLine
 62
7
  6
CONTINUOUS
 10
74.9735493463
 20
206.4185567486
 11
74.9735493463
 21
208.5007362937
  0
LINE
  5
224
100
AcDbEntity
  8
0
100
AcDbLine
 62
7
  6
CONTINUOUS
 10
78.4735493463
 20
206.4185567486
 11
78.4735493463
 21
208.5007362937
  0
LINE
  5
225
100
AcDbEntity
  8
0
100
AcDbLine
 62
7
  6
CONTINUOUS
 10
74.9735493463
 20
208.5007362937
 11
74.7235493463
 21
209.9185567486
  0
LINE
  5
226
100
AcDbEntity
  8
0
100
AcDbLine
 62
7
  6
CONTINUOUS
 10
83.7235493463
 20
204.4185567486
 11
83.7235493463
 21
147.2185567486
  0
LINE
  5
227
100
AcDbEntity
  8
0
100
AcDbLine
 62
7
  6
CONTINUOUS
 10
88.4735493463
 20
206.4185567486
 11
88.4735493463
 21
208.5007362937
  0
LINE
  5
228
100
AcDbEntity
  8
0
100
AcDbLine
 62
7
  6
CONTINUOUS
 10
88.9735493463
 20
206.4185567486
 11
88.9735493463
 21
204.4185567486
  0
LINE
  5
229
100
AcDbEntity
  8
0
100
AcDbLine
 62
7
  6
CONTINUOUS
 10
93.7735493463
 20
204.4185567486
 11
93.7735493463
 21
206.4185567486
  0
LINE
  5
22A
100
AcDbEntity
  8
0
100
AcDbLine
 62
7
  6
CONTINUOUS
 10
88.4735493463
 20
208.5007362937
 11
88.2235493463
 21
209.9185567486
  0
LINE
  5
22B
100
AcDbEntity
  8
0
100
AcDbLine
 62
7
  6
CONTINUOUS
 10
29.723555727
 20
147.2185567486
 11
208.5235493463
 21
147.2185567486
  0
LINE
  5
22C
100
AcDbEntity
  8
0
100
AcDbLine
 62
7
  6
CONTINUOUS
 10
32.8357085714
 20
150.2185567486
 11
161.123361806
 21
150.2185567486
  0
LINE
  5
22D
100
AcDbEntity
  8
0
100
AcDbLine
 62
7
  6
CONTINUOUS
 10
208.5235493463
 20
150.8185567486
 11
210.1235493463
 21
150.8185567486
  0
LINE
  5
22E
100
AcDbEntity
  8
0
100
AcDbLine
 62
7
  6
CONTINUOUS
 10
202.7235493463
 20
151.2185567486
 11
167.4235493463
 21
151.2185567486
  0
LINE
  5
22F
100
AcDbEntity
  8
0
100
AcDbLine
 62
7
  6
CONTINUOUS
 10
167.4235493463
 20
152.2185567486
 11
208.5235493463
 21
152.2185567486
  0
LINE
  5
230
100
AcDbEntity
  8
0
100
AcDbLine
 62
7
  6
CONTINUOUS
 10
167.4235493463
 20
156.8185567486
 11
202.7235493463
 21
156.8185567486
  0
LINE
  5
231
100
AcDbEntity
  8
0
100
AcDbLine
 62
7
  6
CONTINUOUS
 10
202.7235493463
 20
160.8185567486
 11
167.4235493463
 21
160.8185567486
  0
LINE
  5
232
100
AcDbEntity
  8
0
100
AcDbLine
 62
7
  6
CONTINUOUS
 10
117.2235493463
 20
204.4185567486
 11
117.2235493463
 21
147.2185567486
  0
LINE
  5
233
100
AcDbEntity
  8
0
100
AcDbLine
 62
7
  6
CONTINUOUS
 10
210.1235493463
 20
171.3185567486
 11
228.5235493463
 21
171.3185567486
  0
LINE
  5
234
100
AcDbEntity
  8
0
100
AcDbLine
 62
7
  6
CONTINUOUS
 10
127.2235493463
 20
204.4185567486
 11
127.2235493463
 21
147.2185567486
  0
LINE
  5
235
100
AcDbEntity
  8
0
100
AcDbLine
 62
7
  6
CONTINUOUS
 10
210.1235493463
 20
180.3185567486
 11
228.5235493463
 21
180.3185567486
  0
LINE
  5
236
100
AcDbEntity
  8
0
100
AcDbLine
 62
7
  6
CONTINUOUS
 10
167.4235493463
 20
190.8185567486
 11
202.7235493463
 21
190.8185567486
  0
LINE
  5
237
100
AcDbEntity
  8
0
100
AcDbLine
 62
7
  6
CONTINUOUS
 10
150.2235493463
 20
204.4185567486
 11
150.2235493463
 21
147.2185567486
  0
LINE
  5
238
100
AcDbEntity
  8
0
100
AcDbLine
 62
7
  6
CONTINUOUS
 10
202.7235493463
 20
194.8185567486
 11
167.4235493463
 21
194.8185567486
  0
LINE
  5
239
100
AcDbEntity
  8
0
100
AcDbLine
 62
7
  6
CONTINUOUS
 10
167.4235493463
 20
199.4185567486
 11
208.5235493463
 21
199.4185567486
  0
LINE
  5
23A
100
AcDbEntity
  8
0
100
AcDbLine
 62
7
  6
CONTINUOUS
 10
167.4235493463
 20
200.4185567486
 11
202.7235493463
 21
200.4185567486
  0
LINE
  5
23B
100
AcDbEntity
  8
0
100
AcDbLine
 62
7
  6
CONTINUOUS
 10
208.5235493463
 20
200.8185567486
 11
210.1235493463
 21
200.8185567486
  0
LINE
  5
23C
100
AcDbEntity
  8
0
100
AcDbLine
 62
7
  6
CONTINUOUS
 10
32.8357085714
 20
201.4185567486
 11
161.123361806
 21
201.4185567486
  0
LINE
  5
23D
100
AcDbEntity
  8
0
100
AcDbLine
 62
7
  6
CONTINUOUS
 10
29.723555727
 20
204.4185567486
 11
208.5235493463
 21
204.4185567486
  0
LINE
  5
23E
100
AcDbEntity
  8
0
100
AcDbLine
 62
7
  6
CONTINUOUS
 10
46.1735493463
 20
206.4185567486
 11
93.7735493463
 21
206.4185567486
  0
LINE
  5
23F
100
AcDbEntity
  8
0
100
AcDbLine
 62
7
  6
CONTINUOUS
 10
161.123361806
 20
204.4185567486
 11
161.123361806
 21
201.4185567486
  0
LINE
  5
240
100
AcDbEntity
  8
0
100
AcDbLine
 62
7
  6
CONTINUOUS
 10
161.123361806
 20
150.2185567486
 11
161.123361806
 21
147.2185567486
  0
LINE
  5
241
100
AcDbEntity
  8
0
100
AcDbLine
 62
7
  6
CONTINUOUS
 10
52.4735493463
 20
207.9185567486
 11
60.4735493463
 21
207.9185567486
  0
LINE
  5
242
100
AcDbEntity
  8
0
100
AcDbLine
 62
7
  6
CONTINUOUS
 10
52.9735493463
 20
209.9185567486
 11
59.9735493463
 21
209.9185567486
  0
LINE
  5
243
100
AcDbEntity
  8
0
100
AcDbLine
 62
7
  6
CONTINUOUS
 10
65.2235493463
 20
209.9185567486
 11
74.7235493463
 21
209.9185567486
  0
LINE
  5
244
100
AcDbEntity
  8
0
100
AcDbLine
 62
7
  6
CONTINUOUS
 10
78.7235493463
 20
209.9185567486
 11
88.2235493463
 21
209.9185567486
  0
LINE
  5
245
100
AcDbEntity
  8
0
100
AcDbLine
 62
7
  6
CONTINUOUS
 10
167.4235493463
 20
147.2185567486
 11
167.4235493463
 21
204.4185567486
  0
LINE
  5
246
100
AcDbEntity
  8
0
100
AcDbLine
 62
7
  6
CONTINUOUS
 10
161.123361806
 20
150.2185567486
 11
167.4235493463
 21
159.1283674136
  0
LINE
  5
247
100
AcDbEntity
  8
0
100
AcDbLine
 62
7
  6
CONTINUOUS
 10
167.4235493463
 20
192.5087460836
 11
161.123361806
 21
201.4185567486
  0
LINE
  5
248
100
AcDbEntity
  8
0
100
AcDbLine
 62
7
  6
CONTINUOUS
 10
189.9235493463
 20
204.4185567486
 11
189.9235493463
 21
147.2185567486
  0
LINE
  5
249
100
AcDbEntity
  8
0
100
AcDbLine
 62
7
  6
CONTINUOUS
 10
202.7235493463
 20
147.2185567486
 11
202.7235493463
 21
160.8185567486
  0
LINE
  5
24A
100
AcDbEntity
  8
0
100
AcDbLine
 62
7
  6
CONTINUOUS
 10
202.7235493463
 20
190.8185567486
 11
202.7235493463
 21
204.4185567486
  0
LINE
  5
24B
100
AcDbEntity
  8
0
100
AcDbLine
 62
7
  6
CONTINUOUS
 10
208.5235493463
 20
204.4185567486
 11
208.5235493463
 21
147.2185567486
  0
LINE
  5
24C
100
AcDbEntity
  8
0
100
AcDbLine
 62
7
  6
CONTINUOUS
 10
210.1235493463
 20
200.8185428851
 11
210.1235493463
 21
150.8185706121
  0
LINE
  5
24D
100
AcDbEntity
  8
0
100
AcDbLine
 62
7
  6
CONTINUOUS
 10
228.5235493463
 20
180.3185518384
 11
228.5235493463
 21
171.3185616588
  0
SPLINE
  5
24E
100
AcDbEntity
  8
0
100
AcDbSpline
 62
7
  6
CONTINUOUS
 70
0
 71
3
 72
15
 73
11
 74
0
 42
0.0000001
 43
0.0000001
 44
0.0000000001
 40
0.0
 40
0.0
 40
0.0
 40
0.0
 40
0.3750545255
 40
0.692776372
 40
0.8151677767
 40
0.8653155215
 40
0.9076286644
 40
0.9419232369
 40
0.9682472185
 40
1.0
 40
1.0
 40
1.0
 40
1.0
 10
32.8357052898
 20
201.4349024789
 30
0.0
 10
32.8354025584
 20
201.8176242407
 30
0.0
 10
32.8154591008
 20
202.524589719
 30
0.0
 10
32.7432174295
 20
203.3543118757
 30
0.0
 10
32.6614257635
 20
203.8481147102
 30
0.0
 10
32.6116765388
 20
204.0619165515
 30
0.0
 10
32.5759076112
 20
204.1858538261
 30
0.0
 10
32.5379189134
 20
204.2852779868
 30
0.0
 10
32.4968661752
 20
204.3662668794
 30
0.0
 10
32.4480468913
 20
204.4185567486
 30
0.0
 10
32.4156449778
 20
204.4185567486
 30
0.0
  0
SPLINE
  5
24F
100
AcDbEntity
  8
0
100
AcDbSpline
 62
7
  6
CONTINUOUS
 70
0
 71
3
 72
15
 73
11
 74
0
 42
0.0000001
 43
0.0000001
 44
0.0000000001
 40
0.0
 40
0.0
 40
0.0
 40
0.0
 40
0.031731541
 40
0.0580758356
 40
0.0924079472
 40
0.1347695588
 40
0.1849731672
 40
0.3074781109
 40
0.6253085846
 40
1.0
 40
1.0
 40
1.0
 40
1.0
 10
32.4156449778
 20
147.2185567486
 30
0.0
 10
32.4481977845
 20
147.2185567486
 30
0.0
 10
32.4971836751
 20
147.271279274
 30
0.0
 10
32.5383420951
 20
147.3527665472
 30
0.0
 10
32.5764486129
 20
147.4528805213
 30
0.0
 10
32.6123163096
 20
147.5776516459
 30
0.0
 10
32.6621832402
 20
147.79285816
 30
0.0
 10
32.7440782959
 20
148.2896336309
 30
0.0
 10
32.8161548384
 20
149.1236799092
 30
0.0
 10
32.8357085714
 20
149.8341676879
 30
0.0
 10
32.8357085714
 20
150.2185567486
 30
0.0
  0
SPLINE
  5
250
100
AcDbEntity
  8
0
100
AcDbSpline
 62
7
  6
CONTINUOUS
 70
0
 71
3
 72
25
 73
21
 74
0
 42
0.0000001
 43
0.0000001
 44
0.0000000001
 40
0.0
 40
0.0
 40
0.0
 40
0.0
 40
0.1293154637
 40
0.1935116611
 40
0.257216218
 40
0.3201775838
 40
0.381954097
 40
0.412234765
 40
0.441978977
 40
0.4711760707
 40
0.4999990449
 40
0.5288219317
 40
0.5580192705
 40
0.587763715
 40
0.6180444701
 40
0.6798210904
 40
0.7427830411
 40
0.8064878959
 40
0.8706842769
 40
1.0
 40
1.0
 40
1.0
 40
1.0
 10
69.1623088432
 20
206.4205165811
 30
0.0
 10
69.0688464005
 20
206.6429154882
 30
0.0
 10
68.9206566943
 20
206.9724909962
 30
0.0
 10
68.6971197432
 20
207.3972514729
 30
0.0
 10
68.5136838795
 20
207.7027602562
 30
0.0
 10
68.3089897311
 20
207.9890528155
 30
0.0
 10
68.1125355324
 20
208.2032675452
 30
0.0
 10
67.9344825436
 20
208.3452746546
 30
0.0
 10
67.7906330858
 20
208.4303910742
 30
0.0
 10
67.6358438039
 20
208.4872030144
 30
0.0
 10
67.4734870576
 20
208.5074669271
 30
0.0
 10
67.3111340525
 20
208.4871721661
 30
0.0
 10
67.156353082
 20
208.4303367259
 30
0.0
 10
67.0125132385
 20
208.3452023967
 30
0.0
 10
66.8344732703
 20
208.2031782263
 30
0.0
 10
66.6380278172
 20
207.9889543102
 30
0.0
 10
66.4333454714
 20
207.7026509508
 30
0.0
 10
66.249915344
 20
207.3971366347
 30
0.0
 10
66.0263852672
 20
206.9723709711
 30
0.0
 10
65.8781979733
 20
206.642793541
 30
0.0
 10
65.7847381366
 20
206.4203930139
 30
0.0
  0
SPLINE
  5
251
100
AcDbEntity
  8
0
100
AcDbSpline
 62
7
  6
CONTINUOUS
 70
0
 71
3
 72
25
 73
21
 74
0
 42
0.0000001
 43
0.0000001
 44
0.0000000001
 40
0.0
 40
0.0
 40
0.0
 40
0.0
 40
0.1293154637
 40
0.1935116611
 40
0.257216218
 40
0.3201775838
 40
0.381954097
 40
0.412234765
 40
0.441978977
 40
0.4711760707
 40
0.4999990449
 40
0.5288219317
 40
0.5580192705
 40
0.587763715
 40
0.6180444701
 40
0.6798210904
 40
0.7427830411
 40
0.8064878959
 40
0.8706842769
 40
1.0
 40
1.0
 40
1.0
 40
1.0
 10
82.6623088432
 20
206.4205165811
 30
0.0
 10
82.5688464005
 20
206.6429154882
 30
0.0
 10
82.4206566943
 20
206.9724909962
 30
0.0
 10
82.1971197432
 20
207.3972514729
 30
0.0
 10
82.0136838795
 20
207.7027602562
 30
0.0
 10
81.8089897311
 20
207.9890528155
 30
0.0
 10
81.6125355324
 20
208.2032675452
 30
0.0
 10
81.4344825436
 20
208.3452746546
 30
0.0
 10
81.2906330858
 20
208.4303910742
 30
0.0
 10
81.1358438039
 20
208.4872030144
 30
0.0
 10
80.9734870576
 20
208.5074669271
 30
0.0
 10
80.8111340525
 20
208.4871721661
 30
0.0
 10
80.656353082
 20
208.4303367259
 30
0.0
 10
80.5125132385
 20
208.3452023967
 30
0.0
 10
80.3344732703
 20
208.2031782263
 30
0.0
 10
80.1380278172
 20
207.9889543102
 30
0.0
 10
79.9333454714
 20
207.7026509508
 30
0.0
 10
79.749915344
 20
207.3971366347
 30
0.0
 10
79.5263852672
 20
206.9723709711
 30
0.0
 10
79.3781979733
 20
206.642793541
 30
0.0
 10
79.2847381366
 20
206.4203930139
 30
0.0
  0
SPLINE
  5
252
100
AcDbEntity
  8
0
100
AcDbSpline
 62
7
  6
CONTINUOUS
 70
0
 71
3
 72
25
 73
21
 74
0
 42
0.0000001
 43
0.0000001
 44
0.0000000001
 40
0.0
 40
0.0
 40
0.0
 40
0.0
 40
0.1293154637
 40
0.1935116611
 40
0.257216218
 40
0.3201775838
 40
0.381954097
 40
0.412234765
 40
0.441978977
 40
0.4711760707
 40
0.4999990449
 40
0.5288219317
 40
0.5580192705
 40
0.587763715
 40
0.6180444701
 40
0.6798210904
 40
0.7427830411
 40
0.8064878959
 40
0.8706842769
 40
1.0
 40
1.0
 40
1.0
 40
1.0
 10
74.1623088432
 20
206.4205165811
 30
0.0
 10
74.0688464005
 20
206.6429154882
 30
0.0
 10
73.9206566943
 20
206.9724909962
 30
0.0
 10
73.6971197432
 20
207.3972514729
 30
0.0
 10
73.5136838795
 20
207.7027602562
 30
0.0
 10
73.3089897311
 20
207.9890528155
 30
0.0
 10
73.1125355324
 20
208.2032675452
 30
0.0
 10
72.9344825436
 20
208.3452746546
 30
0.0
 10
72.7906330858
 20
208.4303910742
 30
0.0
 10
72.6358438039
 20
208.4872030144
 30
0.0
 10
72.4734870576
 20
208.5074669271
 30
0.0
 10
72.3111340525
 20
208.4871721661
 30
0.0
 10
72.156353082
 20
208.4303367259
 30
0.0
 10
72.0125132385
 20
208.3452023967
 30
0.0
 10
71.8344732703
 20
208.2031782263
 30
0.0
 10
71.6380278172
 20
207.9889543102
 30
0.0
 10
71.4333454714
 20
207.7026509508
 30
0.0
 10
71.249915344
 20
207.3971366347
 30
0.0
 10
71.0263852672
 20
206.9723709711
 30
0.0
 10
70.8781979733
 20
206.642793541
 30
0.0
 10
70.7847381366
 20
206.4203930139
 30
0.0
  0
SPLINE
  5
253
100
AcDbEntity
  8
0
100
AcDbSpline
 62
7
  6
CONTINUOUS
 70
0
 71
3
 72
25
 73
21
 74
0
 42
0.0000001
 43
0.0000001
 44
0.0000000001
 40
0.0
 40
0.0
 40
0.0
 40
0.0
 40
0.1293154637
 40
0.1935116611
 40
0.257216218
 40
0.3201775838
 40
0.381954097
 40
0.412234765
 40
0.441978977
 40
0.4711760707
 40
0.4999990449
 40
0.5288219317
 40
0.5580192705
 40
0.587763715
 40
0.6180444701
 40
0.6798210904
 40
0.7427830411
 40
0.8064878959
 40
0.8706842769
 40
1.0
 40
1.0
 40
1.0
 40
1.0
 10
87.6623088432
 20
206.4205165811
 30
0.0
 10
87.5688464005
 20
206.6429154882
 30
0.0
 10
87.4206566943
 20
206.9724909962
 30
0.0
 10
87.1971197432
 20
207.3972514729
 30
0.0
 10
87.0136838795
 20
207.7027602562
 30
0.0
 10
86.8089897311
 20
207.9890528155
 30
0.0
 10
86.6125355324
 20
208.2032675452
 30
0.0
 10
86.4344825436
 20
208.3452746546
 30
0.0
 10
86.2906330858
 20
208.4303910742
 30
0.0
 10
86.1358438039
 20
208.4872030144
 30
0.0
 10
85.9734870576
 20
208.5074669271
 30
0.0
 10
85.8111340525
 20
208.4871721661
 30
0.0
 10
85.656353082
 20
208.4303367259
 30
0.0
 10
85.5125132385
 20
208.3452023967
 30
0.0
 10
85.3344732703
 20
208.2031782263
 30
0.0
 10
85.1380278172
 20
207.9889543102
 30
0.0
 10
84.9333454714
 20
207.7026509508
 30
0.0
 10
84.749915344
 20
207.3971366347
 30
0.0
 10
84.5263852672
 20
206.9723709711
 30
0.0
 10
84.3781979733
 20
206.642793541
 30
0.0
 10
84.2847381366
 20
206.4203930139
 30
0.0
  0
ENDSEC
  0
SECTION
  2
OBJECTS
  0
DICTIONARY
  5
C
100
AcDbDictionary
280
0
281
1
  3
ACAD_GROUP
350
D
  3
ACAD_MLINESTYLE
350
17
  3
ACAD_LAYOUT
350
1A
  3
ACAD_PLOTSETTINGS
350
19
  3
ACAD_PLOTSTYLENAME
350
E
  0
DICTIONARY
  5
D
102
{ACAD_REACTORS
330
C
102
}
100
AcDbDictionary
280
0
281
1
  0
ACDBDICTIONARYWDFLT
  5
E
102
{ACAD_REACTORS
330
C
102
}
100
AcDbDictionary
281
1
  3
Normal
350
F
100
AcDbDictionaryWithDefault
340
F
  0
DICTIONARY
  5
17
102
{ACAD_REACTORS
330
C
102
}
100
AcDbDictionary
280
0
281
1
  3
Standard
350
18
  0
DICTIONARY
  5
19
102
{ACAD_REACTORS
330
C
102
}
100
AcDbDictionary
281
1
  0
DICTIONARY
  5
1A
102
{ACAD_REACTORS
330
C
102
}
100
AcDbDictionary
281
1
  3
Model
350
254
  3
Layout1
350
255
  0
ACDBPLACEHOLDER
  5
F
102
{ACAD_REACTORS
330
E
102
}
  0
MLINESTYLE
  5
18
102
{ACAD_REACTORS
330
17
102
}
100
AcDbMlineStyle
  2
STANDARD
 70
0
  3

 62
256
 51
90.0
 52
90.0
 71
2
 49
0.5
 62
256
  6
BYLAYER
 49
-0.5
 62
256
  6
BYLAYER
  0
LAYOUT
  5
254
102
{ACAD_REACTORS
330
1A
102
}
100
AcDbPlotSettings
  1

  2
none_device
  4

  6

 40
0.0
 41
0.0
 42
0.0
 43
0.0
 44
210.0
 45
297.0
 46
0.0
 47
0.0
 48
0.0
 49
0.0
140
0.0
141
0.0
142
1.0
143
1.0
 70
1024
 72
1
 73
0
 74
0
  7

 75
0
147
1.0
148
0.0
149
0.0
100
AcDbLayout
  1
Model
 70
0
 71
0
 10
0.0
 20
0.0
 11
210.0
 21
297.0
 12
0.0
 22
0.0
 32
0.0
 14
0.0
 24
0.0
 34
0.0
 15
0.0
 25
0.0
 35
0.0
146
0.0
 13
0.0
 23
0.0
 33
0.0
 16
1.0
 26
0.0
 36
0.0
 17
0.0
 27
1.0
 37
0.0
 76
0
330
210
345
0
346
0
  0
LAYOUT
  5
255
102
{ACAD_REACTORS
330
1A
102
}
100
AcDbPlotSettings
  1

  2
none_device
  4

  6

 40
0.0
 41
0.0
 42
0.0
 43
0.0
 44
210.0
 45
297.0
 46
0.0
 47
0.0
 48
0.0
 49
0.0
140
0.0
141
0.0
142
1.0
143
1.0
 70
0
 72
1
 73
0
 74
0
  7

 75
0
147
1.0
148
0.0
149
0.0
100
AcDbLayout
  1
Layout1
 70
0
 71
1
 10
0.0
 20
0.0
 11
210.0
 21
297.0
 12
0.0
 22
0.0
 32
0.0
 14
0.0
 24
0.0
 34
0.0
 15
0.0
 25
0.0
 35
0.0
146
0.0
 13
0.0
 23
0.0
 33
0.0
 16
1.0
 26
0.0
 36
0.0
 17
0.0
 27
1.0
 37
0.0
 76
0
330
211
345
0
346
0
  0
ENDSEC
  0
EOF
