999
DXF file: C:\Users\sesa63760\Dev\_Creo\CAD\MCADPE0010608_3D-CAD\drw0001_1.dxf
999
Pro/ENGINEER 2019471 by Parametric Technology Corporation
  0
SECTION
  2
HEADER
  9
$ACADVER
  1
AC1024
  9
$DWGCODEPAGE
  3
ANSI_1252
  9
$EXTMAX
 10
48.4076488179
 20
68.4622461853
 30
0.0
  9
$EXTMIN
 10
0.0
 20
0.0
 30
0.0
  9
$LIMMIN
 10
0.0
 20
0.0
  9
$LIMMAX
 10
48.4076488179
 20
68.4622461853
  9
$VIEWCTR
 10
24.2038244089
 20
34.2311230926
  9
$VIEWSIZE
 40
68.4622461853
  9
$CLAYER
  8
0
  9
$LTSCALE
 40
4.4627241958
  9
$CELTYPE
  6
BYLAYER
  9
$DIMSCALE
 40
1.0
  9
$DIMASZ
 40
0.5762815335
  9
$DIMEXO
 40
1.0
  9
$DIMDLI
 40
3.0833367171
  9
$DIMEXE
 40
1.0
  9
$DIMCEN
 40
0.7302639593
  9
$DIMLFAC
 40
1.0
  9
$DIMBLK
  1
_FILLED
  9
$DIMALT
 70
0
  9
$DIMALTF
 40
0.0393700787
  9
$DIMTXT
 40
0.806794147
  9
$DIMTOL
 70
1
  9
$DIMLIM
 70
0
  9
$DIMTFAC
 40
1.0
  9
$DIMTP
 40
0.01
  9
$DIMTM
 40
0.01
  9
$DIMGAP
 40
0.625
  9
$DIMDSEP
 70
46
  9
$AUNITS
 70
0
  9
$PDMODE
 70
3
  9
$PDSIZE
 40
0.3125
  9
$HANDSEED
  5
303
  9
$TILEMODE
 70
1
  9
$MEASUREMENT
 70
1
  9
$INSUNITS
 70
4
  0
ENDSEC
  0
SECTION
  2
CLASSES
  0
CLASS
  1
ACDBDICTIONARYWDFLT
  2
AcDbDictionaryWithDefault
  3
AutoCAD 2000
 90
0
 91
1
280
0
281
0
  0
CLASS
  1
ACDBPLACEHOLDER
  2
AcDbPlaceHolder
  3
AutoCAD 2000
 90
0
 91
1
280
0
281
0
  0
CLASS
  1
LAYOUT
  2
AcDbLayout
  3
AutoCAD 2000
 90
0
 91
0
280
0
281
0
  0
ENDSEC
  0
SECTION
  2
TABLES
  0
TABLE
  2
VPORT
  5
8
100
AcDbSymbolTable
 70
2
  0
VPORT
  5
1F4
100
AcDbSymbolTableRecord
100
AcDbViewportTableRecord
  2
*ACTIVE
 70
0
 10
0.0
 20
0.0
 11
1.0
 21
1.0
 12
24.2038244089
 22
34.2311230926
 13
0.0
 23
0.0
 14
1.0
 24
1.0
 15
0.0
 25
0.0
 16
0.0
 26
0.0
 36
1.0
 17
0.0
 27
0.0
 37
0.0
 40
68.4622461853
 41
0.7070707071
 42
50.0
 43
0.0
 44
0.0
 50
0.0
 51
0.0
 71
0
 72
100
 73
1
 74
1
 75
0
 76
0
 77
0
 78
0
  0
ENDTAB
  0
TABLE
  2
LTYPE
  5
5
100
AcDbSymbolTable
 70
6
  0
LTYPE
  5
14
100
AcDbSymbolTableRecord
100
AcDbLinetypeTableRecord
  2
BYBLOCK
 70
0
  3

 72
65
 73
0
 40
0.0
  0
LTYPE
  5
15
100
AcDbSymbolTableRecord
100
AcDbLinetypeTableRecord
  2
BYLAYER
 70
0
  3

 72
65
 73
0
 40
0.0
  0
LTYPE
  5
16
100
AcDbSymbolTableRecord
100
AcDbLinetypeTableRecord
  2
CONTINUOUS
 70
64
  3
Solid line
 72
65
 73
0
 40
0.0
  0
LTYPE
  5
1F5
100
AcDbSymbolTableRecord
100
AcDbLinetypeTableRecord
  2
CENTER
 70
64
  3
____ _ ____ _ ____ _ ____ _ ____ _ ____ _ ____
 72
65
 73
4
 40
0.6
 49
0.375
 74
0
 49
-0.075
 74
0
 49
0.075
 74
0
 49
-0.075
 74
0
  0
LTYPE
  5
1F6
100
AcDbSymbolTableRecord
100
AcDbLinetypeTableRecord
  2
HIDDEN
 70
64
  3
- - - - - - - - - - - - - - - - - - - -
 72
65
 73
2
 40
0.2
 49
0.1
 74
0
 49
-0.1
 74
0
  0
LTYPE
  5
1F7
100
AcDbSymbolTableRecord
100
AcDbLinetypeTableRecord
  2
PHANTOM
 70
64
  3
_____ _ _ _____ _ _ _____ _ _ _____
 72
65
 73
6
 40
0.8
 49
0.45
 74
0
 49
-0.05
 74
0
 49
0.1
 74
0
 49
-0.05
 74
0
 49
0.1
 74
0
 49
-0.05
 74
0
  0
LTYPE
  5
1F8
100
AcDbSymbolTableRecord
100
AcDbLinetypeTableRecord
  2
DOT
 70
64
  3
. . . . . . . . . . . . . . . . . . . .
 72
65
 73
2
 40
0.2
 49
0.1
 74
0
 49
-0.1
 74
0
  0
LTYPE
  5
1F9
100
AcDbSymbolTableRecord
100
AcDbLinetypeTableRecord
  2
DASHED
 70
64
  3
- - - - - - - - - - - - - - - - - - - -
 72
65
 73
2
 40
0.2
 49
0.1
 74
0
 49
-0.1
 74
0
  0
ENDTAB
  0
TABLE
  2
LAYER
  5
2
100
AcDbSymbolTable
 70
36
  0
LAYER
  5
10
100
AcDbSymbolTableRecord
100
AcDbLayerTableRecord
  2
0
 70
0
 62
7
  6
CONTINUOUS
370
-3
390
F
  0
LAYER
  5
1FA
100
AcDbSymbolTableRecord
100
AcDbLayerTableRecord
  2
DEFAULT_1
 70
0
 62
7
  6
CENTER
370
-3
390
F
  0
LAYER
  5
1FB
100
AcDbSymbolTableRecord
100
AcDbLayerTableRecord
  2
DEFAULT_2
 70
0
 62
7
  6
HIDDEN
370
-3
390
F
  0
LAYER
  5
1FC
100
AcDbSymbolTableRecord
100
AcDbLayerTableRecord
  2
DEFAULT_3
 70
0
 62
7
  6
PHANTOM
370
-3
390
F
  0
LAYER
  5
1FD
100
AcDbSymbolTableRecord
100
AcDbLayerTableRecord
  2
00_COMPONENTS
 70
0
 62
7
  6
CONTINUOUS
370
-3
390
F
  0
LAYER
  5
1FE
100
AcDbSymbolTableRecord
100
AcDbLayerTableRecord
  2
01_1_DEFAULT_DATUMS
 70
0
 62
7
  6
CONTINUOUS
370
-3
390
F
  0
LAYER
  5
1FF
100
AcDbSymbolTableRecord
100
AcDbLayerTableRecord
  2
01_PLANES
 70
0
 62
7
  6
CONTINUOUS
370
-3
390
F
  0
LAYER
  5
200
100
AcDbSymbolTableRecord
100
AcDbLayerTableRecord
  2
02_COORD_SYS
 70
0
 62
7
  6
CONTINUOUS
370
-3
390
F
  0
LAYER
  5
201
100
AcDbSymbolTableRecord
100
AcDbLayerTableRecord
  2
03_AXES
 70
0
 62
7
  6
CONTINUOUS
370
-3
390
F
  0
LAYER
  5
202
100
AcDbSymbolTableRecord
100
AcDbLayerTableRecord
  2
04_POINTS
 70
0
 62
7
  6
CONTINUOUS
370
-3
390
F
  0
LAYER
  5
203
100
AcDbSymbolTableRecord
100
AcDbLayerTableRecord
  2
05_CURVES
 70
0
 62
7
  6
CONTINUOUS
370
-3
390
F
  0
LAYER
  5
204
100
AcDbSymbolTableRecord
100
AcDbLayerTableRecord
  2
06_SURFS
 70
0
 62
7
  6
CONTINUOUS
370
-3
390
F
  0
LAYER
  5
205
100
AcDbSymbolTableRecord
100
AcDbLayerTableRecord
  2
07_COSMETICS
 70
0
 62
7
  6
CONTINUOUS
370
-3
390
F
  0
LAYER
  5
206
100
AcDbSymbolTableRecord
100
AcDbLayerTableRecord
  2
10_NOTES
 70
0
 62
7
  6
CONTINUOUS
370
-3
390
F
  0
LAYER
  5
207
100
AcDbSymbolTableRecord
100
AcDbLayerTableRecord
  2
11_NOTES_PUB
 70
0
 62
7
  6
CONTINUOUS
370
-3
390
F
  0
LAYER
  5
208
100
AcDbSymbolTableRecord
100
AcDbLayerTableRecord
  2
13_REF_GTOL
 70
0
 62
7
  6
CONTINUOUS
370
-3
390
F
  0
LAYER
  5
209
100
AcDbSymbolTableRecord
100
AcDbLayerTableRecord
  2
16_MISC
 70
0
 62
7
  6
CONTINUOUS
370
-3
390
F
  0
LAYER
  5
20A
100
AcDbSymbolTableRecord
100
AcDbLayerTableRecord
  2
17_NO_PRINT
 70
0
 62
7
  6
CONTINUOUS
370
-3
390
F
  0
LAYER
  5
20B
100
AcDbSymbolTableRecord
100
AcDbLayerTableRecord
  2
18_DATUM_CAMS_JOINTS
 70
0
 62
7
  6
CONTINUOUS
370
-3
390
F
  0
LAYER
  5
20C
100
AcDbSymbolTableRecord
100
AcDbLayerTableRecord
  2
19_DATUM_FUNCTIONAL
 70
0
 62
7
  6
CONTINUOUS
370
-3
390
F
  0
LAYER
  5
20D
100
AcDbSymbolTableRecord
100
AcDbLayerTableRecord
  2
20_DATUM_KINEMATIC_SCHEME
 70
0
 62
7
  6
CONTINUOUS
370
-3
390
F
  0
ENDTAB
  0
TABLE
  2
STYLE
  5
3
100
AcDbSymbolTable
 70
1
  0
STYLE
  5
11
100
AcDbSymbolTableRecord
100
AcDbTextStyleTableRecord
  2
STANDARD
 70
0
 40
0.0
 41
1.0
 50
0.0
 71
0
 42
0.2
  3
ARIAL.TTF
  4

  0
STYLE
  5
20E
100
AcDbSymbolTableRecord
100
AcDbTextStyleTableRecord
  2
TEXTSTYLE_1
 70
0
 40
0.0
 41
0.8
 50
0.0
 71
0
 42
0.2
  3
gdt
  4

  0
ENDTAB
  0
TABLE
  2
VIEW
  5
6
100
AcDbSymbolTable
 70
0
  0
ENDTAB
  0
TABLE
  2
UCS
  5
7
100
AcDbSymbolTable
 70
0
  0
ENDTAB
  0
TABLE
  2
APPID
  5
9
100
AcDbSymbolTable
 70
1
  0
APPID
  5
20F
100
AcDbSymbolTableRecord
100
AcDbRegAppTableRecord
  2
ACAD
 70
0
  0
ENDTAB
  0
TABLE
  2
BLOCK_RECORD
  5
1
100
AcDbSymbolTable
 70
0
  0
BLOCK_RECORD
  5
210
100
AcDbSymbolTableRecord
100
AcDbBlockTableRecord
  2
*Model_Space
  0
BLOCK_RECORD
  5
211
100
AcDbSymbolTableRecord
100
AcDbBlockTableRecord
  2
*Paper_Space
  0
BLOCK_RECORD
  5
212
100
AcDbSymbolTableRecord
100
AcDbBlockTableRecord
  2
_FILLED
  0
ENDTAB
  0
TABLE
  2
DIMSTYLE
  5
A
100
AcDbSymbolTable
 70
1
100
AcDbDimStyleTable
 71
0
  0
DIMSTYLE
105
213
100
AcDbSymbolTableRecord
100
AcDbDimStyleTableRecord
  2
STANDARD
 70
0
  3

  4

 40
1.0
 41
0.5762815335
 42
1.0
 43
0.38
 44
1.0
 45
0.0
 46
0.0
 47
0.01
 48
0.01
140
0.806794147
141
0.09
142
0.0
143
25.4
144
1.0
145
0.0
146
1.0
147
0.625
 71
1
 72
0
 73
0
 74
0
 75
0
 76
0
 77
1
 78
8
 79
2
170
0
171
1
172
0
173
0
174
0
175
0
176
0
177
0
178
0
270
2
179
2
271
2
272
2
273
2
274
2
275
0
280
0
281
0
282
0
283
1
284
8
285
0
286
0
287
3
288
0
340
11
278
46
341
212
342
212
343
212
344
212
  0
ENDTAB
  0
ENDSEC
  0
SECTION
  2
BLOCKS
  0
BLOCK
  5
20
100
AcDbEntity
  8
0
100
AcDbBlockBegin
  2
*Model_Space
 70
0
 10
0.0
 20
0.0
 30
0.0
  3
*Model_Space
  1

  0
ENDBLK
  5
21
100
AcDbEntity
  8
0
100
AcDbBlockEnd
  0
BLOCK
  5
1C
100
AcDbEntity
  8
0
100
AcDbBlockBegin
  2
*Paper_Space
 70
0
 10
0.0
 20
0.0
 30
0.0
  3
*Paper_Space
  1

  0
ENDBLK
  5
1D
100
AcDbEntity
  8
0
100
AcDbBlockEnd
  0
BLOCK
  5
214
100
AcDbEntity
  8
0
100
AcDbBlockBegin
  2
_FILLED
 70
64
 10
0.0
 20
0.0
  3
_FILLED
  1

  0
SOLID
  5
215
100
AcDbEntity
  8
0
  6
BYBLOCK
 62
0
100
AcDbTrace
 10
0.0
 20
0.0
 11
-1.0
 21
0.25
 12
-1.0
 22
-0.25
 13
-1.0
 23
-0.25
  0
ENDBLK
  5
216
100
AcDbEntity
  8
0
  6
BYBLOCK
 62
0
100
AcDbBlockEnd
  0
ENDSEC
  0
SECTION
  2
ENTITIES
  0
LINE
  5
217
100
AcDbEntity
  8
0
100
AcDbLine
 62
7
  6
BYLAYER
 10
6.0485972145
 20
11.3537271308
 11
16.4884654887
 21
5.3262226222
  0
LINE
  5
218
100
AcDbEntity
  8
0
100
AcDbLine
 62
7
  6
BYLAYER
 10
10.1902161053
 20
9.3008289422
 11
5.8414912956
 21
11.8115095825
  0
LINE
  5
219
100
AcDbEntity
  8
0
100
AcDbLine
 62
7
  6
BYLAYER
 10
15.7375332932
 20
6.4499316066
 11
12.4405036615
 21
8.3534294891
  0
LINE
  5
21A
100
AcDbEntity
  8
0
100
AcDbLine
 62
7
  6
BYLAYER
 10
13.3537880142
 20
9.2913860357
 11
16.093176877
 21
7.7098349178
  0
LINE
  5
21B
100
AcDbEntity
  8
0
100
AcDbLine
 62
7
  6
BYLAYER
 10
16.2723730157
 20
7.8780286153
 11
13.4098482838
 21
9.5306706521
  0
LINE
  5
21C
100
AcDbEntity
  8
0
100
AcDbLine
 62
7
  6
BYLAYER
 10
13.9464504665
 20
10.4600980565
 11
16.8089385487
 21
8.8073925392
  0
LINE
  5
21D
100
AcDbEntity
  8
0
100
AcDbLine
 62
7
  6
BYLAYER
 10
5.8414912956
 20
17.2295605207
 11
10.1902161053
 21
14.7188798804
  0
LINE
  5
21E
100
AcDbEntity
  8
0
100
AcDbLine
 62
7
  6
BYLAYER
 10
10.422846146
 20
15.2368187434
 11
6.0741213364
 21
17.7474993837
  0
LINE
  5
21F
100
AcDbEntity
  8
0
100
AcDbLine
 62
7
  6
BYLAYER
 10
29.8306550353
 20
63.2090828315
 11
27.8274988686
 21
62.0525669828
  0
LINE
  5
220
100
AcDbEntity
  8
0
100
AcDbLine
 62
7
  6
BYLAYER
 10
12.6397385973
 20
52.3041589428
 11
12.9724222192
 21
52.4962327749
  0
LINE
  5
221
100
AcDbEntity
  8
0
100
AcDbLine
 62
7
  6
BYLAYER
 10
18.5961370838
 20
54.8857391469
 11
15.1475085191
 21
52.8946844017
  0
LINE
  5
222
100
AcDbEntity
  8
0
100
AcDbLine
 62
7
  6
BYLAYER
 10
8.0556312157
 20
19.7243095223
 11
12.4043560253
 21
17.213628882
  0
LINE
  5
223
100
AcDbEntity
  8
0
100
AcDbLine
 62
7
  6
BYLAYER
 10
12.6461997811
 20
17.402497727
 11
8.2974749714
 21
19.9131783673
  0
LINE
  5
224
100
AcDbEntity
  8
0
100
AcDbLine
 62
7
  6
BYLAYER
 10
5.8414912956
 20
40.360080662
 11
5.8414912956
 21
26.2929068063
  0
LINE
  5
225
100
AcDbEntity
  8
0
100
AcDbLine
 62
7
  6
BYLAYER
 10
5.8414912956
 20
11.8115095825
 11
5.8414912956
 21
17.2295605207
  0
LINE
  5
226
100
AcDbEntity
  8
0
100
AcDbLine
 62
7
  6
BYLAYER
 10
6.152150174
 20
41.4054701724
 11
7.3352350765
 21
43.4546447085
  0
LINE
  5
227
100
AcDbEntity
  8
0
100
AcDbLine
 62
7
  6
BYLAYER
 10
11.5477175382
 20
50.7509188606
 11
12.1397406791
 21
51.7763387121
  0
LINE
  5
228
100
AcDbEntity
  8
0
100
AcDbLine
 62
7
  6
BYLAYER
 10
19.6391239284
 20
54.2835840339
 11
16.1904953636
 21
52.2925292887
  0
LINE
  5
229
100
AcDbEntity
  8
0
100
AcDbLine
 62
7
  6
BYLAYER
 10
39.4714287397
 20
16.6555715103
 11
39.6714208849
 21
16.6753749266
  0
LINE
  5
22A
100
AcDbEntity
  8
0
100
AcDbLine
 62
7
  6
BYLAYER
 10
10.4376662375
 20
21.1488109951
 11
10.8972875589
 21
20.8834545047
  0
LINE
  5
22B
100
AcDbEntity
  8
0
100
AcDbLine
 62
7
  6
BYLAYER
 10
14.3267697258
 20
18.9034868453
 11
14.7863910472
 21
18.6381303548
  0
LINE
  5
22C
100
AcDbEntity
  8
0
100
AcDbLine
 62
7
  6
BYLAYER
 10
6.7253784521
 20
34.6025484065
 11
6.7253784521
 21
25.7826058631
  0
LINE
  5
22D
100
AcDbEntity
  8
0
100
AcDbLine
 62
7
  6
BYLAYER
 10
9.6664833088
 20
43.8263070919
 11
12.3914719635
 21
48.5461520923
  0
LINE
  5
22E
100
AcDbEntity
  8
0
100
AcDbLine
 62
7
  6
BYLAYER
 10
34.179379845
 20
60.6984021912
 11
32.1762236782
 21
59.5418863425
  0
LINE
  5
22F
100
AcDbEntity
  8
0
100
AcDbLine
 62
7
  6
BYLAYER
 10
21.9018750489
 20
52.9772136195
 11
18.4532464841
 21
50.9861588743
  0
LINE
  5
230
100
AcDbEntity
  8
0
100
AcDbLine
 62
7
  6
BYLAYER
 10
16.988463407
 20
49.7934783025
 11
17.3211470288
 21
49.9855521346
  0
LINE
  5
231
100
AcDbEntity
  8
0
100
AcDbLine
 62
7
  6
BYLAYER
 10
22.9448618935
 20
52.3750585066
 11
19.4962333287
 21
50.3840037614
  0
LINE
  5
232
100
AcDbEntity
  8
0
100
AcDbLine
 62
7
  6
BYLAYER
 10
5.945047456
 20
26.0640137324
 11
10.2937722657
 21
23.5533330921
  0
LINE
  5
233
100
AcDbEntity
  8
0
100
AcDbLine
 62
7
  6
BYLAYER
 10
10.1902161053
 20
23.782226166
 11
5.8414912956
 21
26.2929068063
  0
LINE
  5
234
100
AcDbEntity
  8
0
100
AcDbLine
 62
7
  6
BYLAYER
 10
14.3267697258
 20
21.4754694592
 11
10.8972875589
 21
23.4554371187
  0
LINE
  5
235
100
AcDbEntity
  8
0
100
AcDbLine
 62
7
  6
BYLAYER
 10
9.5891728389
 20
24.1292308073
 11
9.5891728389
 21
32.9491733507
  0
LINE
  5
236
100
AcDbEntity
  8
0
100
AcDbLine
 62
7
  6
BYLAYER
 10
10.1902161053
 20
37.8494000217
 11
10.1902161053
 21
23.782226166
  0
LINE
  5
237
100
AcDbEntity
  8
0
100
AcDbLine
 62
7
  6
BYLAYER
 10
10.1902161053
 20
9.3008289422
 11
10.1902161053
 21
14.7188798804
  0
LINE
  5
238
100
AcDbEntity
  8
0
100
AcDbLine
 62
7
  6
BYLAYER
 10
10.4376662375
 20
23.5329037328
 11
10.4376662375
 21
21.1488109951
  0
LINE
  5
239
100
AcDbEntity
  8
0
100
AcDbLine
 62
7
  6
BYLAYER
 10
10.8972875589
 20
23.4554371187
 11
10.8972875589
 21
20.8834545047
  0
LINE
  5
23A
100
AcDbEntity
  8
0
100
AcDbLine
 62
7
  6
BYLAYER
 10
16.4884654887
 20
49.2656580718
 11
15.8964423478
 21
48.2402382203
  0
LINE
  5
23B
100
AcDbEntity
  8
0
100
AcDbLine
 62
7
  6
BYLAYER
 10
11.6839598862
 20
40.9439640682
 11
10.5008749837
 21
38.8947895321
  0
LINE
  5
23C
100
AcDbEntity
  8
0
100
AcDbLine
 62
7
  6
BYLAYER
 10
7.0230382885
 20
39.8173066746
 11
6.913967241
 21
39.7409003939
  0
LINE
  5
23D
100
AcDbEntity
  8
0
100
AcDbLine
 62
7
  6
BYLAYER
 10
12.5520486724
 20
23.8881360664
 11
14.3267697258
 21
22.8635235683
  0
LINE
  5
23E
100
AcDbEntity
  8
0
100
AcDbLine
 62
7
  6
BYLAYER
 10
16.8089385487
 20
46.1545363609
 11
13.9464504665
 21
41.1965340439
  0
LINE
  5
23F
100
AcDbEntity
  8
0
100
AcDbLine
 62
7
  6
BYLAYER
 10
10.2937988165
 20
23.5533790248
 11
10.422846146
 21
23.5329037328
  0
LINE
  5
240
100
AcDbEntity
  8
0
100
AcDbLine
 62
7
  6
BYLAYER
 10
14.3267697258
 20
18.9034868453
 11
14.3267697258
 21
21.4754694592
  0
LINE
  5
241
100
AcDbEntity
  8
0
100
AcDbLine
 62
7
  6
BYLAYER
 10
14.3267697258
 20
22.8635235683
 11
14.3267697258
 21
24.9047887822
  0
LINE
  5
242
100
AcDbEntity
  8
0
100
AcDbLine
 62
7
  6
BYLAYER
 10
14.7863910472
 20
25.1701496919
 11
14.7863910472
 21
18.6381303548
  0
LINE
  5
243
100
AcDbEntity
  8
0
100
AcDbLine
 62
7
  6
BYLAYER
 10
35.9401275721
 20
20.8611257012
 11
35.8555877037
 21
20.884443866
  0
LINE
  5
244
100
AcDbEntity
  8
0
100
AcDbLine
 62
7
  6
BYLAYER
 10
24.598042138
 20
54.7280364785
 11
26.3800607586
 21
59.2890230916
  0
LINE
  5
245
100
AcDbEntity
  8
0
100
AcDbLine
 62
7
  6
BYLAYER
 10
10.422846146
 20
23.5329037328
 11
12.4043560253
 21
23.8441304609
  0
LINE
  5
246
100
AcDbEntity
  8
0
100
AcDbLine
 62
7
  6
BYLAYER
 10
9.5891728389
 20
32.9491733507
 11
6.7253784521
 21
34.6025484065
  0
LINE
  5
247
100
AcDbEntity
  8
0
100
AcDbLine
 62
7
  6
BYLAYER
 10
36.6047866098
 20
18.3105803609
 11
39.4714242783
 21
16.6555637728
  0
LINE
  5
248
100
AcDbEntity
  8
0
100
AcDbLine
 62
7
  6
BYLAYER
 10
39.4714217175
 20
17.1174487681
 11
37.1186652936
 21
18.4757825931
  0
LINE
  5
249
100
AcDbEntity
  8
0
100
AcDbLine
 62
7
  6
BYLAYER
 10
39.2521838148
 20
50.3181800471
 11
38.4743695938
 21
49.8691114778
  0
LINE
  5
24A
100
AcDbEntity
  8
0
100
AcDbLine
 62
7
  6
BYLAYER
 10
41.1750837025
 20
49.2646287826
 11
40.6007063377
 21
48.9330138359
  0
LINE
  5
24B
100
AcDbEntity
  8
0
100
AcDbLine
 62
7
  6
BYLAYER
 10
35.807167525
 20
20.9378884836
 11
35.9401275721
 21
20.8611257012
  0
LINE
  5
24C
100
AcDbEntity
  8
0
100
AcDbLine
 62
7
  6
BYLAYER
 10
39.460658274
 20
19.3602197972
 11
40.4398807058
 21
18.7948782523
  0
LINE
  5
24D
100
AcDbEntity
  8
0
100
AcDbLine
 62
7
  6
BYLAYER
 10
11.7444520673
 20
48.9362891682
 11
11.3888084835
 21
49.7855330931
  0
LINE
  5
24E
100
AcDbEntity
  8
0
100
AcDbLine
 62
7
  6
BYLAYER
 10
42.9037732598
 20
23.5416677523
 11
42.7240636555
 21
23.6135001896
  0
LINE
  5
24F
100
AcDbEntity
  8
0
100
AcDbLine
 62
7
  6
BYLAYER
 10
5.8414912956
 20
40.360080662
 11
6.913967241
 21
39.7409003939
  0
LINE
  5
250
100
AcDbEntity
  8
0
100
AcDbLine
 62
7
  6
BYLAYER
 10
9.1177401599
 20
38.4685802897
 11
10.1902161053
 21
37.8494000217
  0
LINE
  5
251
100
AcDbEntity
  8
0
100
AcDbLine
 62
7
  6
BYLAYER
 10
38.686500745
 20
21.6589508496
 11
37.9134654247
 21
22.1052529031
  0
LINE
  5
252
100
AcDbEntity
  8
0
100
AcDbLine
 62
7
  6
BYLAYER
 10
38.4072564439
 20
22.5227334299
 11
39.2949481092
 21
22.0102360022
  0
LINE
  5
253
100
AcDbEntity
  8
0
100
AcDbLine
 62
7
  6
BYLAYER
 10
10.5008749837
 20
38.8947895321
 11
6.152150174
 21
41.4054701724
  0
LINE
  5
254
100
AcDbEntity
  8
0
100
AcDbLine
 62
7
  6
BYLAYER
 10
39.4358307279
 20
22.2691071929
 11
38.4743695938
 21
22.8241944797
  0
LINE
  5
255
100
AcDbEntity
  8
0
100
AcDbLine
 62
7
  6
BYLAYER
 10
38.4743695938
 20
23.2112547461
 11
39.4036928825
 21
22.6747218332
  0
LINE
  5
256
100
AcDbEntity
  8
0
100
AcDbLine
 62
7
  6
BYLAYER
 10
39.5093548465
 20
22.8688752262
 11
38.4743695938
 21
23.4664107224
  0
LINE
  5
257
100
AcDbEntity
  8
0
100
AcDbLine
 62
7
  6
BYLAYER
 10
38.4743695938
 20
23.7870999373
 11
39.7870838237
 21
23.0292211688
  0
LINE
  5
258
100
AcDbEntity
  8
0
100
AcDbLine
 62
7
  6
BYLAYER
 10
15.7375332932
 20
47.2748524528
 11
16.093176877
 21
46.4256085279
  0
LINE
  5
259
100
AcDbEntity
  8
0
100
AcDbLine
 62
7
  6
BYLAYER
 10
16.093176877
 20
7.7098349179
 11
15.7375332932
 21
6.4499316066
  0
LINE
  5
25A
100
AcDbEntity
  8
0
100
AcDbLine
 62
7
  6
BYLAYER
 10
6.0741213364
 20
17.7474993837
 11
8.0556312158
 21
19.7243095224
  0
LINE
  5
25B
100
AcDbEntity
  8
0
100
AcDbLine
 62
7
  6
BYLAYER
 10
6.7253784521
 20
25.7826058631
 11
9.5891728389
 21
27.4360084538
  0
LINE
  5
25C
100
AcDbEntity
  8
0
100
AcDbLine
 62
7
  6
BYLAYER
 10
7.3352350765
 20
43.4546447085
 11
11.6839598862
 21
40.9439640682
  0
LINE
  5
25D
100
AcDbEntity
  8
0
100
AcDbLine
 62
7
  6
BYLAYER
 10
38.4743695938
 20
25.9736995611
 11
42.4727382953
 21
23.6652925382
  0
LINE
  5
25E
100
AcDbEntity
  8
0
100
AcDbLine
 62
7
  6
BYLAYER
 10
38.4743695938
 20
26.0670066943
 11
42.7240636555
 21
23.6135001896
  0
LINE
  5
25F
100
AcDbEntity
  8
0
100
AcDbLine
 62
7
  6
BYLAYER
 10
38.5550814276
 20
26.0524055744
 11
42.9038062373
 21
23.5417249341
  0
LINE
  5
260
100
AcDbEntity
  8
0
100
AcDbLine
 62
7
  6
BYLAYER
 10
12.4405458743
 20
41.5642710312
 11
8.0918210646
 21
44.0749516715
  0
LINE
  5
261
100
AcDbEntity
  8
0
100
AcDbLine
 62
7
  6
BYLAYER
 10
13.9464504665
 20
41.1965340439
 11
13.4098849334
 21
41.5063291561
  0
LINE
  5
262
100
AcDbEntity
  8
0
100
AcDbLine
 62
7
  6
BYLAYER
 10
9.0050982777
 20
44.191562886
 11
13.3538230873
 21
41.6808822457
  0
LINE
  5
263
100
AcDbEntity
  8
0
100
AcDbLine
 62
7
  6
BYLAYER
 10
13.3952027616
 20
41.6735786133
 11
9.0464779519
 21
44.1842592536
  0
LINE
  5
264
100
AcDbEntity
  8
0
100
AcDbLine
 62
7
  6
BYLAYER
 10
13.4098849334
 20
9.5307341326
 11
13.9464504665
 21
10.4600980565
  0
LINE
  5
265
100
AcDbEntity
  8
0
100
AcDbLine
 62
7
  6
BYLAYER
 10
12.4043560254
 20
17.2136288821
 11
10.422846146
 21
15.2368187434
  0
LINE
  5
266
100
AcDbEntity
  8
0
100
AcDbLine
 62
7
  6
BYLAYER
 10
12.6461997811
 20
23.934517064
 11
14.7863910472
 21
25.1701496919
  0
LINE
  5
267
100
AcDbEntity
  8
0
100
AcDbLine
 62
7
  6
BYLAYER
 10
8.2974749714
 20
19.9131783673
 11
10.4376662375
 21
21.1488109951
  0
LINE
  5
268
100
AcDbEntity
  8
0
100
AcDbLine
 62
7
  6
BYLAYER
 10
13.1247216837
 20
22.1694565199
 11
10.8972875589
 21
20.8834545047
  0
LINE
  5
269
100
AcDbEntity
  8
0
100
AcDbLine
 62
7
  6
BYLAYER
 10
16.8089385487
 20
8.8073925392
 11
16.2723730157
 21
7.8780286153
  0
LINE
  5
26A
100
AcDbEntity
  8
0
100
AcDbLine
 62
7
  6
BYLAYER
 10
41.9862399006
 20
50.0282728224
 11
43.0165051407
 21
51.4561029843
  0
LINE
  5
26B
100
AcDbEntity
  8
0
100
AcDbLine
 62
7
  6
BYLAYER
 10
11.7714666066
 20
48.9041042541
 11
16.1201914163
 21
46.3934236138
  0
LINE
  5
26C
100
AcDbEntity
  8
0
100
AcDbLine
 62
7
  6
BYLAYER
 10
16.093176877
 20
46.4256085279
 11
11.7444520673
 21
48.9362891682
  0
LINE
  5
26D
100
AcDbEntity
  8
0
100
AcDbLine
 62
7
  6
BYLAYER
 10
16.2723730157
 20
46.4643314732
 11
16.8089385487
 21
46.1545363609
  0
LINE
  5
26E
100
AcDbEntity
  8
0
100
AcDbLine
 62
7
  6
BYLAYER
 10
11.3888084835
 20
49.7855330931
 11
15.7375332932
 21
47.2748524528
  0
LINE
  5
26F
100
AcDbEntity
  8
0
100
AcDbLine
 62
7
  6
BYLAYER
 10
12.4405458743
 20
8.3535026053
 11
13.3538230874
 21
9.2914467856
  0
LINE
  5
270
100
AcDbEntity
  8
0
100
AcDbLine
 62
7
  6
BYLAYER
 10
12.6461997811
 20
17.402497727
 11
14.7863910472
 21
18.6381303548
  0
LINE
  5
271
100
AcDbEntity
  8
0
100
AcDbLine
 62
7
  6
BYLAYER
 10
13.3538230873
 20
41.6808822457
 11
12.4405458743
 21
41.5642710312
  0
LINE
  5
272
100
AcDbEntity
  8
0
100
AcDbLine
 62
7
  6
BYLAYER
 10
15.8964423478
 20
48.2402382203
 11
11.5477175382
 21
50.7509188606
  0
LINE
  5
273
100
AcDbEntity
  8
0
100
AcDbLine
 62
7
  6
BYLAYER
 10
12.1397406791
 20
51.7763387121
 11
16.4884654887
 21
49.2656580718
  0
LINE
  5
274
100
AcDbEntity
  8
0
100
AcDbLine
 62
7
  6
BYLAYER
 10
34.2317465706
 20
15.5760522865
 11
34.2317465706
 21
16.5148120411
  0
LINE
  5
275
100
AcDbEntity
  8
0
100
AcDbLine
 62
7
  6
BYLAYER
 10
17.7267251279
 20
5.9496426627
 11
18.3358825213
 21
6.7938653597
  0
LINE
  5
276
100
AcDbEntity
  8
0
100
AcDbLine
 62
7
  6
BYLAYER
 10
8.0918210646
 20
44.0749516715
 11
9.0050982777
 21
44.191562886
  0
LINE
  5
277
100
AcDbEntity
  8
0
100
AcDbLine
 62
7
  6
BYLAYER
 10
16.988463407
 20
49.7934783025
 11
12.6397385974
 21
52.3041589428
  0
LINE
  5
278
100
AcDbEntity
  8
0
100
AcDbLine
 62
7
  6
BYLAYER
 10
12.9724222192
 20
52.4962327749
 11
17.3211470288
 21
49.9855521346
  0
LINE
  5
279
100
AcDbEntity
  8
0
100
AcDbLine
 62
7
  6
BYLAYER
 10
17.7267251279
 20
50.0720485686
 11
16.6837382834
 21
50.6742036815
  0
LINE
  5
27A
100
AcDbEntity
  8
0
100
AcDbLine
 62
7
  6
BYLAYER
 10
14.4209871629
 20
51.9805740959
 11
13.3780003182
 21
52.5827292089
  0
LINE
  5
27B
100
AcDbEntity
  8
0
100
AcDbLine
 62
7
  6
BYLAYER
 10
16.7137055913
 20
50.6658898144
 11
14.4509544709
 21
51.9722602289
  0
LINE
  5
27C
100
AcDbEntity
  8
0
100
AcDbLine
 62
7
  6
BYLAYER
 10
13.5251961227
 20
52.5486986658
 11
14.5681829673
 21
51.9465435529
  0
LINE
  5
27D
100
AcDbEntity
  8
0
100
AcDbLine
 62
7
  6
BYLAYER
 10
16.8309340878
 20
50.6401731384
 11
17.8739209324
 21
50.0380180255
  0
LINE
  5
27E
100
AcDbEntity
  8
0
100
AcDbLine
 62
7
  6
BYLAYER
 10
19.4962333287
 20
50.3840037614
 11
18.4532464841
 21
50.9861588743
  0
LINE
  5
27F
100
AcDbEntity
  8
0
100
AcDbLine
 62
7
  6
BYLAYER
 10
16.1904953636
 20
52.2925292887
 11
15.1475085191
 21
52.8946844017
  0
LINE
  5
280
100
AcDbEntity
  8
0
100
AcDbLine
 62
7
  6
BYLAYER
 10
39.4036928825
 20
22.6747218332
 11
39.4358307279
 21
22.2691071929
  0
LINE
  5
281
100
AcDbEntity
  8
0
100
AcDbLine
 62
7
  6
BYLAYER
 10
38.4743695938
 20
22.7997887541
 11
38.4743695938
 21
49.8691114778
  0
LINE
  5
282
100
AcDbEntity
  8
0
100
AcDbLine
 62
7
  6
BYLAYER
 10
17.8739209324
 20
50.0380180255
 11
17.7267251278
 21
50.0720485686
  0
LINE
  5
283
100
AcDbEntity
  8
0
100
AcDbLine
 62
7
  6
BYLAYER
 10
14.4512363784
 20
51.9728878815
 11
18.0641353479
 21
50.7964407656
  0
LINE
  5
284
100
AcDbEntity
  8
0
100
AcDbLine
 62
7
  6
BYLAYER
 10
16.7139874988
 20
50.666517467
 11
16.8309340878
 21
50.6401731384
  0
LINE
  5
285
100
AcDbEntity
  8
0
100
AcDbLine
 62
7
  6
BYLAYER
 10
14.5681829673
 20
51.9465435529
 11
14.4512363784
 21
51.9728878815
  0
LINE
  5
286
100
AcDbEntity
  8
0
100
AcDbLine
 62
7
  6
BYLAYER
 10
16.6837382834
 20
50.6742036815
 11
16.7142694062
 21
50.6671451196
  0
LINE
  5
287
100
AcDbEntity
  8
0
100
AcDbLine
 62
7
  6
BYLAYER
 10
14.4515182858
 20
51.973515534
 11
14.4209871629
 21
51.9805740959
  0
LINE
  5
288
100
AcDbEntity
  8
0
100
AcDbLine
 62
7
  6
BYLAYER
 10
13.3780003182
 20
52.5827292089
 11
13.5251961227
 21
52.5486986658
  0
LINE
  5
289
100
AcDbEntity
  8
0
100
AcDbLine
 62
7
  6
BYLAYER
 10
18.5961370838
 20
54.8857391469
 11
19.6391239284
 21
54.2835840339
  0
LINE
  5
28A
100
AcDbEntity
  8
0
100
AcDbLine
 62
7
  6
BYLAYER
 10
21.9018750489
 20
52.9772136195
 11
22.9448618935
 21
52.3750585066
  0
LINE
  5
28B
100
AcDbEntity
  8
0
100
AcDbLine
 62
7
  6
BYLAYER
 10
39.7870838237
 20
23.0292211688
 11
39.5093548465
 21
22.8688752262
  0
LINE
  5
28C
100
AcDbEntity
  8
0
100
AcDbLine
 62
7
  6
BYLAYER
 10
38.686500745
 20
21.6589508496
 11
39.2949481092
 21
22.0102360022
  0
LINE
  5
28D
100
AcDbEntity
  8
0
100
AcDbLine
 62
7
  6
BYLAYER
 10
39.2521838148
 20
50.3181800471
 11
39.4735419332
 21
49.4920487496
  0
LINE
  5
28E
100
AcDbEntity
  8
0
100
AcDbLine
 62
7
  6
BYLAYER
 10
43.3180308788
 20
52.4090277987
 11
43.3180308788
 21
52.2990275353
  0
LINE
  5
28F
100
AcDbEntity
  8
0
100
AcDbLine
 62
7
  6
BYLAYER
 10
43.3180308788
 20
22.6261526385
 11
43.3180308788
 21
20.0054872466
  0
LINE
  5
290
100
AcDbEntity
  8
0
100
AcDbLine
 62
7
  6
BYLAYER
 10
21.1749292149
 20
9.4666194991
 11
22.8473747914
 21
10.4322006392
  0
LINE
  5
291
100
AcDbEntity
  8
0
100
AcDbLine
 62
7
  6
BYLAYER
 10
38.5804099559
 20
49.930333544
 11
40.3507073785
 21
48.9082517417
  0
LINE
  5
292
100
AcDbEntity
  8
0
100
AcDbLine
 62
7
  6
BYLAYER
 10
39.4735419332
 20
49.4920487496
 11
38.6474010338
 21
49.9690106299
  0
LINE
  5
293
100
AcDbEntity
  8
0
100
AcDbLine
 62
7
  6
BYLAYER
 10
40.4398807058
 20
18.7948782523
 11
39.4714217176
 21
17.1174487681
  0
LINE
  5
294
100
AcDbEntity
  8
0
100
AcDbLine
 62
7
  6
BYLAYER
 10
16.9884634071
 20
5.3757468107
 11
17.3211470288
 21
5.5678206427
  0
LINE
  5
295
100
AcDbEntity
  8
0
100
AcDbLine
 62
7
  6
BYLAYER
 10
33.1710908147
 20
13.73893243
 11
32.1057781753
 21
13.1238775622
  0
LINE
  5
296
100
AcDbEntity
  8
0
100
AcDbLine
 62
7
  6
BYLAYER
 10
42.2573751229
 20
18.1683673901
 11
39.6714208849
 21
16.6753749266
  0
LINE
  5
297
100
AcDbEntity
  8
0
100
AcDbLine
 62
7
  6
BYLAYER
 10
26.3800607586
 20
59.2890230916
 11
28.6428118791
 21
57.9826526772
  0
LINE
  5
298
100
AcDbEntity
  8
0
100
AcDbLine
 62
7
  6
BYLAYER
 10
30.9927157571
 20
58.623062261
 11
26.6439909474
 21
61.1337429013
  0
LINE
  5
299
100
AcDbEntity
  8
0
100
AcDbLine
 62
7
  6
BYLAYER
 10
43.1109249598
 20
52.8668102504
 11
38.9242182701
 21
55.2840755967
  0
LINE
  5
29A
100
AcDbEntity
  8
0
100
AcDbLine
 62
7
  6
BYLAYER
 10
32.1762236782
 20
59.5418863425
 11
27.8274988686
 21
62.0525669828
  0
LINE
  5
29B
100
AcDbEntity
  8
0
100
AcDbLine
 62
7
  6
BYLAYER
 10
38.6994743344
 20
55.4925267743
 11
35.0979346742
 21
60.6163500906
  0
LINE
  5
29C
100
AcDbEntity
  8
0
100
AcDbLine
 62
7
  6
BYLAYER
 10
29.8306550353
 20
63.2090828315
 11
34.179379845
 21
60.6984021912
  0
LINE
  5
29D
100
AcDbEntity
  8
0
100
AcDbLine
 62
7
  6
BYLAYER
 10
35.0979346742
 20
60.6163500906
 11
34.9293549425
 21
60.7726729035
  0
LINE
  5
29E
100
AcDbEntity
  8
0
100
AcDbLine
 62
7
  6
BYLAYER
 10
30.5806423101
 20
63.2833746583
 11
34.9293671197
 21
60.772694018
  0
ARC
  5
29F
100
AcDbEntity
  8
0
100
AcDbCircle
 62
7
  6
BYLAYER
 10
41.8932557554
 20
20.2176384906
 40
3.4960146518
100
AcDbArc
 50
76.2524542818
 51
80.4588927574
  0
ARC
  5
2A0
100
AcDbEntity
  8
0
100
AcDbCircle
 62
7
  6
BYLAYER
 10
38.2184375522
 20
25.4685937278
 40
0.673887231
100
AcDbArc
 50
60.0309268138
 51
67.3880100065
  0
ARC
  5
2A1
100
AcDbEntity
  8
0
100
AcDbCircle
 62
7
  6
BYLAYER
 10
40.368556285
 20
19.1079126896
 40
0.598421104
100
AcDbArc
 50
113.5442173435
 51
115.3316402176
  0
SPLINE
  5
2A2
100
AcDbEntity
  8
0
100
AcDbSpline
 62
7
  6
BYLAYER
 70
0
 71
3
 72
13
 73
9
 74
0
 42
0.0000001
 43
0.0000001
 44
0.0000000001
 40
0.0
 40
0.0
 40
0.0
 40
0.0
 40
0.1081029667
 40
0.2182394015
 40
0.3322429388
 40
0.4516715836
 40
0.7107062232
 40
1.0
 40
1.0
 40
1.0
 40
1.0
 10
7.0158627557
 20
14.7873542036
 30
0.0
 10
7.0486571613
 20
14.8062819738
 30
0.0
 10
7.1182956366
 20
14.8388472154
 30
0.0
 10
7.2309255872
 20
14.8700190892
 30
0.0
 10
7.3509971079
 20
14.8834441603
 30
0.0
 10
7.5239142217
 20
14.8774179916
 30
0.0
 10
7.7536186432
 20
14.8220291205
 30
0.0
 10
7.9280993236
 20
14.7389774882
 30
0.0
 10
8.0158537005
 20
14.6883136213
 30
0.0
  0
SPLINE
  5
2A3
100
AcDbEntity
  8
0
100
AcDbSpline
 62
7
  6
BYLAYER
 70
0
 71
3
 72
21
 73
17
 74
0
 42
0.0000001
 43
0.0000001
 44
0.0000000001
 40
0.0
 40
0.0
 40
0.0
 40
0.0
 40
0.0623706905
 40
0.1287892579
 40
0.1984166254
 40
0.2704133674
 40
0.4174546891
 40
0.5616816187
 40
0.6303100251
 40
0.6954240379
 40
0.7563975103
 40
0.8128593196
 40
0.8647809932
 40
0.9125791505
 40
0.9571719651
 40
1.0
 40
1.0
 40
1.0
 40
1.0
 10
8.0158537005
 20
14.6883136213
 30
0.0
 10
8.0876644253
 20
14.6468546179
 30
0.0
 10
8.2303882869
 20
14.5514009957
 30
0.0
 10
8.4326134673
 20
14.3813478583
 30
0.0
 10
8.6258805397
 20
14.1828754305
 30
0.0
 10
8.8676774253
 20
13.8843033246
 30
0.0
 10
9.1218358548
 20
13.4708048045
 30
0.0
 10
9.3021562584
 20
13.0247406339
 30
0.0
 10
9.391282281
 20
12.6655543313
 30
0.0
 10
9.4275977437
 20
12.4087257167
 30
0.0
 10
9.4338066815
 20
12.1655043164
 30
0.0
 10
9.4095759742
 20
11.9408753117
 30
0.0
 10
9.3551328583
 20
11.7394746317
 30
0.0
 10
9.2711184742
 20
11.5655081958
 30
0.0
 10
9.1585981031
 20
11.4233055662
 30
0.0
 10
9.0651585465
 20
11.351725609
 30
0.0
 10
9.0158446452
 20
11.3232633705
 30
0.0
  0
SPLINE
  5
2A4
100
AcDbEntity
  8
0
100
AcDbSpline
 62
7
  6
BYLAYER
 70
0
 71
3
 72
9
 73
5
 74
0
 42
0.0000001
 43
0.0000001
 44
0.0000000001
 40
0.0
 40
0.0
 40
0.0
 40
0.0
 40
0.4918945014
 40
1.0
 40
1.0
 40
1.0
 40
1.0
 10
38.9242182701
 20
55.2840755967
 30
0.0
 10
38.8804301838
 20
55.3093573829
 30
0.0
 10
38.7970770926
 20
55.3712061139
 30
0.0
 10
38.7295087377
 20
55.4497975555
 30
0.0
 10
38.6994743344
 20
55.4925267743
 30
0.0
  0
SPLINE
  5
2A5
100
AcDbEntity
  8
0
100
AcDbSpline
 62
7
  6
BYLAYER
 70
0
 71
3
 72
11
 73
7
 74
0
 42
0.0000001
 43
0.0000001
 44
0.0000000001
 40
0.0
 40
0.0
 40
0.0
 40
0.0
 40
0.2897049461
 40
0.5490581835
 40
0.7822832707
 40
1.0
 40
1.0
 40
1.0
 40
1.0
 10
43.3180308788
 20
52.4090277987
 30
0.0
 10
43.3180308788
 20
52.4596955414
 30
0.0
 10
43.3103358395
 20
52.5560446539
 30
0.0
 10
43.2713467499
 20
52.6884631301
 30
0.0
 10
43.2056008046
 20
52.7958653865
 30
0.0
 10
43.1439007321
 20
52.847771135
 30
0.0
 10
43.1109249598
 20
52.8668102504
 30
0.0
  0
SPLINE
  5
2A6
100
AcDbEntity
  8
0
100
AcDbSpline
 62
7
  6
BYLAYER
 70
0
 71
3
 72
11
 73
7
 74
0
 42
0.0000001
 43
0.0000001
 44
0.0000000001
 40
0.0
 40
0.0
 40
0.0
 40
0.0
 40
0.2633965706
 40
0.5240500255
 40
0.7722891491
 40
1.0
 40
1.0
 40
1.0
 40
1.0
 10
43.0165051407
 20
51.4561029843
 30
0.0
 10
43.0631541679
 20
51.5207532176
 30
0.0
 10
43.1469878201
 20
51.6561021681
 30
0.0
 10
43.2421129844
 20
51.8704385581
 30
0.0
 10
43.3024518553
 20
52.0858924679
 30
0.0
 10
43.3180308788
 20
52.230105485
 30
0.0
 10
43.3180308788
 20
52.2990275353
 30
0.0
  0
SPLINE
  5
2A7
100
AcDbEntity
  8
0
100
AcDbSpline
 62
7
  6
BYLAYER
 70
0
 71
3
 72
11
 73
7
 74
0
 42
0.0000001
 43
0.0000001
 44
0.0000000001
 40
0.0
 40
0.0
 40
0.0
 40
0.0
 40
0.2303926778
 40
0.4758964237
 40
0.7336376046
 40
1.0
 40
1.0
 40
1.0
 40
1.0
 10
41.1750837025
 20
49.2646287826
 30
0.0
 10
41.2496783367
 20
49.3076957577
 30
0.0
 10
41.3977915537
 20
49.4072343317
 30
0.0
 10
41.6069870016
 20
49.5853741981
 30
0.0
 10
41.8061839206
 20
49.7936171051
 30
0.0
 10
41.9279707669
 20
49.9475184463
 30
0.0
 10
41.9862399006
 20
50.0282728224
 30
0.0
  0
SPLINE
  5
2A8
100
AcDbEntity
  8
0
100
AcDbSpline
 62
7
  6
BYLAYER
 70
0
 71
3
 72
11
 73
7
 74
0
 42
0.0000001
 43
0.0000001
 44
0.0000000001
 40
0.0
 40
0.0
 40
0.0
 40
0.0
 40
0.2177182217
 40
0.4509432136
 40
0.7102956781
 40
1.0
 40
1.0
 40
1.0
 40
1.0
 10
40.3507073785
 20
48.9082517417
 30
0.0
 10
40.3671951838
 20
48.8987322307
 30
0.0
 10
40.40509539
 20
48.8849909032
 30
0.0
 10
40.4680377516
 20
48.8833714743
 30
0.0
 10
40.5351231996
 20
48.8995923915
 30
0.0
 10
40.5787668341
 20
48.9203471332
 30
0.0
 10
40.6007063377
 20
48.9330138359
 30
0.0
  0
SPLINE
  5
2A9
100
AcDbEntity
  8
0
100
AcDbSpline
 62
7
  6
BYLAYER
 70
0
 71
3
 72
13
 73
9
 74
0
 42
0.0000001
 43
0.0000001
 44
0.0000000001
 40
0.0
 40
0.0
 40
0.0
 40
0.0
 40
0.114175582
 40
0.23756922
 40
0.49999856
 40
0.7624286893
 40
0.8858231943
 40
1.0
 40
1.0
 40
1.0
 40
1.0
 10
38.1208176752
 20
22.1874154687
 30
0.0
 10
38.1450037867
 20
22.2013792433
 30
0.0
 10
38.1928025481
 20
22.2349194639
 30
0.0
 10
38.2823487477
 20
22.3186503326
 30
0.0
 10
38.3768477499
 20
22.4478439159
 30
0.0
 10
38.4414824302
 20
22.5942797643
 30
0.0
 10
38.4692222607
 20
22.7136952283
 30
0.0
 10
38.4743695938
 20
22.7718607805
 30
0.0
 10
38.4743695938
 20
22.7997887541
 30
0.0
  0
SPLINE
  5
2AA
100
AcDbEntity
  8
0
100
AcDbSpline
 62
7
  6
BYLAYER
 70
0
 71
3
 72
9
 73
5
 74
0
 42
0.0000001
 43
0.0000001
 44
0.0000000001
 40
0.0
 40
0.0
 40
0.0
 40
0.0
 40
0.2441998105
 40
1.0
 40
1.0
 40
1.0
 40
1.0
 10
38.0792233319
 20
22.1662362188
 30
0.0
 10
38.0827012743
 20
22.16776842
 30
0.0
 10
38.0968516382
 20
22.1742501634
 30
0.0
 10
38.1106309981
 20
22.181534223
 30
0.0
 10
38.1208176752
 20
22.1874154687
 30
0.0
  0
SPLINE
  5
2AB
100
AcDbEntity
  8
0
100
AcDbSpline
 62
7
  6
BYLAYER
 70
0
 71
3
 72
10
 73
6
 74
0
 42
0.0000001
 43
0.0000001
 44
0.0000000001
 40
0.0
 40
0.0
 40
0.0
 40
0.0
 40
0.4734292772
 40
0.7297807613
 40
1.0
 40
1.0
 40
1.0
 40
1.0
 10
36.2710159062
 20
21.7737516302
 30
0.0
 10
36.5648675204
 20
21.7637388772
 30
0.0
 10
37.0214733024
 20
21.8133127355
 30
0.0
 10
37.6202043821
 20
21.979798707
 30
0.0
 10
37.9256471
 20
22.0985784921
 30
0.0
 10
38.0792233319
 20
22.1662362188
 30
0.0
  0
SPLINE
  5
2AC
100
AcDbEntity
  8
0
100
AcDbSpline
 62
7
  6
BYLAYER
 70
0
 71
3
 72
9
 73
5
 74
0
 42
0.0000001
 43
0.0000001
 44
0.0000000001
 40
0.0
 40
0.0
 40
0.0
 40
0.0
 40
0.2775224548
 40
1.0
 40
1.0
 40
1.0
 40
1.0
 10
36.1055717392
 20
21.7256898742
 30
0.0
 10
36.1194664047
 20
21.7337119152
 30
0.0
 10
36.1707854493
 20
21.7600162418
 30
0.0
 10
36.2292721939
 20
21.775174013
 30
0.0
 10
36.2710159062
 20
21.7737516302
 30
0.0
  0
SPLINE
  5
2AD
100
AcDbEntity
  8
0
100
AcDbSpline
 62
7
  6
BYLAYER
 70
0
 71
3
 72
13
 73
9
 74
0
 42
0.0000001
 43
0.0000001
 44
0.0000000001
 40
0.0
 40
0.0
 40
0.0
 40
0.0
 40
0.2893318293
 40
0.5482847274
 40
0.6676974131
 40
0.7816907616
 40
0.8918356727
 40
1.0
 40
1.0
 40
1.0
 40
1.0
 10
43.3180308788
 20
22.6261526385
 30
0.0
 10
43.3180308788
 20
22.7274990933
 30
0.0
 10
43.3027515158
 20
22.920127948
 30
0.0
 10
43.2358256392
 20
23.1467253483
 30
0.0
 10
43.1546178965
 20
23.2994696087
 30
0.0
 10
43.0829753386
 20
23.3967497368
 30
0.0
 10
42.9996951369
 20
23.4787779444
 30
0.0
 10
42.936608006
 20
23.5227641325
 30
0.0
 10
42.9037909139
 20
23.5416983375
 30
0.0
  0
SPLINE
  5
2AE
100
AcDbEntity
  8
0
100
AcDbSpline
 62
7
  6
BYLAYER
 70
0
 71
3
 72
15
 73
11
 74
0
 42
0.0000001
 43
0.0000001
 44
0.0000000001
 40
0.0
 40
0.0
 40
0.0
 40
0.0
 40
0.1141229605
 40
0.2373462928
 40
0.366971064
 40
0.4999983279
 40
0.633025824
 40
0.762651271
 40
0.8858756957
 40
1.0
 40
1.0
 40
1.0
 40
1.0
 10
42.2573751229
 20
18.1683673901
 30
0.0
 10
42.3299652849
 20
18.2102770895
 30
0.0
 10
42.4733760023
 20
18.3108465351
 30
0.0
 10
42.6707424148
 20
18.4954323268
 30
0.0
 10
42.8525855439
 20
18.7137117861
 30
0.0
 10
43.0121283798
 20
18.9573516761
 30
0.0
 10
43.143354274
 20
19.2173408385
 30
0.0
 10
43.2414676958
 20
19.4839631031
 30
0.0
 10
43.3026403203
 20
19.7471826919
 30
0.0
 10
43.3180308788
 20
19.9216664856
 30
0.0
 10
43.3180308788
 20
20.0054872466
 30
0.0
  0
SPLINE
  5
2AF
100
AcDbEntity
  8
0
100
AcDbSpline
 62
7
  6
BYLAYER
 70
0
 71
3
 72
11
 73
7
 74
0
 42
0.0000001
 43
0.0000001
 44
0.0000000001
 40
0.0
 40
0.0
 40
0.0
 40
0.0
 40
0.281945148
 40
0.5391351413
 40
0.7754374618
 40
1.0
 40
1.0
 40
1.0
 40
1.0
 10
40.1295129773
 20
19.6565164763
 30
0.0
 10
40.1572057447
 20
19.6685784993
 30
0.0
 10
40.2121234559
 20
19.6875531108
 30
0.0
 10
40.2950280066
 20
19.6991528214
 30
0.0
 10
40.3723896422
 20
19.6913951135
 30
0.0
 10
40.4190422158
 20
19.6729437713
 30
0.0
 10
40.4398706101
 20
19.6609034536
 30
0.0
  0
SPLINE
  5
2B0
100
AcDbEntity
  8
0
100
AcDbSpline
 62
7
  6
BYLAYER
 70
0
 71
3
 72
9
 73
5
 74
0
 42
0.0000001
 43
0.0000001
 44
0.0000000001
 40
0.0
 40
0.0
 40
0.0
 40
0.0
 40
0.2418164229
 40
1.0
 40
1.0
 40
1.0
 40
1.0
 10
36.6059339768
 20
18.3125677038
 30
0.0
 10
36.8969022604
 20
18.3959073821
 30
0.0
 10
38.0923493814
 20
18.7676133729
 30
0.0
 10
39.2547333684
 20
19.2428842044
 30
0.0
 10
40.1125175932
 20
19.6487934584
 30
0.0
  0
SPLINE
  5
2B1
100
AcDbEntity
  8
0
100
AcDbSpline
 62
7
  6
BYLAYER
 70
0
 71
3
 72
9
 73
5
 74
0
 42
0.0000001
 43
0.0000001
 44
0.0000000001
 40
0.0
 40
0.0
 40
0.0
 40
0.0
 40
0.5169982616
 40
1.0
 40
1.0
 40
1.0
 40
1.0
 10
35.3102854789
 20
17.7500978911
 30
0.0
 10
35.5214811949
 20
17.8720310668
 30
0.0
 10
35.9425175525
 20
18.0870825736
 30
0.0
 10
36.386909686
 20
18.249834358
 30
0.0
 10
36.6059339768
 20
18.3125677038
 30
0.0
  0
SPLINE
  5
2B2
100
AcDbEntity
  8
0
100
AcDbSpline
 62
7
  6
BYLAYER
 70
0
 71
3
 72
9
 73
5
 74
0
 42
0.0000001
 43
0.0000001
 44
0.0000000001
 40
0.0
 40
0.0
 40
0.0
 40
0.0
 40
0.2553325595
 40
1.0
 40
1.0
 40
1.0
 40
1.0
 10
34.6666462631
 20
17.3332266591
 30
0.0
 10
34.7196615404
 20
17.3713199278
 30
0.0
 10
34.9290247702
 20
17.5180777851
 30
0.0
 10
35.1454010148
 20
17.6549023696
 30
0.0
 10
35.3102854789
 20
17.7500978911
 30
0.0
  0
SPLINE
  5
2B3
100
AcDbEntity
  8
0
100
AcDbSpline
 62
7
  6
BYLAYER
 70
0
 71
3
 72
13
 73
9
 74
0
 42
0.0000001
 43
0.0000001
 44
0.0000000001
 40
0.0
 40
0.0
 40
0.0
 40
0.0
 40
0.1128323491
 40
0.2342392268
 40
0.492905407
 40
0.7553957887
 40
0.8813263817
 40
1.0
 40
1.0
 40
1.0
 40
1.0
 10
34.2317465706
 20
16.5148120411
 30
0.0
 10
34.2317465706
 20
16.5507719582
 30
0.0
 10
34.2378311206
 20
16.6254901381
 30
0.0
 10
34.2710060394
 20
16.7793777213
 30
0.0
 10
34.3492753822
 20
16.9704794474
 30
0.0
 10
34.4648661307
 20
17.1431815532
 30
0.0
 10
34.5758631708
 20
17.2610501774
 30
0.0
 10
34.6359314425
 20
17.3111570223
 30
0.0
 10
34.6666462631
 20
17.3332266591
 30
0.0
  0
SPLINE
  5
2B4
100
AcDbEntity
  8
0
100
AcDbSpline
 62
7
  6
BYLAYER
 70
0
 71
3
 72
15
 73
11
 74
0
 42
0.0000001
 43
0.0000001
 44
0.0000000001
 40
0.0
 40
0.0
 40
0.0
 40
0.0
 40
0.1141229605
 40
0.2373462928
 40
0.366971064
 40
0.4999983279
 40
0.633025824
 40
0.762651271
 40
0.8858756957
 40
1.0
 40
1.0
 40
1.0
 40
1.0
 10
33.1710908147
 20
13.73893243
 30
0.0
 10
33.2436809767
 20
13.7808421294
 30
0.0
 10
33.3870916941
 20
13.881411575
 30
0.0
 10
33.5844581066
 20
14.0659973666
 30
0.0
 10
33.7663012357
 20
14.284276826
 30
0.0
 10
33.9258440716
 20
14.527916716
 30
0.0
 10
34.0570699658
 20
14.7879058784
 30
0.0
 10
34.1551833876
 20
15.054528143
 30
0.0
 10
34.2163560121
 20
15.3177477318
 30
0.0
 10
34.2317465706
 20
15.4922315255
 30
0.0
 10
34.2317465706
 20
15.5760522865
 30
0.0
  0
SPLINE
  5
2B5
100
AcDbEntity
  8
0
100
AcDbSpline
 62
7
  6
BYLAYER
 70
0
 71
3
 72
9
 73
5
 74
0
 42
0.0000001
 43
0.0000001
 44
0.0000000001
 40
0.0
 40
0.0
 40
0.0
 40
0.0
 40
0.2439822202
 40
1.0
 40
1.0
 40
1.0
 40
1.0
 10
31.8472553342
 20
12.9928784769
 30
0.0
 10
31.8688711999
 20
13.0022936092
 30
0.0
 10
31.9568790757
 20
13.0422262396
 30
0.0
 10
32.0425079059
 20
13.0873486732
 30
0.0
 10
32.1057781754
 20
13.1238775623
 30
0.0
  0
SPLINE
  5
2B6
100
AcDbEntity
  8
0
100
AcDbSpline
 62
7
  6
BYLAYER
 70
0
 71
3
 72
9
 73
5
 74
0
 42
0.0000001
 43
0.0000001
 44
0.0000000001
 40
0.0
 40
0.0
 40
0.0
 40
0.0
 40
0.4740796098
 40
1.0
 40
1.0
 40
1.0
 40
1.0
 10
31.1138102393
 20
12.8354835161
 30
0.0
 10
31.2330132642
 20
12.8314870977
 30
0.0
 10
31.4861052885
 20
12.8586232447
 30
0.0
 10
31.7259505289
 20
12.9400422498
 30
0.0
 10
31.8472553342
 20
12.9928784769
 30
0.0
  0
SPLINE
  5
2B7
100
AcDbEntity
  8
0
100
AcDbSpline
 62
7
  6
BYLAYER
 70
0
 71
3
 72
12
 73
8
 74
0
 42
0.0000001
 43
0.0000001
 44
0.0000000001
 40
0.0
 40
0.0
 40
0.0
 40
0.0
 40
0.2760311681
 40
0.5341780706
 40
0.6567065187
 40
0.7750473997
 40
1.0
 40
1.0
 40
1.0
 40
1.0
 10
22.8473747914
 20
10.4322006392
 30
0.0
 10
23.5416836903
 20
10.8330576761
 30
0.0
 10
24.9260995518
 20
11.5413250296
 30
0.0
 10
26.7206047207
 20
12.2040266559
 30
0.0
 10
28.1264595294
 20
12.5617731005
 30
0.0
 10
29.4592900868
 20
12.7982461997
 30
0.0
 10
30.4608144443
 20
12.8573770533
 30
0.0
 10
31.1138102393
 20
12.8354835161
 30
0.0
  0
SPLINE
  5
2B8
100
AcDbEntity
  8
0
100
AcDbSpline
 62
7
  6
BYLAYER
 70
0
 71
3
 72
11
 73
7
 74
0
 42
0.0000001
 43
0.0000001
 44
0.0000000001
 40
0.0
 40
0.0
 40
0.0
 40
0.0
 40
0.2664103979
 40
0.5241016098
 40
0.7695723741
 40
1.0
 40
1.0
 40
1.0
 40
1.0
 10
18.3358825213
 20
6.7938653597
 30
0.0
 10
18.5398615945
 20
7.0765570994
 30
0.0
 10
18.9660559464
 20
7.6152629617
 30
0.0
 10
19.663327088
 20
8.3439687645
 30
0.0
 10
20.3953598964
 20
8.9675403863
 30
0.0
 10
20.9138079417
 20
9.3158619616
 30
0.0
 10
21.1749292149
 20
9.4666194991
 30
0.0
  0
SPLINE
  5
2B9
100
AcDbEntity
  8
0
100
AcDbSpline
 62
7
  6
BYLAYER
 70
0
 71
3
 72
9
 73
5
 74
0
 42
0.0000001
 43
0.0000001
 44
0.0000000001
 40
0.0
 40
0.0
 40
0.0
 40
0.0
 40
0.4757636218
 40
1.0
 40
1.0
 40
1.0
 40
1.0
 10
17.3211470288
 20
5.5678206427
 30
0.0
 10
17.3980605595
 20
5.6122264253
 30
0.0
 10
17.5469805185
 20
5.7279628964
 30
0.0
 10
17.6694632741
 20
5.8702842616
 30
0.0
 10
17.7267251279
 20
5.9496426627
 30
0.0
  0
SPLINE
  5
2BA
100
AcDbEntity
  8
0
100
AcDbSpline
 62
7
  6
BYLAYER
 70
0
 71
3
 72
9
 73
5
 74
0
 42
0.0000001
 43
0.0000001
 44
0.0000000001
 40
0.0
 40
0.0
 40
0.0
 40
0.0
 40
0.2439822202
 40
1.0
 40
1.0
 40
1.0
 40
1.0
 10
16.9022891267
 20
5.3320804489
 30
0.0
 10
16.9094944153
 20
5.3352188263
 30
0.0
 10
16.9388303739
 20
5.3485297031
 30
0.0
 10
16.9673733173
 20
5.3635705144
 30
0.0
 10
16.9884634071
 20
5.3757468107
 30
0.0
  0
SPLINE
  5
2BB
100
AcDbEntity
  8
0
100
AcDbSpline
 62
7
  6
BYLAYER
 70
0
 71
3
 72
11
 73
7
 74
0
 42
0.0000001
 43
0.0000001
 44
0.0000000001
 40
0.0
 40
0.0
 40
0.0
 40
0.0
 40
0.2246022945
 40
0.4608901369
 40
0.7177306164
 40
1.0
 40
1.0
 40
1.0
 40
1.0
 10
16.4884654887
 20
5.3262226222
 30
0.0
 10
16.5162512254
 20
5.310180061
 30
0.0
 10
16.5784600626
 20
5.2855794193
 30
0.0
 10
16.6815620427
 20
5.2752463696
 30
0.0
 10
16.7921164808
 20
5.290610286
 30
0.0
 10
16.8653214605
 20
5.315978597
 30
0.0
 10
16.9022891267
 20
5.3320804489
 30
0.0
  0
SPLINE
  5
2BC
100
AcDbEntity
  8
0
100
AcDbSpline
 62
7
  6
BYLAYER
 70
0
 71
3
 72
11
 73
7
 74
0
 42
0.0000001
 43
0.0000001
 44
0.0000000001
 40
0.0
 40
0.0
 40
0.0
 40
0.0
 40
0.2987858814
 40
0.4416110412
 40
0.5759195806
 40
1.0
 40
1.0
 40
1.0
 40
1.0
 10
13.3952027616
 20
9.3465312649
 30
0.0
 10
13.4048137516
 20
9.3631780804
 30
0.0
 10
13.4166641474
 20
9.389233166
 30
0.0
 10
13.4265120201
 20
9.4251410928
 30
0.0
 10
13.4332833453
 20
9.4692476057
 30
0.0
 10
13.4279121982
 20
9.5102557059
 30
0.0
 10
13.4098849334
 20
9.5307341326
 30
0.0
  0
SPLINE
  5
2BD
100
AcDbEntity
  8
0
100
AcDbSpline
 62
7
  6
BYLAYER
 70
0
 71
3
 72
9
 73
5
 74
0
 42
0.0000001
 43
0.0000001
 44
0.0000000001
 40
0.0
 40
0.0
 40
0.0
 40
0.0
 40
0.2440074946
 40
1.0
 40
1.0
 40
1.0
 40
1.0
 10
13.3538230874
 20
9.2914467856
 30
0.0
 10
13.3577379976
 20
9.2954674348
 30
0.0
 10
13.3732197533
 20
9.3124866644
 30
0.0
 10
13.3865094824
 20
9.3314739801
 30
0.0
 10
13.3952027616
 20
9.3465312649
 30
0.0
  0
SPLINE
  5
2BE
100
AcDbEntity
  8
0
100
AcDbSpline
 62
7
  6
BYLAYER
 70
0
 71
3
 72
9
 73
5
 74
0
 42
0.0000001
 43
0.0000001
 44
0.0000000001
 40
0.0
 40
0.0
 40
0.0
 40
0.0
 40
0.4734944269
 40
1.0
 40
1.0
 40
1.0
 40
1.0
 10
12.0977835241
 20
8.1060423621
 30
0.0
 10
12.1592365256
 20
8.1328091891
 30
0.0
 10
12.2819386911
 20
8.2059174429
 30
0.0
 10
12.3885494056
 20
8.3001017491
 30
0.0
 10
12.4405458743
 20
8.3535026053
 30
0.0
  0
SPLINE
  5
2BF
100
AcDbEntity
  8
0
100
AcDbSpline
 62
7
  6
BYLAYER
 70
0
 71
3
 72
11
 73
7
 74
0
 42
0.0000001
 43
0.0000001
 44
0.0000000001
 40
0.0
 40
0.0
 40
0.0
 40
0.0
 40
0.2246022945
 40
0.4608901369
 40
0.7177306164
 40
1.0
 40
1.0
 40
1.0
 40
1.0
 10
11.6839598862
 20
8.1001845354
 30
0.0
 10
11.7117456228
 20
8.0841419742
 30
0.0
 10
11.77395446
 20
8.0595413325
 30
0.0
 10
11.8770564402
 20
8.0492082828
 30
0.0
 10
11.9876108782
 20
8.0645721992
 30
0.0
 10
12.060815858
 20
8.0899405102
 30
0.0
 10
12.0977835241
 20
8.1060423621
 30
0.0
  0
SPLINE
  5
2C0
100
AcDbEntity
  8
0
100
AcDbSpline
 62
7
  6
BYLAYER
 70
0
 71
3
 72
9
 73
5
 74
0
 42
0.0000001
 43
0.0000001
 44
0.0000000001
 40
0.0
 40
0.0
 40
0.0
 40
0.0
 40
0.2322170285
 40
1.0
 40
1.0
 40
1.0
 40
1.0
 10
12.4043560253
 20
23.8441304609
 30
0.0
 10
12.4241637761
 20
23.847241574
 30
0.0
 10
12.5086979799
 20
23.8655174007
 30
0.0
 10
12.5887877685
 20
23.901370421
 30
0.0
 10
12.6461997811
 20
23.934517064
 30
0.0
  0
SPLINE
  5
2C1
100
AcDbEntity
  8
0
100
AcDbSpline
 62
7
  6
BYLAYER
 70
0
 71
3
 72
12
 73
8
 74
0
 42
0.0000001
 43
0.0000001
 44
0.0000000001
 40
0.0
 40
0.0
 40
0.0
 40
0.0
 40
0.3075528221
 40
0.5803930113
 40
0.8070905189
 40
0.9064184377
 40
1.0
 40
1.0
 40
1.0
 40
1.0
 10
13.4098849334
 20
41.5063291561
 30
0.0
 10
13.4173148951
 20
41.5233486971
 30
0.0
 10
13.4282174621
 20
41.5569886183
 30
0.0
 10
13.4325588479
 20
41.6059827012
 30
0.0
 10
13.4239469452
 20
41.6422788958
 30
0.0
 10
13.4093040589
 20
41.6632937344
 30
0.0
 10
13.4000963253
 20
41.6707532322
 30
0.0
 10
13.3952027616
 20
41.6735786133
 30
0.0
  0
SPLINE
  5
2C2
100
AcDbEntity
  8
0
100
AcDbSpline
 62
7
  6
BYLAYER
 70
0
 71
3
 72
12
 73
8
 74
0
 42
0.0000001
 43
0.0000001
 44
0.0000000001
 40
0.0
 40
0.0
 40
0.0
 40
0.0
 40
0.0935818521
 40
0.1929089887
 40
0.4196043185
 40
0.6924450375
 40
1.0
 40
1.0
 40
1.0
 40
1.0
 10
16.1201914163
 20
46.3934236138
 30
0.0
 10
16.1250849469
 20
46.3905982517
 30
0.0
 10
16.1361486621
 20
46.3863535906
 30
0.0
 10
16.1616690472
 20
46.3841793256
 30
0.0
 10
16.1974080984
 20
46.3948688476
 30
0.0
 10
16.2376671523
 20
46.4231254001
 30
0.0
 10
16.2613487399
 20
46.4493871614
 30
0.0
 10
16.2723730157
 20
46.4643314732
 30
0.0
  0
SPLINE
  5
2C3
100
AcDbEntity
  8
0
100
AcDbSpline
 62
7
  6
BYLAYER
 70
0
 71
3
 72
16
 73
12
 74
0
 42
0.0000001
 43
0.0000001
 44
0.0000000001
 40
0.0
 40
0.0
 40
0.0
 40
0.0
 40
0.1563738662
 40
0.3074281429
 40
0.4499560916
 40
0.581783343
 40
0.7015682113
 40
0.8094455607
 40
0.9074461755
 40
0.9540984471
 40
1.0
 40
1.0
 40
1.0
 40
1.0
 10
9.1177401599
 20
38.4685802897
 30
0.0
 10
9.171180283
 20
38.3610262219
 30
0.0
 10
9.2652195778
 20
38.1438638819
 30
0.0
 10
9.3670278704
 20
37.8128581202
 30
0.0
 10
9.4247108194
 20
37.4903392599
 30
0.0
 10
9.4364439545
 20
37.1867276479
 30
0.0
 10
9.4013682341
 20
36.9113113633
 30
0.0
 10
9.3198683532
 20
36.6727018652
 30
0.0
 10
9.2116732399
 20
36.5083753483
 30
0.0
 10
9.1051849403
 20
36.4072470818
 30
0.0
 10
9.0463714811
 20
36.366695282
 30
0.0
 10
9.0158439637
 20
36.3490635477
 30
0.0
  0
SPLINE
  5
2C4
100
AcDbEntity
  8
0
100
AcDbSpline
 62
7
  6
BYLAYER
 70
0
 71
3
 72
17
 73
13
 74
0
 42
0.0000001
 43
0.0000001
 44
0.0000000001
 40
0.0
 40
0.0
 40
0.0
 40
0.0
 40
0.0428903439
 40
0.0875128478
 40
0.1353381999
 40
0.1873067581
 40
0.3045688319
 40
0.4382295244
 40
0.5825713658
 40
0.7297056051
 40
0.8713345917
 40
1.0
 40
1.0
 40
1.0
 40
1.0
 10
35.8555814637
 20
20.8844330486
 30
0.0
 10
35.8432380673
 20
20.8915412667
 30
0.0
 10
35.819868486
 20
20.909441458
 30
0.0
 10
35.7917490216
 20
20.9450035012
 30
0.0
 10
35.7707545982
 20
20.9884973813
 30
0.0
 10
35.7518909355
 20
21.0584154662
 30
0.0
 10
35.7495221284
 20
21.1603564315
 30
0.0
 10
35.7759126818
 20
21.2897290578
 30
0.0
 10
35.829086006
 20
21.4213032533
 30
0.0
 10
35.904756629
 20
21.5444267624
 30
0.0
 10
35.9967277352
 20
21.6490264767
 30
0.0
 10
36.0685667906
 20
21.7043251847
 30
0.0
 10
36.1055717392
 20
21.7256898742
 30
0.0
  0
SPLINE
  5
2C5
100
AcDbEntity
  8
0
100
AcDbSpline
 62
7
  6
BYLAYER
 70
0
 71
3
 72
11
 73
7
 74
0
 42
0.0000001
 43
0.0000001
 44
0.0000000001
 40
0.0
 40
0.0
 40
0.0
 40
0.0
 40
0.2177068691
 40
0.4508430786
 40
0.7104028475
 40
1.0
 40
1.0
 40
1.0
 40
1.0
 10
5.9450509522
 20
26.0640197392
 30
0.0
 10
5.9285656723
 20
26.0735422776
 30
0.0
 10
5.8977005684
 20
26.0994637479
 30
0.0
 10
5.8648441167
 20
26.153192279
 30
0.0
 10
5.845350223
 20
26.2193989275
 30
0.0
 10
5.8414912956
 20
26.2675822335
 30
0.0
 10
5.8414912956
 20
26.2929068063
 30
0.0
  0
SPLINE
  5
2C6
100
AcDbEntity
  8
0
100
AcDbSpline
 62
7
  6
BYLAYER
 70
0
 71
3
 72
11
 73
7
 74
0
 42
0.0000001
 43
0.0000001
 44
0.0000000001
 40
0.0
 40
0.0
 40
0.0
 40
0.0
 40
0.2824877836
 40
0.5419588858
 40
0.7797443963
 40
1.0
 40
1.0
 40
1.0
 40
1.0
 10
12.9724222192
 20
52.4962327749
 30
0.0
 10
13.0069811091
 20
52.5161852402
 30
0.0
 10
13.0758274695
 20
52.5503410056
 30
0.0
 10
13.1813343372
 20
52.5837362398
 30
0.0
 10
13.2825777863
 20
52.5961382377
 30
0.0
 10
13.3476859266
 20
52.5897376641
 30
0.0
 10
13.3780003182
 20
52.5827292089
 30
0.0
  0
SPLINE
  5
2C7
100
AcDbEntity
  8
0
100
AcDbSpline
 62
7
  6
BYLAYER
 70
0
 71
3
 72
9
 73
5
 74
0
 42
0.0000001
 43
0.0000001
 44
0.0000000001
 40
0.0
 40
0.0
 40
0.0
 40
0.0
 40
0.2553530868
 40
1.0
 40
1.0
 40
1.0
 40
1.0
 10
12.553564317
 20
52.2483204106
 30
0.0
 10
12.5606618568
 20
52.2534244489
 30
0.0
 10
12.5886896211
 20
52.2730857066
 30
0.0
 10
12.6176604862
 20
52.2914122155
 30
0.0
 10
12.6397385973
 20
52.3041589428
 30
0.0
  0
SPLINE
  5
2C8
100
AcDbEntity
  8
0
100
AcDbSpline
 62
7
  6
BYLAYER
 70
0
 71
3
 72
10
 73
6
 74
0
 42
0.0000001
 43
0.0000001
 44
0.0000000001
 40
0.0
 40
0.0
 40
0.0
 40
0.0
 40
0.5178826406
 40
0.7655637713
 40
1.0
 40
1.0
 40
1.0
 40
1.0
 10
12.1397406791
 20
51.7763387121
 30
0.0
 10
12.1942545786
 20
51.87076008
 30
0.0
 10
12.2881873953
 20
52.0034354992
 30
0.0
 10
12.434927743
 20
52.1547641215
 30
0.0
 10
12.5134943574
 20
52.2195049877
 30
0.0
 10
12.553564317
 20
52.2483204106
 30
0.0
  0
SPLINE
  5
2C9
100
AcDbEntity
  8
0
100
AcDbSpline
 62
7
  6
BYLAYER
 70
0
 71
3
 72
12
 73
8
 74
0
 42
0.0000001
 43
0.0000001
 44
0.0000000001
 40
0.0
 40
0.0
 40
0.0
 40
0.0
 40
0.2063481782
 40
0.3228633629
 40
0.4474155569
 40
0.7160101384
 40
1.0
 40
1.0
 40
1.0
 40
1.0
 10
11.3888084835
 20
49.7855330931
 30
0.0
 10
11.3620341833
 20
49.8494676412
 30
0.0
 10
11.3403352594
 20
49.958213071
 30
0.0
 10
11.3397861585
 20
50.1085622382
 30
0.0
 10
11.3591140893
 20
50.2790861537
 30
0.0
 10
11.4202029056
 20
50.4996526598
 30
0.0
 10
11.5000202133
 20
50.668304212
 30
0.0
 10
11.5477175382
 20
50.7509188606
 30
0.0
  0
SPLINE
  5
2CA
100
AcDbEntity
  8
0
100
AcDbSpline
 62
7
  6
BYLAYER
 70
0
 71
3
 72
9
 73
5
 74
0
 42
0.0000001
 43
0.0000001
 44
0.0000000001
 40
0.0
 40
0.0
 40
0.0
 40
0.0
 40
0.4812463485
 40
1.0
 40
1.0
 40
1.0
 40
1.0
 10
11.7714666066
 20
48.9041042541
 30
0.0
 10
11.7655491932
 20
48.907520772
 30
0.0
 10
11.7545093666
 20
48.9169847628
 30
0.0
 10
11.747297135
 20
48.9294954102
 30
0.0
 10
11.7444520673
 20
48.9362891682
 30
0.0
  0
SPLINE
  5
2CB
100
AcDbEntity
  8
0
100
AcDbSpline
 62
7
  6
BYLAYER
 70
0
 71
3
 72
9
 73
5
 74
0
 42
0.0000001
 43
0.0000001
 44
0.0000000001
 40
0.0
 40
0.0
 40
0.0
 40
0.0
 40
0.5187518033
 40
1.0
 40
1.0
 40
1.0
 40
1.0
 10
9.0050982777
 20
44.191562886
 30
0.0
 10
9.0124042998
 20
44.1924957508
 30
0.0
 10
9.0268448388
 20
44.1925048367
 30
0.0
 10
9.040560569
 20
44.1876757539
 30
0.0
 10
9.0464779519
 20
44.1842592536
 30
0.0
  0
SPLINE
  5
2CC
100
AcDbEntity
  8
0
100
AcDbSpline
 62
7
  6
BYLAYER
 70
0
 71
3
 72
9
 73
5
 74
0
 42
0.0000001
 43
0.0000001
 44
0.0000000001
 40
0.0
 40
0.0
 40
0.0
 40
0.0
 40
0.5337631624
 40
1.0
 40
1.0
 40
1.0
 40
1.0
 10
7.7490587145
 20
43.926626407
 30
0.0
 10
7.8034124574
 20
43.965713696
 30
0.0
 10
7.9120023865
 20
44.0302926116
 30
0.0
 10
8.0338128771
 20
44.0675449333
 30
0.0
 10
8.0918210646
 20
44.0749516715
 30
0.0
  0
SPLINE
  5
2CD
100
AcDbEntity
  8
0
100
AcDbSpline
 62
7
  6
BYLAYER
 70
0
 71
3
 72
10
 73
6
 74
0
 42
0.0000001
 43
0.0000001
 44
0.0000000001
 40
0.0
 40
0.0
 40
0.0
 40
0.0
 40
0.5178826406
 40
0.7655637713
 40
1.0
 40
1.0
 40
1.0
 40
1.0
 10
7.3352350765
 20
43.4546447085
 30
0.0
 10
7.3897489761
 20
43.5490660763
 30
0.0
 10
7.4836817927
 20
43.6817414956
 30
0.0
 10
7.6304221405
 20
43.8330701179
 30
0.0
 10
7.7089887548
 20
43.8978109841
 30
0.0
 10
7.7490587145
 20
43.926626407
 30
0.0
  0
SPLINE
  5
2CE
100
AcDbEntity
  8
0
100
AcDbSpline
 62
7
  6
BYLAYER
 70
0
 71
3
 72
11
 73
7
 74
0
 42
0.0000001
 43
0.0000001
 44
0.0000000001
 40
0.0
 40
0.0
 40
0.0
 40
0.0
 40
0.2282541849
 40
0.4746493001
 40
0.7340296028
 40
1.0
 40
1.0
 40
1.0
 40
1.0
 10
5.8414912956
 20
40.360080662
 30
0.0
 10
5.8414912956
 20
40.443903728
 30
0.0
 10
5.8568937093
 20
40.6183665972
 30
0.0
 10
5.9180362084
 20
40.8816326399
 30
0.0
 10
6.0161836805
 20
41.1482101155
 30
0.0
 10
6.1033134761
 20
41.3208820609
 30
0.0
 10
6.152150174
 20
41.4054701724
 30
0.0
  0
SPLINE
  5
2CF
100
AcDbEntity
  8
0
100
AcDbSpline
 62
7
  6
BYLAYER
 70
0
 71
3
 72
9
 73
5
 74
0
 42
0.0000001
 43
0.0000001
 44
0.0000000001
 40
0.0
 40
0.0
 40
0.0
 40
0.0
 40
0.2629049963
 40
1.0
 40
1.0
 40
1.0
 40
1.0
 10
8.0556312158
 20
19.7243095224
 30
0.0
 10
8.0746976185
 20
19.7433307035
 30
0.0
 10
8.1492229441
 20
19.8135907368
 30
0.0
 10
8.2320829687
 20
19.8754245023
 30
0.0
 10
8.2974749714
 20
19.9131783673
 30
0.0
  0
SPLINE
  5
2D0
100
AcDbEntity
  8
0
100
AcDbSpline
 62
7
  6
BYLAYER
 70
0
 71
3
 72
11
 73
7
 74
0
 42
0.0000001
 43
0.0000001
 44
0.0000000001
 40
0.0
 40
0.0
 40
0.0
 40
0.0
 40
0.2296154374
 40
0.4826037412
 40
0.744739721
 40
1.0
 40
1.0
 40
1.0
 40
1.0
 10
5.8414912956
 20
17.2295605207
 30
0.0
 10
5.8414912956
 20
17.2739687717
 30
0.0
 10
5.8543930251
 20
17.3674082824
 30
0.0
 10
5.9021795873
 20
17.5040566256
 30
0.0
 10
5.9754218642
 20
17.6346226965
 30
0.0
 10
6.0391714429
 20
17.7126323843
 30
0.0
 10
6.0741213364
 20
17.7474993837
 30
0.0
  0
SPLINE
  5
2D1
100
AcDbEntity
  8
0
100
AcDbSpline
 62
7
  6
BYLAYER
 70
0
 71
3
 72
11
 73
7
 74
0
 42
0.0000001
 43
0.0000001
 44
0.0000000001
 40
0.0
 40
0.0
 40
0.0
 40
0.0
 40
0.2177167293
 40
0.4509418166
 40
0.7102950539
 40
1.0
 40
1.0
 40
1.0
 40
1.0
 10
6.0485972145
 20
11.3537271308
 30
0.0
 10
6.0156214423
 20
11.3727662462
 30
0.0
 10
5.9539213698
 20
11.4246719947
 30
0.0
 10
5.8881754245
 20
11.5320742511
 30
0.0
 10
5.8491863349
 20
11.6644927273
 30
0.0
 10
5.8414912956
 20
11.7608418398
 30
0.0
 10
5.8414912956
 20
11.8115095825
 30
0.0
  0
SPLINE
  5
2D2
100
AcDbEntity
  8
0
100
AcDbSpline
 62
7
  6
BYLAYER
 70
0
 71
3
 72
11
 73
7
 74
0
 42
0.0000001
 43
0.0000001
 44
0.0000000001
 40
0.0
 40
0.0
 40
0.0
 40
0.0
 40
0.2822482825
 40
0.5391484874
 40
0.7753544159
 40
1.0
 40
1.0
 40
1.0
 40
1.0
 10
29.9599164559
 20
63.2745823741
 30
0.0
 10
30.0153629069
 20
63.2987329531
 30
0.0
 10
30.1251760288
 20
63.3367969445
 30
0.0
 10
30.2909965753
 20
63.3598043651
 30
0.0
 10
30.4456582505
 20
63.34436438
 30
0.0
 10
30.5389543697
 20
63.3074392927
 30
0.0
 10
30.5806419197
 20
63.2833739602
 30
0.0
  0
SPLINE
  5
2D3
100
AcDbEntity
  8
0
100
AcDbSpline
 62
7
  6
BYLAYER
 70
0
 71
3
 72
9
 73
5
 74
0
 42
0.0000001
 43
0.0000001
 44
0.0000000001
 40
0.0
 40
0.0
 40
0.0
 40
0.0
 40
0.2560789398
 40
1.0
 40
1.0
 40
1.0
 40
1.0
 10
29.8306550353
 20
63.2090828315
 30
0.0
 10
29.8413704102
 20
63.2152693191
 30
0.0
 10
29.8835284508
 20
63.2388769088
 30
0.0
 10
29.9269625317
 20
63.2602287711
 30
0.0
 10
29.9599164559
 20
63.2745823741
 30
0.0
  0
SPLINE
  5
2D4
100
AcDbEntity
  8
0
100
AcDbSpline
 62
7
  6
BYLAYER
 70
0
 71
3
 72
9
 73
5
 74
0
 42
0.0000001
 43
0.0000001
 44
0.0000000001
 40
0.0
 40
0.0
 40
0.0
 40
0.0
 40
0.5171937691
 40
1.0
 40
1.0
 40
1.0
 40
1.0
 10
26.6439909474
 20
61.1337429013
 30
0.0
 10
26.8281510073
 20
61.3156102545
 30
0.0
 10
27.2036467198
 20
61.6482979404
 30
0.0
 10
27.6182524679
 20
61.9317592382
 30
0.0
 10
27.8274988686
 20
62.0525669828
 30
0.0
  0
SPLINE
  5
2D5
100
AcDbEntity
  8
0
100
AcDbSpline
 62
7
  6
BYLAYER
 70
0
 71
3
 72
11
 73
7
 74
0
 42
0.0000001
 43
0.0000001
 44
0.0000000001
 40
0.0
 40
0.0
 40
0.0
 40
0.0
 40
0.236733177
 40
0.4828410924
 40
0.7375737905
 40
1.0
 40
1.0
 40
1.0
 40
1.0
 10
18.5961370838
 20
54.8857391469
 30
0.0
 10
19.2941666467
 20
55.2887442973
 30
0.0
 10
20.6873087223
 20
56.1645892917
 30
0.0
 10
22.7191411899
 20
57.6432717742
 30
0.0
 10
24.7208146261
 20
59.303054524
 30
0.0
 10
26.0082518356
 20
60.505918444
 30
0.0
 10
26.6439909474
 20
61.1337429013
 30
0.0
  0
SPLINE
  5
2D6
100
AcDbEntity
  8
0
100
AcDbSpline
 62
7
  6
BYLAYER
 70
0
 71
3
 72
9
 73
5
 74
0
 42
0.0000001
 43
0.0000001
 44
0.0000000001
 40
0.0
 40
0.0
 40
0.0
 40
0.0
 40
0.2439822202
 40
1.0
 40
1.0
 40
1.0
 40
1.0
 10
14.8028113976
 20
52.7200189545
 30
0.0
 10
14.8316325519
 20
52.7325724643
 30
0.0
 10
14.9489763863
 20
52.7858159714
 30
0.0
 10
15.0631481597
 20
52.8459792162
 30
0.0
 10
15.1475085191
 20
52.8946844017
 30
0.0
  0
SPLINE
  5
2D7
100
AcDbEntity
  8
0
100
AcDbSpline
 62
7
  6
BYLAYER
 70
0
 71
3
 72
11
 73
7
 74
0
 42
0.0000001
 43
0.0000001
 44
0.0000000001
 40
0.0
 40
0.0
 40
0.0
 40
0.0
 40
0.2267116261
 40
0.4669950787
 40
0.7241738609
 40
1.0
 40
1.0
 40
1.0
 40
1.0
 10
13.5251961227
 20
52.5486986658
 30
0.0
 10
13.6216224741
 20
52.5264056316
 30
0.0
 10
13.8253739493
 20
52.5008668522
 30
0.0
 10
14.1424323969
 20
52.518827135
 30
0.0
 10
14.4733893571
 20
52.5912564986
 30
0.0
 10
14.6924181868
 20
52.6719354451
 30
0.0
 10
14.8028113976
 20
52.7200189545
 30
0.0
  0
SPLINE
  5
2D8
100
AcDbEntity
  8
0
100
AcDbSpline
 62
7
  6
BYLAYER
 70
0
 71
3
 72
11
 73
7
 74
0
 42
0.0000001
 43
0.0000001
 44
0.0000000001
 40
0.0
 40
0.0
 40
0.0
 40
0.0
 40
0.2385538695
 40
0.4850865077
 40
0.7391039011
 40
1.0
 40
1.0
 40
1.0
 40
1.0
 10
21.9018750489
 20
52.9772136195
 30
0.0
 10
22.4811282381
 20
53.3116436079
 30
0.0
 10
23.6379879418
 20
54.0286715059
 30
0.0
 10
25.3348026409
 20
55.2201008746
 30
0.0
 10
27.0141897528
 20
56.539865689
 30
0.0
 10
28.1030351417
 20
57.4889492841
 30
0.0
 10
28.6428118791
 20
57.9826526772
 30
0.0
  0
SPLINE
  5
2D9
100
AcDbEntity
  8
0
100
AcDbSpline
 62
7
  6
BYLAYER
 70
0
 71
3
 72
9
 73
5
 74
0
 42
0.0000001
 43
0.0000001
 44
0.0000000001
 40
0.0
 40
0.0
 40
0.0
 40
0.0
 40
0.2439822202
 40
1.0
 40
1.0
 40
1.0
 40
1.0
 10
18.1085493627
 20
50.8114934272
 30
0.0
 10
18.137370517
 20
50.8240469369
 30
0.0
 10
18.2547143513
 20
50.877290444
 30
0.0
 10
18.3688861248
 20
50.9374536889
 30
0.0
 10
18.4532464841
 20
50.9861588743
 30
0.0
  0
SPLINE
  5
2DA
100
AcDbEntity
  8
0
100
AcDbSpline
 62
7
  6
BYLAYER
 70
0
 71
3
 72
11
 73
7
 74
0
 42
0.0000001
 43
0.0000001
 44
0.0000000001
 40
0.0
 40
0.0
 40
0.0
 40
0.0
 40
0.2267116261
 40
0.4669950787
 40
0.7241738609
 40
1.0
 40
1.0
 40
1.0
 40
1.0
 10
16.8309340878
 20
50.6401731384
 30
0.0
 10
16.9273604391
 20
50.6178801042
 30
0.0
 10
17.1311119144
 20
50.5923413248
 30
0.0
 10
17.448170362
 20
50.6103016076
 30
0.0
 10
17.7791273221
 20
50.6827309713
 30
0.0
 10
17.9981561519
 20
50.7634099177
 30
0.0
 10
18.1085493627
 20
50.8114934272
 30
0.0
  0
SPLINE
  5
2DB
100
AcDbEntity
  8
0
100
AcDbSpline
 62
7
  6
BYLAYER
 70
0
 71
3
 72
13
 73
9
 74
0
 42
0.0000001
 43
0.0000001
 44
0.0000000001
 40
0.0
 40
0.0
 40
0.0
 40
0.0
 40
0.2698347582
 40
0.4017458136
 40
0.5298951542
 40
0.6537641375
 40
0.7732291509
 40
1.0
 40
1.0
 40
1.0
 40
1.0
 10
9.1177401599
 20
38.4685802897
 30
0.0
 10
9.051243916
 20
38.6024112224
 30
0.0
 10
8.953966621
 20
38.8025616294
 30
0.0
 10
8.8143306513
 20
39.0607694346
 30
0.0
 10
8.7042688622
 20
39.2428115014
 30
0.0
 10
8.5855783222
 20
39.4112233878
 30
0.0
 10
8.4163024429
 20
39.60922225
 30
0.0
 10
8.265222733
 20
39.7324954456
 30
0.0
 10
8.1564573253
 20
39.7952897624
 30
0.0
  0
SPLINE
  5
2DC
100
AcDbEntity
  8
0
100
AcDbSpline
 62
7
  6
BYLAYER
 70
0
 71
3
 72
12
 73
8
 74
0
 42
0.0000001
 43
0.0000001
 44
0.0000000001
 40
0.0
 40
0.0
 40
0.0
 40
0.0
 40
0.2676410858
 40
0.5263957966
 40
0.6518837842
 40
0.773497975
 40
1.0
 40
1.0
 40
1.0
 40
1.0
 10
8.1564573253
 20
39.7952897624
 30
0.0
 10
8.0651218023
 20
39.8480211582
 30
0.0
 10
7.8703484148
 20
39.92776988
 30
0.0
 10
7.6124365897
 20
39.9587709798
 30
0.0
 10
7.4130637461
 20
39.9457330151
 30
0.0
 10
7.2294375266
 20
39.9112049211
 30
0.0
 10
7.0992915044
 20
39.8612622191
 30
0.0
 10
7.0219901227
 20
39.8166448605
 30
0.0
  0
SPLINE
  5
2DD
100
AcDbEntity
  8
0
100
AcDbSpline
 62
7
  6
BYLAYER
 70
0
 71
3
 72
15
 73
11
 74
0
 42
0.0000001
 43
0.0000001
 44
0.0000000001
 40
0.0
 40
0.0
 40
0.0
 40
0.0
 40
0.1561996961
 40
0.3046503928
 40
0.4435055307
 40
0.5720771125
 40
0.6904603708
 40
0.7997147881
 40
0.9019163321
 40
1.0
 40
1.0
 40
1.0
 40
1.0
 10
15.7375332932
 20
6.4499316066
 30
0.0
 10
15.7254552195
 20
6.407143811
 30
0.0
 10
15.705726958
 20
6.3225416555
 30
0.0
 10
15.6895541605
 20
6.1971076276
 30
0.0
 10
15.6880514186
 20
6.0784443147
 30
0.0
 10
15.7011663228
 20
5.9690377792
 30
0.0
 10
15.7288518925
 20
5.8710069756
 30
0.0
 10
15.7707423429
 20
5.7862688672
 30
0.0
 10
15.8263977837
 20
5.7170115518
 30
0.0
 10
15.8722648301
 20
5.6819964103
 30
0.0
 10
15.8964423478
 20
5.6680371148
 30
0.0
  0
SPLINE
  5
2DE
100
AcDbEntity
  8
0
100
AcDbSpline
 62
7
  6
BYLAYER
 70
0
 71
3
 72
11
 73
7
 74
0
 42
0.0000001
 43
0.0000001
 44
0.0000000001
 40
0.0
 40
0.0
 40
0.0
 40
0.0
 40
0.2246455841
 40
0.4608515126
 40
0.7177517175
 40
1.0
 40
1.0
 40
1.0
 40
1.0
 10
34.9293667293
 20
60.7726933199
 30
0.0
 10
34.8876791793
 20
60.7967586524
 30
0.0
 10
34.7943830601
 20
60.8336837397
 30
0.0
 10
34.639721385
 20
60.8491237248
 30
0.0
 10
34.4739008384
 20
60.8261163042
 30
0.0
 10
34.3640877166
 20
60.7880523128
 30
0.0
 10
34.3086412655
 20
60.7639017338
 30
0.0
  0
SPLINE
  5
2DF
100
AcDbEntity
  8
0
100
AcDbSpline
 62
7
  6
BYLAYER
 70
0
 71
3
 72
9
 73
5
 74
0
 42
0.0000001
 43
0.0000001
 44
0.0000000001
 40
0.0
 40
0.0
 40
0.0
 40
0.0
 40
0.2546963771
 40
1.0
 40
1.0
 40
1.0
 40
1.0
 10
16.1201914163
 20
7.7732133489
 30
0.0
 10
16.1172627316
 20
7.76814069
 30
0.0
 10
16.1063633205
 20
7.7478879468
 30
0.0
 10
16.0978332192
 20
7.7263304804
 30
0.0
 10
16.093176877
 20
7.7098349179
 30
0.0
  0
SPLINE
  5
2E0
100
AcDbEntity
  8
0
100
AcDbSpline
 62
7
  6
BYLAYER
 70
0
 71
3
 72
11
 73
7
 74
0
 42
0.0000001
 43
0.0000001
 44
0.0000000001
 40
0.0
 40
0.0
 40
0.0
 40
0.0
 40
0.4240760627
 40
0.5583846836
 40
0.7012110905
 40
1.0
 40
1.0
 40
1.0
 40
1.0
 10
16.2723730157
 20
7.8780286153
 30
0.0
 10
16.245625191
 20
7.8834019466
 30
0.0
 10
16.2074258404
 20
7.867550018
 30
0.0
 10
16.1726146272
 20
7.8396330273
 30
0.0
 10
16.146441542
 20
7.8131504947
 30
0.0
 10
16.1298024125
 20
7.7898601751
 30
0.0
 10
16.1201914163
 20
7.7732133489
 30
0.0
  0
SPLINE
  5
2E1
100
AcDbEntity
  8
0
100
AcDbSpline
 62
7
  6
BYLAYER
 70
0
 71
3
 72
13
 73
9
 74
0
 42
0.0000001
 43
0.0000001
 44
0.0000000001
 40
0.0
 40
0.0
 40
0.0
 40
0.0
 40
0.1081029667
 40
0.2182394015
 40
0.3322429388
 40
0.4516715836
 40
0.7107062232
 40
1.0
 40
1.0
 40
1.0
 40
1.0
 10
9.0158446452
 20
11.3232633705
 30
0.0
 10
8.9830502396
 20
11.3043356002
 30
0.0
 10
8.9134117643
 20
11.2717703586
 30
0.0
 10
8.8007818137
 20
11.2405984848
 30
0.0
 10
8.680710293
 20
11.2271734137
 30
0.0
 10
8.5077931792
 20
11.2331995824
 30
0.0
 10
8.2780887577
 20
11.2885884535
 30
0.0
 10
8.1036080773
 20
11.3716400858
 30
0.0
 10
8.0158537005
 20
11.4223039528
 30
0.0
  0
SPLINE
  5
2E2
100
AcDbEntity
  8
0
100
AcDbSpline
 62
7
  6
BYLAYER
 70
0
 71
3
 72
10
 73
6
 74
0
 42
0.0000001
 43
0.0000001
 44
0.0000000001
 40
0.0
 40
0.0
 40
0.0
 40
0.0
 40
0.5264034375
 40
0.7670672794
 40
1.0
 40
1.0
 40
1.0
 40
1.0
 10
39.4735419332
 20
49.4920487496
 30
0.0
 10
39.4809344678
 20
49.4644590491
 30
0.0
 10
39.4976375815
 20
49.4250468324
 30
0.0
 10
39.53325877
 20
49.383665662
 30
0.0
 10
39.5541022392
 20
49.3681850832
 30
0.0
 10
39.5650479032
 20
49.3618654205
 30
0.0
  0
SPLINE
  5
2E3
100
AcDbEntity
  8
0
100
AcDbSpline
 62
7
  6
BYLAYER
 70
0
 71
3
 72
11
 73
7
 74
0
 42
0.0000001
 43
0.0000001
 44
0.0000000001
 40
0.0
 40
0.0
 40
0.0
 40
0.0
 40
0.2897049461
 40
0.5490581834
 40
0.7822832707
 40
1.0
 40
1.0
 40
1.0
 40
1.0
 10
10.1902161053
 20
9.3008289422
 30
0.0
 10
10.1902161053
 20
9.2501611995
 30
0.0
 10
10.1979111445
 20
9.153812087
 30
0.0
 10
10.2369002341
 20
9.0213936108
 30
0.0
 10
10.3026461795
 20
8.9139913544
 30
0.0
 10
10.3643462519
 20
8.8620856059
 30
0.0
 10
10.3973220242
 20
8.8430464905
 30
0.0
  0
SPLINE
  5
2E4
100
AcDbEntity
  8
0
100
AcDbSpline
 62
7
  6
BYLAYER
 70
0
 71
3
 72
11
 73
7
 74
0
 42
0.0000001
 43
0.0000001
 44
0.0000000001
 40
0.0
 40
0.0
 40
0.0
 40
0.0
 40
0.255260279
 40
0.5173962588
 40
0.7703845626
 40
1.0
 40
1.0
 40
1.0
 40
1.0
 10
10.422846146
 20
15.2368187434
 30
0.0
 10
10.3878962525
 20
15.201951744
 30
0.0
 10
10.3241466739
 20
15.1239420562
 30
0.0
 10
10.250904397
 20
14.9933759853
 30
0.0
 10
10.2031178348
 20
14.8567276421
 30
0.0
 10
10.1902161053
 20
14.7632881314
 30
0.0
 10
10.1902161053
 20
14.7188798804
 30
0.0
  0
SPLINE
  5
2E5
100
AcDbEntity
  8
0
100
AcDbSpline
 62
7
  6
BYLAYER
 70
0
 71
3
 72
9
 73
5
 74
0
 42
0.0000001
 43
0.0000001
 44
0.0000000001
 40
0.0
 40
0.0
 40
0.0
 40
0.0
 40
0.2367348574
 40
1.0
 40
1.0
 40
1.0
 40
1.0
 10
12.6461997811
 20
17.402497727
 30
0.0
 10
12.6251953333
 20
17.3903708758
 30
0.0
 10
12.5384558814
 20
17.3357213645
 30
0.0
 10
12.4597156631
 20
17.2688572179
 30
0.0
 10
12.4043560254
 20
17.2136288821
 30
0.0
  0
SPLINE
  5
2E6
100
AcDbEntity
  8
0
100
AcDbSpline
 62
7
  6
BYLAYER
 70
0
 71
3
 72
21
 73
17
 74
0
 42
0.0000001
 43
0.0000001
 44
0.0000000001
 40
0.0
 40
0.0
 40
0.0
 40
0.0
 40
0.0623706905
 40
0.1287892579
 40
0.1984166254
 40
0.2704133674
 40
0.4174546891
 40
0.5616816187
 40
0.6303100251
 40
0.6954240379
 40
0.7563975103
 40
0.8128593196
 40
0.8647809932
 40
0.9125791505
 40
0.9571719651
 40
1.0
 40
1.0
 40
1.0
 40
1.0
 10
8.0158537005
 20
11.4223039528
 30
0.0
 10
7.9440429756
 20
11.4637629561
 30
0.0
 10
7.801319114
 20
11.5592165783
 30
0.0
 10
7.5990939336
 20
11.7292697158
 30
0.0
 10
7.4058268612
 20
11.9277421435
 30
0.0
 10
7.1640299756
 20
12.2263142494
 30
0.0
 10
6.9098715461
 20
12.6398127696
 30
0.0
 10
6.7295511426
 20
13.0858769402
 30
0.0
 10
6.6404251199
 20
13.4450632427
 30
0.0
 10
6.6041096572
 20
13.7018918573
 30
0.0
 10
6.5979007194
 20
13.9451132576
 30
0.0
 10
6.6221314267
 20
14.1697422623
 30
0.0
 10
6.6765745426
 20
14.3711429423
 30
0.0
 10
6.7605889267
 20
14.5451093782
 30
0.0
 10
6.8731092978
 20
14.6873120078
 30
0.0
 10
6.9665488544
 20
14.758891965
 30
0.0
 10
7.0158627557
 20
14.7873542036
 30
0.0
  0
SPLINE
  5
2E7
100
AcDbEntity
  8
0
100
AcDbSpline
 62
7
  6
BYLAYER
 70
0
 71
3
 72
11
 73
7
 74
0
 42
0.0000001
 43
0.0000001
 44
0.0000000001
 40
0.0
 40
0.0
 40
0.0
 40
0.0
 40
0.2895971525
 40
0.5491569214
 40
0.7822931309
 40
1.0
 40
1.0
 40
1.0
 40
1.0
 10
10.1902161053
 20
23.782226166
 30
0.0
 10
10.1902161053
 20
23.7569015932
 30
0.0
 10
10.1940750326
 20
23.7087182872
 30
0.0
 10
10.2135689264
 20
23.6425116387
 30
0.0
 10
10.2464253781
 20
23.5887831076
 30
0.0
 10
10.277290482
 20
23.5628616373
 30
0.0
 10
10.2937757618
 20
23.5533390989
 30
0.0
  0
SPLINE
  5
2E8
100
AcDbEntity
  8
0
100
AcDbSpline
 62
7
  6
BYLAYER
 70
0
 71
3
 72
11
 73
7
 74
0
 42
0.0000001
 43
0.0000001
 44
0.0000000001
 40
0.0
 40
0.0
 40
0.0
 40
0.0
 40
0.2659703972
 40
0.5253506999
 40
0.7717458151
 40
1.0
 40
1.0
 40
1.0
 40
1.0
 10
10.5008749837
 20
38.8947895321
 30
0.0
 10
10.4520382858
 20
38.8102014206
 30
0.0
 10
10.3649084902
 20
38.6375294752
 30
0.0
 10
10.2667610181
 20
38.3709519997
 30
0.0
 10
10.2056185189
 20
38.1076859569
 30
0.0
 10
10.1902161053
 20
37.9332230877
 30
0.0
 10
10.1902161053
 20
37.8494000217
 30
0.0
  0
SPLINE
  5
2E9
100
AcDbEntity
  8
0
100
AcDbSpline
 62
7
  6
BYLAYER
 70
0
 71
3
 72
10
 73
6
 74
0
 42
0.0000001
 43
0.0000001
 44
0.0000000001
 40
0.0
 40
0.0
 40
0.0
 40
0.0
 40
0.2344362287
 40
0.4821173594
 40
1.0
 40
1.0
 40
1.0
 40
1.0
 10
12.0977835241
 20
41.4159457667
 30
0.0
 10
12.0577135645
 20
41.3871303438
 30
0.0
 10
11.9791469501
 20
41.3223894776
 30
0.0
 10
11.8324066024
 20
41.1710608553
 30
0.0
 10
11.7384737857
 20
41.038385436
 30
0.0
 10
11.6839598862
 20
40.9439640682
 30
0.0
  0
SPLINE
  5
2EA
100
AcDbEntity
  8
0
100
AcDbSpline
 62
7
  6
BYLAYER
 70
0
 71
3
 72
9
 73
5
 74
0
 42
0.0000001
 43
0.0000001
 44
0.0000000001
 40
0.0
 40
0.0
 40
0.0
 40
0.0
 40
0.4662368376
 40
1.0
 40
1.0
 40
1.0
 40
1.0
 10
12.4405458743
 20
41.5642710312
 30
0.0
 10
12.3825376867
 20
41.556864293
 30
0.0
 10
12.2607271962
 20
41.5196119713
 30
0.0
 10
12.1521372671
 20
41.4550330557
 30
0.0
 10
12.0977835241
 20
41.4159457667
 30
0.0
  0
SPLINE
  5
2EB
100
AcDbEntity
  8
0
100
AcDbSpline
 62
7
  6
BYLAYER
 70
0
 71
3
 72
9
 73
5
 74
0
 42
0.0000001
 43
0.0000001
 44
0.0000000001
 40
0.0
 40
0.0
 40
0.0
 40
0.0
 40
0.4812481967
 40
1.0
 40
1.0
 40
1.0
 40
1.0
 10
13.3952027616
 20
41.6735786133
 30
0.0
 10
13.3892853786
 20
41.6769951136
 30
0.0
 10
13.3755696484
 20
41.6818241964
 30
0.0
 10
13.3611291095
 20
41.6818151105
 30
0.0
 10
13.3538230873
 20
41.6808822457
 30
0.0
  0
SPLINE
  5
2EC
100
AcDbEntity
  8
0
100
AcDbSpline
 62
7
  6
BYLAYER
 70
0
 71
3
 72
11
 73
7
 74
0
 42
0.0000001
 43
0.0000001
 44
0.0000000001
 40
0.0
 40
0.0
 40
0.0
 40
0.0
 40
0.2760631793
 40
0.534292438
 40
0.7750487151
 40
1.0
 40
1.0
 40
1.0
 40
1.0
 10
38.686500745
 20
21.6589508496
 30
0.0
 10
38.455849298
 20
21.5257849695
 30
0.0
 10
37.9958278593
 20
21.2905129167
 30
0.0
 10
37.2925014246
 20
21.0308100764
 30
0.0
 10
36.6081047182
 20
20.8802218559
 30
0.0
 10
36.1570242619
 20
20.8537351242
 30
0.0
 10
35.9401275721
 20
20.8611257012
 30
0.0
  0
SPLINE
  5
2ED
100
AcDbEntity
  8
0
100
AcDbSpline
 62
7
  6
BYLAYER
 70
0
 71
3
 72
11
 73
7
 74
0
 42
0.0000001
 43
0.0000001
 44
0.0000000001
 40
0.0
 40
0.0
 40
0.0
 40
0.0
 40
0.2316400065
 40
0.4942145089
 40
0.7599720437
 40
1.0
 40
1.0
 40
1.0
 40
1.0
 10
39.4358307279
 20
22.2691071929
 30
0.0
 10
39.4377026042
 20
22.2454820745
 30
0.0
 10
39.4312494904
 20
22.1942724247
 30
0.0
 10
39.4017663305
 20
22.1216471341
 30
0.0
 10
39.3561886351
 20
22.0568175784
 30
0.0
 10
39.316215415
 20
22.0225146136
 30
0.0
 10
39.2949481092
 20
22.0102360022
 30
0.0
  0
SPLINE
  5
2EE
100
AcDbEntity
  8
0
100
AcDbSpline
 62
7
  6
BYLAYER
 70
0
 71
3
 72
9
 73
5
 74
0
 42
0.0000001
 43
0.0000001
 44
0.0000000001
 40
0.0
 40
0.0
 40
0.0
 40
0.0
 40
0.5187536515
 40
1.0
 40
1.0
 40
1.0
 40
1.0
 10
16.093176877
 20
46.4256085279
 30
0.0
 10
16.0960219447
 20
46.4188147699
 30
0.0
 10
16.1032341763
 20
46.4063041225
 30
0.0
 10
16.1142740029
 20
46.3968401317
 30
0.0
 10
16.1201914163
 20
46.3934236138
 30
0.0
  0
SPLINE
  5
2EF
100
AcDbEntity
  8
0
100
AcDbSpline
 62
7
  6
BYLAYER
 70
0
 71
3
 72
12
 73
8
 74
0
 42
0.0000001
 43
0.0000001
 44
0.0000000001
 40
0.0
 40
0.0
 40
0.0
 40
0.0
 40
0.2839898616
 40
0.5525844431
 40
0.6771366371
 40
0.7936518218
 40
1.0
 40
1.0
 40
1.0
 40
1.0
 10
15.8964423478
 20
48.2402382203
 30
0.0
 10
15.848745023
 20
48.1576235717
 30
0.0
 10
15.7689277152
 20
47.9889720195
 30
0.0
 10
15.707838899
 20
47.7684055134
 30
0.0
 10
15.6885109682
 20
47.5978815979
 30
0.0
 10
15.689060069
 20
47.4475324307
 30
0.0
 10
15.7107589929
 20
47.3387870009
 30
0.0
 10
15.7375332932
 20
47.2748524528
 30
0.0
  0
SPLINE
  5
2F0
100
AcDbEntity
  8
0
100
AcDbSpline
 62
7
  6
BYLAYER
 70
0
 71
3
 72
10
 73
6
 74
0
 42
0.0000001
 43
0.0000001
 44
0.0000000001
 40
0.0
 40
0.0
 40
0.0
 40
0.0
 40
0.2344362287
 40
0.4821173594
 40
1.0
 40
1.0
 40
1.0
 40
1.0
 10
16.9022891267
 20
49.7376397703
 30
0.0
 10
16.862219167
 20
49.7088243474
 30
0.0
 10
16.7836525527
 20
49.6440834812
 30
0.0
 10
16.6369122049
 20
49.4927548589
 30
0.0
 10
16.5429793883
 20
49.3600794397
 30
0.0
 10
16.4884654887
 20
49.2656580718
 30
0.0
  0
SPLINE
  5
2F1
100
AcDbEntity
  8
0
100
AcDbSpline
 62
7
  6
BYLAYER
 70
0
 71
3
 72
11
 73
7
 74
0
 42
0.0000001
 43
0.0000001
 44
0.0000000001
 40
0.0
 40
0.0
 40
0.0
 40
0.0
 40
0.2400279563
 40
0.5057854911
 40
0.7683599935
 40
1.0
 40
1.0
 40
1.0
 40
1.0
 10
39.5093548465
 20
22.8688752262
 30
0.0
 10
39.4934043672
 20
22.8596662676
 30
0.0
 10
39.4634244521
 20
22.8339390441
 30
0.0
 10
39.4292411805
 20
22.7853168773
 30
0.0
 10
39.4071288106
 20
22.7308479094
 30
0.0
 10
39.4022889753
 20
22.692440672
 30
0.0
 10
39.4036928825
 20
22.6747218332
 30
0.0
  0
SPLINE
  5
2F2
100
AcDbEntity
  8
0
100
AcDbSpline
 62
7
  6
BYLAYER
 70
0
 71
3
 72
11
 73
7
 74
0
 42
0.0000001
 43
0.0000001
 44
0.0000000001
 40
0.0
 40
0.0
 40
0.0
 40
0.0
 40
0.2214719067
 40
0.4601806075
 40
0.7193694319
 40
1.0
 40
1.0
 40
1.0
 40
1.0
 10
42.4727382952
 20
23.6652925382
 30
0.0
 10
42.2681076502
 20
23.699777811
 30
0.0
 10
41.8334701829
 20
23.721048582
 30
0.0
 10
41.1636074886
 20
23.6189452137
 30
0.0
 10
40.4686094448
 20
23.3879018178
 30
0.0
 10
40.0148029052
 20
23.160694057
 30
0.0
 10
39.7870838237
 20
23.0292211688
 30
0.0
  0
SPLINE
  5
2F3
100
AcDbEntity
  8
0
100
AcDbSpline
 62
7
  6
BYLAYER
 70
0
 71
3
 72
21
 73
17
 74
0
 42
0.0000001
 43
0.0000001
 44
0.0000000001
 40
0.0
 40
0.0
 40
0.0
 40
0.0
 40
0.0613416965
 40
0.1265104288
 40
0.1947646767
 40
0.2653668165
 40
0.4100219426
 40
0.5531163588
 40
0.6218501349
 40
0.6875808004
 40
0.7496661199
 40
0.807650084
 40
0.8613273934
 40
0.9108487006
 40
0.9567713222
 40
1.0
 40
1.0
 40
1.0
 40
1.0
 10
8.0158537005
 20
36.4481030378
 30
0.0
 10
7.9474300213
 20
36.4876065737
 30
0.0
 10
7.811354587
 20
36.578004946
 30
0.0
 10
7.6178738259
 20
36.7382777102
 30
0.0
 10
7.4321921437
 20
36.9247796251
 30
0.0
 10
7.1980712999
 20
37.2055147099
 30
0.0
 10
6.9477609949
 20
37.5958432166
 30
0.0
 10
6.7633382493
 20
38.0187872841
 30
0.0
 10
6.6643206982
 20
38.3627478191
 30
0.0
 10
6.6173941087
 20
38.6119438319
 30
0.0
 10
6.5976485373
 20
38.8509211725
 30
0.0
 10
6.6055966979
 20
39.0751635706
 30
0.0
 10
6.6411661775
 20
39.2804486139
 30
0.0
 10
6.7040450054
 20
39.4629851937
 30
0.0
 10
6.7935585806
 20
39.618883437
 30
0.0
 10
6.8717093138
 20
39.7046458606
 30
0.0
 10
6.913967241
 20
39.7409003939
 30
0.0
  0
SPLINE
  5
2F4
100
AcDbEntity
  8
0
100
AcDbSpline
 62
7
  6
BYLAYER
 70
0
 71
3
 72
15
 73
11
 74
0
 42
0.0000001
 43
0.0000001
 44
0.0000000001
 40
0.0
 40
0.0
 40
0.0
 40
0.0
 40
0.1548840734
 40
0.3064662757
 40
0.4502275894
 40
0.5833405039
 40
0.7040541412
 40
0.8121103984
 40
0.9092598203
 40
1.0
 40
1.0
 40
1.0
 40
1.0
 10
39.4714217176
 20
17.1174487681
 30
0.0
 10
39.4584207779
 20
17.094930355
 30
0.0
 10
39.4352267853
 20
17.0488620372
 30
0.0
 10
39.408992113
 20
16.9777957495
 30
0.0
 10
39.3926843934
 20
16.9075250035
 30
0.0
 10
39.3867862512
 20
16.8407766102
 30
0.0
 10
39.3916960727
 20
16.7798844429
 30
0.0
 10
39.4072507924
 20
16.7269005715
 30
0.0
 10
39.4335848158
 20
16.6839744487
 30
0.0
 10
39.458239442
 20
16.6631939537
 30
0.0
 10
39.4714282704
 20
16.6555706976
 30
0.0
  0
SPLINE
  5
2F5
100
AcDbEntity
  8
0
100
AcDbSpline
 62
7
  6
BYLAYER
 70
0
 71
3
 72
9
 73
5
 74
0
 42
0.0000001
 43
0.0000001
 44
0.0000000001
 40
0.0
 40
0.0
 40
0.0
 40
0.0
 40
0.2446435573
 40
1.0
 40
1.0
 40
1.0
 40
1.0
 10
16.988463407
 20
49.7934783025
 30
0.0
 10
16.9812098972
 20
49.7892905117
 30
0.0
 10
16.9517894988
 20
49.7717778385
 30
0.0
 10
16.923284401
 20
49.7527380563
 30
0.0
 10
16.9022891267
 20
49.7376397703
 30
0.0
  0
SPLINE
  5
2F6
100
AcDbEntity
  8
0
100
AcDbSpline
 62
7
  6
BYLAYER
 70
0
 71
3
 72
11
 73
7
 74
0
 42
0.0000001
 43
0.0000001
 44
0.0000000001
 40
0.0
 40
0.0
 40
0.0
 40
0.0
 40
0.2202556037
 40
0.4580411142
 40
0.7175122164
 40
1.0
 40
1.0
 40
1.0
 40
1.0
 10
17.7267251278
 20
50.0720485686
 30
0.0
 10
17.6964107363
 20
50.0790570238
 30
0.0
 10
17.6313025959
 20
50.0854575974
 30
0.0
 10
17.5300591468
 20
50.0730555995
 30
0.0
 10
17.4245522791
 20
50.0396603653
 30
0.0
 10
17.3557059187
 20
50.0055045999
 30
0.0
 10
17.3211470288
 20
49.9855521346
 30
0.0
  0
SPLINE
  5
2F7
100
AcDbEntity
  8
0
100
AcDbSpline
 62
7
  6
BYLAYER
 70
0
 71
3
 72
11
 73
7
 74
0
 42
0.0000001
 43
0.0000001
 44
0.0000000001
 40
0.0
 40
0.0
 40
0.0
 40
0.0
 40
0.2758261391
 40
0.5330049213
 40
0.7732883739
 40
1.0
 40
1.0
 40
1.0
 40
1.0
 10
19.1515362073
 20
50.2093383142
 30
0.0
 10
19.0411429965
 20
50.1612548048
 30
0.0
 10
18.8221141667
 20
50.0805758583
 30
0.0
 10
18.4911572066
 20
50.0081464947
 30
0.0
 10
18.1740987589
 20
49.9901862119
 30
0.0
 10
17.9703472837
 20
50.0157249913
 30
0.0
 10
17.8739209324
 20
50.0380180255
 30
0.0
  0
SPLINE
  5
2F8
100
AcDbEntity
  8
0
100
AcDbSpline
 62
7
  6
BYLAYER
 70
0
 71
3
 72
13
 73
9
 74
0
 42
0.0000001
 43
0.0000001
 44
0.0000000001
 40
0.0
 40
0.0
 40
0.0
 40
0.0
 40
0.1080996213
 40
0.2182399842
 40
0.3322484353
 40
0.4516731639
 40
0.7106695209
 40
1.0
 40
1.0
 40
1.0
 40
1.0
 10
9.0158439637
 20
36.3490635477
 30
0.0
 10
8.9830561881
 20
36.3301263592
 30
0.0
 10
8.9134222933
 20
36.2975436637
 30
0.0
 10
8.8007791735
 20
36.2664105104
 30
0.0
 10
8.6807088924
 20
36.2529702699
 30
0.0
 10
8.5078034728
 20
36.2590010932
 30
0.0
 10
8.2780956355
 20
36.3143662916
 30
0.0
 10
8.1036195336
 20
36.3974325567
 30
0.0
 10
8.0158537005
 20
36.4481030378
 30
0.0
  0
SPLINE
  5
2F9
100
AcDbEntity
  8
0
100
AcDbSpline
 62
7
  6
BYLAYER
 70
0
 71
3
 72
9
 73
5
 74
0
 42
0.0000001
 43
0.0000001
 44
0.0000000001
 40
0.0
 40
0.0
 40
0.0
 40
0.0
 40
0.2560789398
 40
1.0
 40
1.0
 40
1.0
 40
1.0
 10
19.4962333287
 20
50.3840037614
 30
0.0
 10
19.4676589958
 20
50.367506461
 30
0.0
 10
19.3552375542
 20
50.3045528885
 30
0.0
 10
19.2394133385
 20
50.247614589
 30
0.0
 10
19.1515362073
 20
50.2093383142
 30
0.0
  0
SPLINE
  5
2FA
100
AcDbEntity
  8
0
100
AcDbSpline
 62
7
  6
BYLAYER
 70
0
 71
3
 72
11
 73
7
 74
0
 42
0.0000001
 43
0.0000001
 44
0.0000000001
 40
0.0
 40
0.0
 40
0.0
 40
0.0
 40
0.2624262095
 40
0.5171589076
 40
0.763266823
 40
1.0
 40
1.0
 40
1.0
 40
1.0
 10
30.9927157571
 20
58.623062261
 30
0.0
 10
30.3569766452
 20
57.9952378037
 30
0.0
 10
29.0695394358
 20
56.7923738837
 30
0.0
 10
27.0678659995
 20
55.1325911339
 30
0.0
 10
25.036033532
 20
53.6539086515
 30
0.0
 10
23.6428914564
 20
52.778063657
 30
0.0
 10
22.9448618935
 20
52.3750585066
 30
0.0
  0
SPLINE
  5
2FB
100
AcDbEntity
  8
0
100
AcDbSpline
 62
7
  6
BYLAYER
 70
0
 71
3
 72
15
 73
11
 74
0
 42
0.0000001
 43
0.0000001
 44
0.0000000001
 40
0.0
 40
0.0
 40
0.0
 40
0.0
 40
0.0907449599
 40
0.1879023446
 40
0.29592207
 40
0.4166934073
 40
0.5498272175
 40
0.6934994188
 40
0.8449401093
 40
1.0
 40
1.0
 40
1.0
 40
1.0
 10
40.4398706101
 20
19.6609034536
 30
0.0
 10
40.464601074
 20
19.6466074577
 30
0.0
 10
40.5108926615
 20
19.6076993125
 30
0.0
 10
40.5601538245
 20
19.5271455681
 30
0.0
 10
40.5894712898
 20
19.4278402976
 30
0.0
 10
40.5985134762
 20
19.3136252607
 30
0.0
 10
40.587542435
 20
19.1884746343
 30
0.0
 10
40.55693276
 20
19.0567839317
 30
0.0
 10
40.507836874
 20
18.9235153595
 30
0.0
 10
40.4642859192
 20
18.8371495566
 30
0.0
 10
40.4398807058
 20
18.7948782523
 30
0.0
  0
SPLINE
  5
2FC
100
AcDbEntity
  8
0
100
AcDbSpline
 62
7
  6
BYLAYER
 70
0
 71
3
 72
9
 73
5
 74
0
 42
0.0000001
 43
0.0000001
 44
0.0000000001
 40
0.0
 40
0.0
 40
0.0
 40
0.0
 40
0.4828062309
 40
1.0
 40
1.0
 40
1.0
 40
1.0
 10
32.1762236782
 20
59.5418863425
 30
0.0
 10
31.9669772776
 20
59.4210785979
 30
0.0
 10
31.5523715295
 20
59.1376173001
 30
0.0
 10
31.1768758169
 20
58.8049296142
 30
0.0
 10
30.9927157571
 20
58.623062261
 30
0.0
  0
SPLINE
  5
2FD
100
AcDbEntity
  8
0
100
AcDbSpline
 62
7
  6
BYLAYER
 70
0
 71
3
 72
9
 73
5
 74
0
 42
0.0000001
 43
0.0000001
 44
0.0000000001
 40
0.0
 40
0.0
 40
0.0
 40
0.0
 40
0.2439822202
 40
1.0
 40
1.0
 40
1.0
 40
1.0
 10
34.3086412655
 20
60.7639017338
 30
0.0
 10
34.2978333327
 20
60.7591941677
 30
0.0
 10
34.2538293948
 20
60.7392278525
 30
0.0
 10
34.2110149797
 20
60.7166666357
 30
0.0
 10
34.179379845
 20
60.6984021912
 30
0.0
  0
SPLINE
  5
2FE
100
AcDbEntity
  8
0
100
AcDbSpline
 62
7
  6
BYLAYER
 70
0
 71
3
 72
11
 73
7
 74
0
 42
0.0000001
 43
0.0000001
 44
0.0000000001
 40
0.0
 40
0.0
 40
0.0
 40
0.0
 40
0.2608960989
 40
0.5149134923
 40
0.7614461305
 40
1.0
 40
1.0
 40
1.0
 40
1.0
 10
26.3800607586
 20
59.2890230916
 30
0.0
 10
25.8402840212
 20
58.7953196986
 30
0.0
 10
24.7514386323
 20
57.8462361035
 30
0.0
 10
23.0720515204
 20
56.5264712891
 30
0.0
 10
21.3752368213
 20
55.3350419204
 30
0.0
 10
20.2183771176
 20
54.6180140224
 30
0.0
 10
19.6391239284
 20
54.2835840339
 30
0.0
  0
SPLINE
  5
2FF
100
AcDbEntity
  8
0
100
AcDbSpline
 62
7
  6
BYLAYER
 70
0
 71
3
 72
9
 73
5
 74
0
 42
0.0000001
 43
0.0000001
 44
0.0000000001
 40
0.0
 40
0.0
 40
0.0
 40
0.0
 40
0.2560789398
 40
1.0
 40
1.0
 40
1.0
 40
1.0
 10
16.1904953636
 20
52.2925292887
 30
0.0
 10
16.1619210307
 20
52.2760319884
 30
0.0
 10
16.0494995891
 20
52.2130784159
 30
0.0
 10
15.9336753735
 20
52.1561401164
 30
0.0
 10
15.8457982422
 20
52.1178638416
 30
0.0
  0
SPLINE
  5
300
100
AcDbEntity
  8
0
100
AcDbSpline
 62
7
  6
BYLAYER
 70
0
 71
3
 72
11
 73
7
 74
0
 42
0.0000001
 43
0.0000001
 44
0.0000000001
 40
0.0
 40
0.0
 40
0.0
 40
0.0
 40
0.2758261391
 40
0.5330049213
 40
0.7732883739
 40
1.0
 40
1.0
 40
1.0
 40
1.0
 10
15.8457982422
 20
52.1178638416
 30
0.0
 10
15.7354050314
 20
52.0697803322
 30
0.0
 10
15.5163762017
 20
51.9891013857
 30
0.0
 10
15.1854192415
 20
51.9166720221
 30
0.0
 10
14.8683607939
 20
51.8987117393
 30
0.0
 10
14.6646093187
 20
51.9242505187
 30
0.0
 10
14.5681829673
 20
51.9465435529
 30
0.0
  0
ENDSEC
  0
SECTION
  2
OBJECTS
  0
DICTIONARY
  5
C
100
AcDbDictionary
280
0
281
1
  3
ACAD_GROUP
350
D
  3
ACAD_MLINESTYLE
350
17
  3
ACAD_LAYOUT
350
1A
  3
ACAD_PLOTSETTINGS
350
19
  3
ACAD_PLOTSTYLENAME
350
E
  0
DICTIONARY
  5
D
102
{ACAD_REACTORS
330
C
102
}
100
AcDbDictionary
280
0
281
1
  0
ACDBDICTIONARYWDFLT
  5
E
102
{ACAD_REACTORS
330
C
102
}
100
AcDbDictionary
281
1
  3
Normal
350
F
100
AcDbDictionaryWithDefault
340
F
  0
DICTIONARY
  5
17
102
{ACAD_REACTORS
330
C
102
}
100
AcDbDictionary
280
0
281
1
  3
Standard
350
18
  0
DICTIONARY
  5
19
102
{ACAD_REACTORS
330
C
102
}
100
AcDbDictionary
281
1
  0
DICTIONARY
  5
1A
102
{ACAD_REACTORS
330
C
102
}
100
AcDbDictionary
281
1
  3
Model
350
301
  3
Layout1
350
302
  0
ACDBPLACEHOLDER
  5
F
102
{ACAD_REACTORS
330
E
102
}
  0
MLINESTYLE
  5
18
102
{ACAD_REACTORS
330
17
102
}
100
AcDbMlineStyle
  2
STANDARD
 70
0
  3

 62
256
 51
90.0
 52
90.0
 71
2
 49
0.5
 62
256
  6
BYLAYER
 49
-0.5
 62
256
  6
BYLAYER
  0
LAYOUT
  5
301
102
{ACAD_REACTORS
330
1A
102
}
100
AcDbPlotSettings
  1

  2
none_device
  4

  6

 40
0.0
 41
0.0
 42
0.0
 43
0.0
 44
210.0
 45
297.0
 46
0.0
 47
0.0
 48
0.0
 49
0.0
140
0.0
141
0.0
142
1.0
143
1.0
 70
1024
 72
1
 73
0
 74
0
  7

 75
0
147
1.0
148
0.0
149
0.0
100
AcDbLayout
  1
Model
 70
0
 71
0
 10
0.0
 20
0.0
 11
210.0
 21
297.0
 12
0.0
 22
0.0
 32
0.0
 14
0.0
 24
0.0
 34
0.0
 15
0.0
 25
0.0
 35
0.0
146
0.0
 13
0.0
 23
0.0
 33
0.0
 16
1.0
 26
0.0
 36
0.0
 17
0.0
 27
1.0
 37
0.0
 76
0
330
210
345
0
346
0
  0
LAYOUT
  5
302
102
{ACAD_REACTORS
330
1A
102
}
100
AcDbPlotSettings
  1

  2
none_device
  4

  6

 40
0.0
 41
0.0
 42
0.0
 43
0.0
 44
210.0
 45
297.0
 46
0.0
 47
0.0
 48
0.0
 49
0.0
140
0.0
141
0.0
142
1.0
143
1.0
 70
0
 72
1
 73
0
 74
0
  7

 75
0
147
1.0
148
0.0
149
0.0
100
AcDbLayout
  1
Layout1
 70
0
 71
1
 10
0.0
 20
0.0
 11
210.0
 21
297.0
 12
0.0
 22
0.0
 32
0.0
 14
0.0
 24
0.0
 34
0.0
 15
0.0
 25
0.0
 35
0.0
146
0.0
 13
0.0
 23
0.0
 33
0.0
 16
1.0
 26
0.0
 36
0.0
 17
0.0
 27
1.0
 37
0.0
 76
0
330
211
345
0
346
0
  0
ENDSEC
  0
EOF
