999
DXF file: C:\Users\sesa63760\OneDrive - Schneider Electric\Documents\7-Dev\_Creo\CAD\MCADUE0000169_3D-CAD\drw0001_1.dxf
999
Pro/ENGINEER 2019471 by Parametric Technology Corporation
  0
SECTION
  2
HEADER
  9
$ACADVER
  1
AC1024
  9
$DWGCODEPAGE
  3
ANSI_1252
  9
$EXTMAX
 10
212.08397428
 20
299.9473350531
 30
0.0
  9
$EXTMIN
 10
0.0
 20
0.0
 30
0.0
  9
$LIMMIN
 10
0.0
 20
0.0
  9
$LIMMAX
 10
212.08397428
 20
299.9473350531
  9
$VIEWCTR
 10
106.04198714
 20
149.9736675265
  9
$VIEWSIZE
 40
299.9473350531
  9
$CLAYER
  8
0
  9
$LTSCALE
 40
19.5521225812
  9
$CELTYPE
  6
BYLAYER
  9
$DIMSCALE
 40
1.0
  9
$DIMASZ
 40
2.5248092176
  9
$DIMEXO
 40
1.0
  9
$DIMDLI
 40
13.5087392379
  9
$DIMEXE
 40
1.0
  9
$DIMCEN
 40
3.1994382406
  9
$DIMLFAC
 40
1.0
  9
$DIMBLK
  1
_FILLED
  9
$DIMALT
 70
0
  9
$DIMALTF
 40
0.0393700787
  9
$DIMTXT
 40
3.5347329047
  9
$DIMTOL
 70
1
  9
$DIMLIM
 70
0
  9
$DIMTFAC
 40
1.0
  9
$DIMTP
 40
0.01
  9
$DIMTM
 40
0.01
  9
$DIMGAP
 40
0.625
  9
$DIMDSEP
 70
46
  9
$AUNITS
 70
0
  9
$PDMODE
 70
3
  9
$PDSIZE
 40
0.3125
  9
$HANDSEED
  5
41A
  9
$TILEMODE
 70
1
  9
$MEASUREMENT
 70
1
  9
$INSUNITS
 70
4
  0
ENDSEC
  0
SECTION
  2
CLASSES
  0
CLASS
  1
ACDBDICTIONARYWDFLT
  2
AcDbDictionaryWithDefault
  3
AutoCAD 2000
 90
0
 91
1
280
0
281
0
  0
CLASS
  1
ACDBPLACEHOLDER
  2
AcDbPlaceHolder
  3
AutoCAD 2000
 90
0
 91
1
280
0
281
0
  0
CLASS
  1
LAYOUT
  2
AcDbLayout
  3
AutoCAD 2000
 90
0
 91
0
280
0
281
0
  0
ENDSEC
  0
SECTION
  2
TABLES
  0
TABLE
  2
VPORT
  5
8
100
AcDbSymbolTable
 70
2
  0
VPORT
  5
1F4
100
AcDbSymbolTableRecord
100
AcDbViewportTableRecord
  2
*ACTIVE
 70
0
 10
0.0
 20
0.0
 11
1.0
 21
1.0
 12
106.04198714
 22
149.9736675265
 13
0.0
 23
0.0
 14
1.0
 24
1.0
 15
0.0
 25
0.0
 16
0.0
 26
0.0
 36
1.0
 17
0.0
 27
0.0
 37
0.0
 40
299.9473350531
 41
0.7070707071
 42
50.0
 43
0.0
 44
0.0
 50
0.0
 51
0.0
 71
0
 72
100
 73
1
 74
1
 75
0
 76
0
 77
0
 78
0
  0
ENDTAB
  0
TABLE
  2
LTYPE
  5
5
100
AcDbSymbolTable
 70
6
  0
LTYPE
  5
14
100
AcDbSymbolTableRecord
100
AcDbLinetypeTableRecord
  2
BYBLOCK
 70
0
  3

 72
65
 73
0
 40
0.0
  0
LTYPE
  5
15
100
AcDbSymbolTableRecord
100
AcDbLinetypeTableRecord
  2
BYLAYER
 70
0
  3

 72
65
 73
0
 40
0.0
  0
LTYPE
  5
16
100
AcDbSymbolTableRecord
100
AcDbLinetypeTableRecord
  2
CONTINUOUS
 70
64
  3
Solid line
 72
65
 73
0
 40
0.0
  0
LTYPE
  5
1F5
100
AcDbSymbolTableRecord
100
AcDbLinetypeTableRecord
  2
CENTER
 70
64
  3
____ _ ____ _ ____ _ ____ _ ____ _ ____ _ ____
 72
65
 73
4
 40
0.6
 49
0.375
 74
0
 49
-0.075
 74
0
 49
0.075
 74
0
 49
-0.075
 74
0
  0
LTYPE
  5
1F6
100
AcDbSymbolTableRecord
100
AcDbLinetypeTableRecord
  2
HIDDEN
 70
64
  3
- - - - - - - - - - - - - - - - - - - -
 72
65
 73
2
 40
0.2
 49
0.1
 74
0
 49
-0.1
 74
0
  0
LTYPE
  5
1F7
100
AcDbSymbolTableRecord
100
AcDbLinetypeTableRecord
  2
PHANTOM
 70
64
  3
_____ _ _ _____ _ _ _____ _ _ _____
 72
65
 73
6
 40
0.8
 49
0.45
 74
0
 49
-0.05
 74
0
 49
0.1
 74
0
 49
-0.05
 74
0
 49
0.1
 74
0
 49
-0.05
 74
0
  0
LTYPE
  5
1F8
100
AcDbSymbolTableRecord
100
AcDbLinetypeTableRecord
  2
DOT
 70
64
  3
. . . . . . . . . . . . . . . . . . . .
 72
65
 73
2
 40
0.2
 49
0.1
 74
0
 49
-0.1
 74
0
  0
LTYPE
  5
1F9
100
AcDbSymbolTableRecord
100
AcDbLinetypeTableRecord
  2
DASHED
 70
64
  3
- - - - - - - - - - - - - - - - - - - -
 72
65
 73
2
 40
0.2
 49
0.1
 74
0
 49
-0.1
 74
0
  0
ENDTAB
  0
TABLE
  2
LAYER
  5
2
100
AcDbSymbolTable
 70
36
  0
LAYER
  5
10
100
AcDbSymbolTableRecord
100
AcDbLayerTableRecord
  2
0
 70
0
 62
7
  6
CONTINUOUS
370
-3
390
F
  0
LAYER
  5
1FA
100
AcDbSymbolTableRecord
100
AcDbLayerTableRecord
  2
DEFAULT_1
 70
0
 62
7
  6
CENTER
370
-3
390
F
  0
LAYER
  5
1FB
100
AcDbSymbolTableRecord
100
AcDbLayerTableRecord
  2
DEFAULT_2
 70
0
 62
8
  6
HIDDEN
370
-3
390
F
  0
LAYER
  5
1FC
100
AcDbSymbolTableRecord
100
AcDbLayerTableRecord
  2
DEFAULT_3
 70
0
 62
7
  6
PHANTOM
370
-3
390
F
  0
LAYER
  5
1FD
100
AcDbSymbolTableRecord
100
AcDbLayerTableRecord
  2
00_COMPONENTS
 70
0
 62
7
  6
CONTINUOUS
370
-3
390
F
  0
LAYER
  5
1FE
100
AcDbSymbolTableRecord
100
AcDbLayerTableRecord
  2
01_1_DEFAULT_DATUMS
 70
0
 62
7
  6
CONTINUOUS
370
-3
390
F
  0
LAYER
  5
1FF
100
AcDbSymbolTableRecord
100
AcDbLayerTableRecord
  2
01_PLANES
 70
0
 62
7
  6
CONTINUOUS
370
-3
390
F
  0
LAYER
  5
200
100
AcDbSymbolTableRecord
100
AcDbLayerTableRecord
  2
02_COORD_SYS
 70
0
 62
7
  6
CONTINUOUS
370
-3
390
F
  0
LAYER
  5
201
100
AcDbSymbolTableRecord
100
AcDbLayerTableRecord
  2
03_AXES
 70
0
 62
7
  6
CONTINUOUS
370
-3
390
F
  0
LAYER
  5
202
100
AcDbSymbolTableRecord
100
AcDbLayerTableRecord
  2
04_POINTS
 70
0
 62
7
  6
CONTINUOUS
370
-3
390
F
  0
LAYER
  5
203
100
AcDbSymbolTableRecord
100
AcDbLayerTableRecord
  2
05_CURVES
 70
0
 62
7
  6
CONTINUOUS
370
-3
390
F
  0
LAYER
  5
204
100
AcDbSymbolTableRecord
100
AcDbLayerTableRecord
  2
06_SURFS
 70
0
 62
7
  6
CONTINUOUS
370
-3
390
F
  0
LAYER
  5
205
100
AcDbSymbolTableRecord
100
AcDbLayerTableRecord
  2
07_COSMETICS
 70
0
 62
7
  6
CONTINUOUS
370
-3
390
F
  0
LAYER
  5
206
100
AcDbSymbolTableRecord
100
AcDbLayerTableRecord
  2
10_NOTES
 70
0
 62
7
  6
CONTINUOUS
370
-3
390
F
  0
LAYER
  5
207
100
AcDbSymbolTableRecord
100
AcDbLayerTableRecord
  2
11_NOTES_PUB
 70
0
 62
7
  6
CONTINUOUS
370
-3
390
F
  0
LAYER
  5
208
100
AcDbSymbolTableRecord
100
AcDbLayerTableRecord
  2
13_REF_GTOL
 70
0
 62
7
  6
CONTINUOUS
370
-3
390
F
  0
LAYER
  5
209
100
AcDbSymbolTableRecord
100
AcDbLayerTableRecord
  2
16_MISC
 70
0
 62
7
  6
CONTINUOUS
370
-3
390
F
  0
LAYER
  5
20A
100
AcDbSymbolTableRecord
100
AcDbLayerTableRecord
  2
17_NO_PRINT
 70
0
 62
7
  6
CONTINUOUS
370
-3
390
F
  0
LAYER
  5
20B
100
AcDbSymbolTableRecord
100
AcDbLayerTableRecord
  2
18_DATUM_CAMS_JOINTS
 70
0
 62
7
  6
CONTINUOUS
370
-3
390
F
  0
LAYER
  5
20C
100
AcDbSymbolTableRecord
100
AcDbLayerTableRecord
  2
19_DATUM_FUNCTIONAL
 70
0
 62
7
  6
CONTINUOUS
370
-3
390
F
  0
LAYER
  5
20D
100
AcDbSymbolTableRecord
100
AcDbLayerTableRecord
  2
20_DATUM_KINEMATIC_SCHEME
 70
0
 62
7
  6
CONTINUOUS
370
-3
390
F
  0
ENDTAB
  0
TABLE
  2
STYLE
  5
3
100
AcDbSymbolTable
 70
1
  0
STYLE
  5
11
100
AcDbSymbolTableRecord
100
AcDbTextStyleTableRecord
  2
STANDARD
 70
0
 40
0.0
 41
0.8
 50
0.0
 71
0
 42
0.2
  3
txt
  4

  0
STYLE
  5
20E
100
AcDbSymbolTableRecord
100
AcDbTextStyleTableRecord
  2
TEXTSTYLE_1
 70
0
 40
0.0
 41
0.8
 50
0.0
 71
0
 42
0.2
  3
gdt
  4

  0
ENDTAB
  0
TABLE
  2
VIEW
  5
6
100
AcDbSymbolTable
 70
0
  0
ENDTAB
  0
TABLE
  2
UCS
  5
7
100
AcDbSymbolTable
 70
0
  0
ENDTAB
  0
TABLE
  2
APPID
  5
9
100
AcDbSymbolTable
 70
1
  0
APPID
  5
20F
100
AcDbSymbolTableRecord
100
AcDbRegAppTableRecord
  2
ACAD
 70
0
  0
ENDTAB
  0
TABLE
  2
BLOCK_RECORD
  5
1
100
AcDbSymbolTable
 70
0
  0
BLOCK_RECORD
  5
210
100
AcDbSymbolTableRecord
100
AcDbBlockTableRecord
  2
*Model_Space
  0
BLOCK_RECORD
  5
211
100
AcDbSymbolTableRecord
100
AcDbBlockTableRecord
  2
*Paper_Space
  0
BLOCK_RECORD
  5
212
100
AcDbSymbolTableRecord
100
AcDbBlockTableRecord
  2
_FILLED
  0
ENDTAB
  0
TABLE
  2
DIMSTYLE
  5
A
100
AcDbSymbolTable
 70
1
100
AcDbDimStyleTable
 71
0
  0
DIMSTYLE
105
213
100
AcDbSymbolTableRecord
100
AcDbDimStyleTableRecord
  2
STANDARD
 70
0
  3

  4

 40
1.0
 41
2.5248092176
 42
1.0
 43
0.38
 44
1.0
 45
0.0
 46
0.0
 47
0.01
 48
0.01
140
3.5347329047
141
0.09
142
0.0
143
25.4
144
1.0
145
0.0
146
1.0
147
0.625
 71
1
 72
0
 73
0
 74
0
 75
0
 76
0
 77
1
 78
8
 79
2
170
0
171
1
172
0
173
0
174
0
175
0
176
0
177
0
178
0
270
2
179
2
271
2
272
2
273
2
274
2
275
0
280
0
281
0
282
0
283
1
284
8
285
0
286
0
287
3
288
0
340
11
278
46
341
212
342
212
343
212
344
212
  0
ENDTAB
  0
ENDSEC
  0
SECTION
  2
BLOCKS
  0
BLOCK
  5
20
100
AcDbEntity
  8
0
100
AcDbBlockBegin
  2
*Model_Space
 70
0
 10
0.0
 20
0.0
 30
0.0
  3
*Model_Space
  1

  0
ENDBLK
  5
21
100
AcDbEntity
  8
0
100
AcDbBlockEnd
  0
BLOCK
  5
1C
100
AcDbEntity
  8
0
100
AcDbBlockBegin
  2
*Paper_Space
 70
0
 10
0.0
 20
0.0
 30
0.0
  3
*Paper_Space
  1

  0
ENDBLK
  5
1D
100
AcDbEntity
  8
0
100
AcDbBlockEnd
  0
BLOCK
  5
214
100
AcDbEntity
  8
0
100
AcDbBlockBegin
  2
_FILLED
 70
64
 10
0.0
 20
0.0
  3
_FILLED
  1

  0
SOLID
  5
215
100
AcDbEntity
  8
0
  6
BYBLOCK
 62
0
100
AcDbTrace
 10
0.0
 20
0.0
 11
-1.0
 21
0.25
 12
-1.0
 22
-0.25
 13
-1.0
 23
-0.25
  0
ENDBLK
  5
216
100
AcDbEntity
  8
0
  6
BYBLOCK
 62
0
100
AcDbBlockEnd
  0
ENDSEC
  0
SECTION
  2
ENTITIES
  0
LINE
  5
217
100
AcDbEntity
  8
0
100
AcDbLine
 62
7
  6
CONTINUOUS
 10
24.6041811006
 20
124.9865957231
 11
24.6041811006
 21
120.9040836374
  0
LINE
  5
218
100
AcDbEntity
  8
0
100
AcDbLine
 62
7
  6
CONTINUOUS
 10
24.6041811006
 20
120.0875812203
 11
24.6041811006
 21
116.0050691347
  0
LINE
  5
219
100
AcDbEntity
  8
0
100
AcDbLine
 62
7
  6
CONTINUOUS
 10
25.3112878817
 20
120.08758292
 11
25.3112878817
 21
120.4958445826
  0
LINE
  5
21A
100
AcDbEntity
  8
0
100
AcDbLine
 62
7
  6
CONTINUOUS
 10
25.5941264727
 20
113.2289510398
 11
25.5941264727
 21
115.4335368374
  0
LINE
  5
21B
100
AcDbEntity
  8
0
100
AcDbLine
 62
7
  6
CONTINUOUS
 10
25.5941264727
 20
125.5581375385
 11
25.5941264727
 21
128.9057974487
  0
LINE
  5
21C
100
AcDbEntity
  8
0
100
AcDbLine
 62
7
  6
CONTINUOUS
 10
29.200394314
 20
113.3515042303
 11
29.200394314
 21
117.4340163159
  0
LINE
  5
21D
100
AcDbEntity
  8
0
100
AcDbLine
 62
7
  6
CONTINUOUS
 10
29.200394314
 20
118.2505187331
 11
29.200394314
 21
122.3330308187
  0
LINE
  5
21E
100
AcDbEntity
  8
0
100
AcDbLine
 62
7
  6
CONTINUOUS
 10
29.5539462326
 20
117.6381383929
 11
29.5539462326
 21
118.45464081
  0
LINE
  5
21F
100
AcDbEntity
  8
0
100
AcDbLine
 62
7
  6
CONTINUOUS
 10
30.1903396861
 20
118.0055581313
 11
30.1903396861
 21
122.9045726341
  0
LINE
  5
220
100
AcDbEntity
  8
0
100
AcDbLine
 62
7
  6
CONTINUOUS
 10
31.9580992791
 20
114.9436564304
 11
31.9580992791
 21
116.9849647434
  0
LINE
  5
221
100
AcDbEntity
  8
0
100
AcDbLine
 62
7
  6
CONTINUOUS
 10
32.0288332146
 20
120.7000678006
 11
32.0288332146
 21
116.617555715
  0
LINE
  5
222
100
AcDbEntity
  8
0
100
AcDbLine
 62
7
  6
CONTINUOUS
 10
32.0288332146
 20
115.8010532978
 11
32.0288332146
 21
111.7185412122
  0
LINE
  5
223
100
AcDbEntity
  8
0
100
AcDbLine
 62
7
  6
CONTINUOUS
 10
32.3823851332
 20
116.4134370374
 11
32.3823851332
 21
116.0051753748
  0
LINE
  5
224
100
AcDbEntity
  8
0
100
AcDbLine
 62
7
  6
CONTINUOUS
 10
36.6248580142
 20
135.2743552584
 11
36.6248580142
 21
144.1740199648
  0
LINE
  5
225
100
AcDbEntity
  8
0
100
AcDbLine
 62
7
  6
CONTINUOUS
 10
37.3321561532
 20
108.6567355533
 11
37.3321561532
 21
112.7392476389
  0
LINE
  5
226
100
AcDbEntity
  8
0
100
AcDbLine
 62
7
  6
CONTINUOUS
 10
37.3321561532
 20
113.5557500561
 11
37.3321561532
 21
117.6382621417
  0
LINE
  5
227
100
AcDbEntity
  8
0
100
AcDbLine
 62
7
  6
CONTINUOUS
 10
37.6857080718
 20
112.9433697159
 11
37.6857080718
 21
113.759872133
  0
LINE
  5
228
100
AcDbEntity
  8
0
100
AcDbLine
 62
7
  6
CONTINUOUS
 10
38.3221015253
 20
113.3107894544
 11
38.3221015253
 21
118.2098039571
  0
LINE
  5
229
100
AcDbEntity
  8
0
100
AcDbLine
 62
7
  6
CONTINUOUS
 10
53.8785154785
 20
96.899320859
 11
25.5941264727
 21
113.2289510398
  0
LINE
  5
22A
100
AcDbEntity
  8
0
100
AcDbLine
 62
7
  6
CONTINUOUS
 10
24.6041811006
 20
116.0050691347
 11
29.200394314
 21
113.3515042303
  0
LINE
  5
22B
100
AcDbEntity
  8
0
100
AcDbLine
 62
7
  6
CONTINUOUS
 10
32.0288332146
 20
111.7185412122
 11
37.3321561532
 21
108.6567355533
  0
LINE
  5
22C
100
AcDbEntity
  8
0
100
AcDbLine
 62
7
  6
CONTINUOUS
 10
40.1605950538
 20
107.0237725352
 11
45.4639179924
 21
103.9619668763
  0
LINE
  5
22D
100
AcDbEntity
  8
0
100
AcDbLine
 62
7
  6
CONTINUOUS
 10
48.292356893
 20
102.3290038582
 11
52.8885701064
 21
99.6754389538
  0
LINE
  5
22E
100
AcDbEntity
  8
0
100
AcDbLine
 62
7
  6
CONTINUOUS
 10
30.1903396861
 20
113.9230460457
 11
32.0288332146
 21
112.8616153249
  0
LINE
  5
22F
100
AcDbEntity
  8
0
100
AcDbLine
 62
7
  6
CONTINUOUS
 10
38.3221015253
 20
109.2282773687
 11
40.1605950538
 21
108.1668466479
  0
LINE
  5
230
100
AcDbEntity
  8
0
100
AcDbLine
 62
7
  6
CONTINUOUS
 10
46.4538633645
 20
104.5335086917
 11
48.292356893
 21
103.4720779709
  0
LINE
  5
231
100
AcDbEntity
  8
0
100
AcDbLine
 62
7
  6
CONTINUOUS
 10
48.292356893
 20
105.5132817436
 11
48.2216229575
 21
105.5541190764
  0
LINE
  5
232
100
AcDbEntity
  8
0
100
AcDbLine
 62
7
  6
CONTINUOUS
 10
40.1605950538
 20
110.2080504206
 11
40.0898611183
 21
110.2488877534
  0
LINE
  5
233
100
AcDbEntity
  8
0
100
AcDbLine
 62
7
  6
CONTINUOUS
 10
32.0288332146
 20
114.9028190976
 11
31.9580992791
 21
114.9436564304
  0
LINE
  5
234
100
AcDbEntity
  8
0
100
AcDbLine
 62
7
  6
CONTINUOUS
 10
39.453273363
 20
154.135321235
 11
39.453273363
 21
152.0940651922
  0
LINE
  5
235
100
AcDbEntity
  8
0
100
AcDbLine
 62
7
  6
CONTINUOUS
 10
39.453273363
 20
151.1142622916
 11
39.453273363
 21
149.0730062488
  0
LINE
  5
236
100
AcDbEntity
  8
0
100
AcDbLine
 62
7
  6
CONTINUOUS
 10
39.453273363
 20
148.0932033482
 11
39.453273363
 21
146.0519473054
  0
LINE
  5
237
100
AcDbEntity
  8
0
100
AcDbLine
 62
7
  6
CONTINUOUS
 10
39.6654062806
 20
154.9926519092
 11
39.6654062806
 21
154.0128490086
  0
LINE
  5
238
100
AcDbEntity
  8
0
100
AcDbLine
 62
7
  6
CONTINUOUS
 10
39.6654062806
 20
151.9715929658
 11
39.6654062806
 21
150.9917900652
  0
LINE
  5
239
100
AcDbEntity
  8
0
100
AcDbLine
 62
7
  6
CONTINUOUS
 10
39.6654062806
 20
148.9505340224
 11
39.6654062806
 21
147.9707311219
  0
LINE
  5
23A
100
AcDbEntity
  8
0
100
AcDbLine
 62
7
  6
CONTINUOUS
 10
39.6654062806
 20
145.929475079
 11
39.6654062806
 21
145.6845243539
  0
LINE
  5
23B
100
AcDbEntity
  8
0
100
AcDbLine
 62
7
  6
CONTINUOUS
 10
40.0898611183
 20
110.2488877534
 11
40.0898611183
 21
112.2901960664
  0
LINE
  5
23C
100
AcDbEntity
  8
0
100
AcDbLine
 62
7
  6
CONTINUOUS
 10
40.1605950538
 20
116.0052991236
 11
40.1605950538
 21
111.922787038
  0
LINE
  5
23D
100
AcDbEntity
  8
0
100
AcDbLine
 62
7
  6
CONTINUOUS
 10
40.1605950538
 20
111.1062846209
 11
40.1605950538
 21
107.0237725352
  0
LINE
  5
23E
100
AcDbEntity
  8
0
100
AcDbLine
 62
7
  6
CONTINUOUS
 10
40.5141469724
 20
111.7186683604
 11
40.5141469724
 21
111.3104066978
  0
LINE
  5
23F
100
AcDbEntity
  8
0
100
AcDbLine
 62
7
  6
CONTINUOUS
 10
41.7513799698
 20
144.9701155783
 11
41.7513799698
 21
153.9516421668
  0
LINE
  5
240
100
AcDbEntity
  8
0
100
AcDbLine
 62
7
  6
CONTINUOUS
 10
45.4639179924
 20
103.9619668763
 11
45.4639179924
 21
108.044478962
  0
LINE
  5
241
100
AcDbEntity
  8
0
100
AcDbLine
 62
7
  6
CONTINUOUS
 10
45.4639179924
 20
108.8609813791
 11
45.4639179924
 21
112.9434934647
  0
LINE
  5
242
100
AcDbEntity
  8
0
100
AcDbLine
 62
7
  6
CONTINUOUS
 10
45.817469911
 20
108.2486010389
 11
45.817469911
 21
109.065103456
  0
LINE
  5
243
100
AcDbEntity
  8
0
100
AcDbLine
 62
7
  6
CONTINUOUS
 10
29.200394314
 20
117.4340163159
 11
24.6041811006
 21
120.0875812203
  0
LINE
  5
244
100
AcDbEntity
  8
0
100
AcDbLine
 62
7
  6
CONTINUOUS
 10
32.0288332146
 20
115.8010532978
 11
37.3321561532
 21
112.7392476389
  0
LINE
  5
245
100
AcDbEntity
  8
0
100
AcDbLine
 62
7
  6
CONTINUOUS
 10
40.1605950538
 20
111.1062846209
 11
45.4639179924
 21
108.044478962
  0
LINE
  5
246
100
AcDbEntity
  8
0
100
AcDbLine
 62
7
  6
CONTINUOUS
 10
48.292356893
 20
106.4115159439
 11
52.8885701064
 21
103.7579510395
  0
LINE
  5
247
100
AcDbEntity
  8
0
100
AcDbLine
 62
7
  6
CONTINUOUS
 10
25.3112878817
 20
120.08758292
 11
29.5539462326
 21
117.6381383929
  0
LINE
  5
248
100
AcDbEntity
  8
0
100
AcDbLine
 62
7
  6
CONTINUOUS
 10
32.3823851332
 20
116.0051753748
 11
37.6857080718
 21
112.9433697159
  0
LINE
  5
249
100
AcDbEntity
  8
0
100
AcDbLine
 62
7
  6
CONTINUOUS
 10
40.5141469724
 20
111.3104066978
 11
45.817469911
 21
108.2486010389
  0
LINE
  5
24A
100
AcDbEntity
  8
0
100
AcDbLine
 62
7
  6
CONTINUOUS
 10
48.6459088116
 20
106.6156380208
 11
52.8885671625
 21
104.1661934937
  0
LINE
  5
24B
100
AcDbEntity
  8
0
100
AcDbLine
 62
7
  6
CONTINUOUS
 10
45.4639179924
 20
108.8609813791
 11
40.1605950538
 21
111.922787038
  0
LINE
  5
24C
100
AcDbEntity
  8
0
100
AcDbLine
 62
7
  6
CONTINUOUS
 10
37.3321561532
 20
113.5557500561
 11
32.0288332146
 21
116.617555715
  0
LINE
  5
24D
100
AcDbEntity
  8
0
100
AcDbLine
 62
7
  6
CONTINUOUS
 10
29.200394314
 20
118.2505187331
 11
24.6041811006
 21
120.9040836374
  0
LINE
  5
24E
100
AcDbEntity
  8
0
100
AcDbLine
 62
7
  6
CONTINUOUS
 10
48.292356893
 20
107.228018361
 11
52.8885701064
 21
104.5744534566
  0
LINE
  5
24F
100
AcDbEntity
  8
0
100
AcDbLine
 62
7
  6
CONTINUOUS
 10
48.292356893
 20
107.5545900566
 11
46.4538633645
 21
108.6160207774
  0
LINE
  5
250
100
AcDbEntity
  8
0
100
AcDbLine
 62
7
  6
CONTINUOUS
 10
40.1605950538
 20
112.2493587336
 11
38.3221015253
 21
113.3107894544
  0
LINE
  5
251
100
AcDbEntity
  8
0
100
AcDbLine
 62
7
  6
CONTINUOUS
 10
32.0288332146
 20
116.9441274105
 11
30.1903396861
 21
118.0055581313
  0
LINE
  5
252
100
AcDbEntity
  8
0
100
AcDbLine
 62
7
  6
CONTINUOUS
 10
83.1172988909
 20
90.8774420051
 11
82.0566343032
 21
91.4898031369
  0
LINE
  5
253
100
AcDbEntity
  8
0
100
AcDbLine
 62
7
  6
CONTINUOUS
 10
78.5210856774
 20
93.5310069095
 11
77.4604210897
 21
94.1433680413
  0
LINE
  5
254
100
AcDbEntity
  8
0
100
AcDbLine
 62
7
  6
CONTINUOUS
 10
73.924872464
 20
96.1845718139
 11
72.8642078762
 21
96.7969329457
  0
LINE
  5
255
100
AcDbEntity
  8
0
100
AcDbLine
 62
7
  6
CONTINUOUS
 10
69.3286592505
 20
98.8381367183
 11
68.2679946628
 21
99.45049785
  0
LINE
  5
256
100
AcDbEntity
  8
0
100
AcDbLine
 62
7
  6
CONTINUOUS
 10
64.7324460371
 20
101.4917016226
 11
63.6717814493
 21
102.1040627544
  0
LINE
  5
257
100
AcDbEntity
  8
0
100
AcDbLine
 62
7
  6
CONTINUOUS
 10
86.6528475166
 20
88.8362382325
 11
88.9509541233
 21
87.5094557803
  0
LINE
  5
258
100
AcDbEntity
  8
0
100
AcDbLine
 62
7
  6
CONTINUOUS
 10
52.8885701064
 20
108.6569655423
 11
48.292356893
 21
111.3105304467
  0
LINE
  5
259
100
AcDbEntity
  8
0
100
AcDbLine
 62
7
  6
CONTINUOUS
 10
45.4639179924
 20
112.9434934647
 11
40.1605950538
 21
116.0052991236
  0
LINE
  5
25A
100
AcDbEntity
  8
0
100
AcDbLine
 62
7
  6
CONTINUOUS
 10
37.3321561532
 20
117.6382621417
 11
32.0288332146
 21
120.7000678006
  0
LINE
  5
25B
100
AcDbEntity
  8
0
100
AcDbLine
 62
7
  6
CONTINUOUS
 10
29.200394314
 20
122.3330308187
 11
24.6041811006
 21
124.9865957231
  0
LINE
  5
25C
100
AcDbEntity
  8
0
100
AcDbLine
 62
7
  6
CONTINUOUS
 10
53.8785154785
 20
109.2285073577
 11
49.2823022651
 21
111.8820722621
  0
LINE
  5
25D
100
AcDbEntity
  8
0
100
AcDbLine
 62
7
  6
CONTINUOUS
 10
46.4538633645
 20
113.5150352802
 11
41.1505404259
 21
116.5768409391
  0
LINE
  5
25E
100
AcDbEntity
  8
0
100
AcDbLine
 62
7
  6
CONTINUOUS
 10
38.3221015253
 20
118.2098039571
 11
33.0187785867
 21
121.271609616
  0
LINE
  5
25F
100
AcDbEntity
  8
0
100
AcDbLine
 62
7
  6
CONTINUOUS
 10
30.1903396861
 20
122.9045726341
 11
25.5941264727
 21
125.5581375385
  0
LINE
  5
260
100
AcDbEntity
  8
0
100
AcDbLine
 62
7
  6
CONTINUOUS
 10
88.7388212058
 20
89.4282333244
 11
88.9509541233
 21
89.305761098
  0
LINE
  5
261
100
AcDbEntity
  8
0
100
AcDbLine
 62
7
  6
CONTINUOUS
 10
46.4538633645
 20
108.6160207774
 11
46.4538633645
 21
113.5150352802
  0
LINE
  5
262
100
AcDbEntity
  8
0
100
AcDbLine
 62
7
  6
CONTINUOUS
 10
48.2216229575
 20
105.5541190764
 11
48.2216229575
 21
107.5954273894
  0
LINE
  5
263
100
AcDbEntity
  8
0
100
AcDbLine
 62
7
  6
CONTINUOUS
 10
48.292356893
 20
111.3105304467
 11
48.292356893
 21
107.228018361
  0
LINE
  5
264
100
AcDbEntity
  8
0
100
AcDbLine
 62
7
  6
CONTINUOUS
 10
48.292356893
 20
106.4115159439
 11
48.292356893
 21
102.3290038582
  0
LINE
  5
265
100
AcDbEntity
  8
0
100
AcDbLine
 62
7
  6
CONTINUOUS
 10
48.64569979
 20
149.9712948102
 11
48.64569979
 21
148.0116890091
  0
LINE
  5
266
100
AcDbEntity
  8
0
100
AcDbLine
 62
7
  6
CONTINUOUS
 10
48.6459088116
 20
107.0238996834
 11
48.6459088116
 21
106.6156380208
  0
LINE
  5
267
100
AcDbEntity
  8
0
100
AcDbLine
 62
7
  6
CONTINUOUS
 10
50.0599192403
 20
149.8080152349
 11
50.0599192403
 21
150.7878181354
  0
LINE
  5
268
100
AcDbEntity
  8
0
100
AcDbLine
 62
7
  6
CONTINUOUS
 10
50.8377399379
 20
148.5424479878
 11
50.8377399379
 21
149.3589504049
  0
LINE
  5
269
100
AcDbEntity
  8
0
100
AcDbLine
 62
7
  6
CONTINUOUS
 10
52.8885701064
 20
99.6754389538
 11
52.8885701064
 21
103.7579510395
  0
LINE
  5
26A
100
AcDbEntity
  8
0
100
AcDbLine
 62
7
  6
CONTINUOUS
 10
52.8885671625
 20
104.1661934937
 11
52.8885701064
 21
108.6569655423
  0
LINE
  5
26B
100
AcDbEntity
  8
0
100
AcDbLine
 62
7
  6
CONTINUOUS
 10
88.9509541233
 20
90.2855639986
 11
88.7388212058
 21
90.4080362249
  0
LINE
  5
26C
100
AcDbEntity
  8
0
100
AcDbLine
 62
7
  6
CONTINUOUS
 10
88.7388212058
 20
92.4492922677
 11
88.9509541233
 21
92.3268200414
  0
LINE
  5
26D
100
AcDbEntity
  8
0
100
AcDbLine
 62
7
  6
CONTINUOUS
 10
53.8785154785
 20
112.5761672679
 11
25.5941264727
 21
128.9057974487
  0
LINE
  5
26E
100
AcDbEntity
  8
0
100
AcDbLine
 62
7
  6
CONTINUOUS
 10
61.3031028253
 20
109.0242989248
 11
61.6566576879
 21
108.8201785475
  0
LINE
  5
26F
100
AcDbEntity
  8
0
100
AcDbLine
 62
7
  6
CONTINUOUS
 10
88.9509541233
 20
93.3066229419
 11
88.7388212058
 21
93.4290951683
  0
LINE
  5
270
100
AcDbEntity
  8
0
100
AcDbLine
 62
7
  6
CONTINUOUS
 10
88.7388212058
 20
95.4703512111
 11
88.9509541233
 21
95.3478789848
  0
LINE
  5
271
100
AcDbEntity
  8
0
100
AcDbLine
 62
7
  6
CONTINUOUS
 10
88.9509541233
 20
96.3276818853
 11
88.7388212058
 21
96.4501541117
  0
LINE
  5
272
100
AcDbEntity
  8
0
100
AcDbLine
 62
7
  6
CONTINUOUS
 10
53.8785154785
 20
96.899320859
 11
53.8785154785
 21
100.2469807693
  0
LINE
  5
273
100
AcDbEntity
  8
0
100
AcDbLine
 62
7
  6
CONTINUOUS
 10
53.8785154785
 20
109.2285073577
 11
53.8785154785
 21
112.5761672679
  0
LINE
  5
274
100
AcDbEntity
  8
0
100
AcDbLine
 62
7
  6
CONTINUOUS
 10
54.4793550224
 20
144.6437027843
 11
54.4793550224
 21
137.621781997
  0
LINE
  5
275
100
AcDbEntity
  8
0
100
AcDbLine
 62
7
  6
CONTINUOUS
 10
54.6561324537
 20
147.1544503305
 11
54.6561324537
 21
146.3379479134
  0
LINE
  5
276
100
AcDbEntity
  8
0
100
AcDbLine
 62
7
  6
CONTINUOUS
 10
55.8935744727
 20
136.8053004879
 11
55.8935744727
 21
143.8272212753
  0
LINE
  5
277
100
AcDbEntity
  8
0
100
AcDbLine
 62
7
  6
CONTINUOUS
 10
55.928929959
 20
146.4196169723
 11
55.928929959
 21
146.8278681809
  0
LINE
  5
278
100
AcDbEntity
  8
0
100
AcDbLine
 62
7
  6
CONTINUOUS
 10
56.6360396841
 20
146.4196274264
 11
56.6360396841
 21
146.0113762178
  0
LINE
  5
279
100
AcDbEntity
  8
0
100
AcDbLine
 62
7
  6
CONTINUOUS
 10
57.9088371894
 20
144.4600404426
 11
57.9088371894
 21
145.2765428597
  0
LINE
  5
27A
100
AcDbEntity
  8
0
100
AcDbLine
 62
7
  6
CONTINUOUS
 10
88.7388212058
 20
98.4914101545
 11
88.9509541233
 21
98.3689379281
  0
LINE
  5
27B
100
AcDbEntity
  8
0
100
AcDbLine
 62
7
  6
CONTINUOUS
 10
88.9509541233
 20
99.3487408287
 11
88.7388212058
 21
99.4712130551
  0
LINE
  5
27C
100
AcDbEntity
  8
0
100
AcDbLine
 62
7
  6
CONTINUOUS
 10
88.7388212058
 20
101.5124690979
 11
88.9509541233
 21
101.3899968715
  0
LINE
  5
27D
100
AcDbEntity
  8
0
100
AcDbLine
 62
7
  6
CONTINUOUS
 10
88.9509541233
 20
102.3697997721
 11
88.7388212058
 21
102.4922719984
  0
LINE
  5
27E
100
AcDbEntity
  8
0
100
AcDbLine
 62
7
  6
CONTINUOUS
 10
88.7388212058
 20
104.5335280413
 11
88.9509541233
 21
104.4110558149
  0
LINE
  5
27F
100
AcDbEntity
  8
0
100
AcDbLine
 62
7
  6
CONTINUOUS
 10
86.1225387745
 20
106.6156405599
 11
77.9907769353
 21
111.3104092369
  0
LINE
  5
280
100
AcDbEntity
  8
0
100
AcDbLine
 62
7
  6
CONTINUOUS
 10
88.9509541233
 20
105.3908587155
 11
88.7388212058
 21
105.5133309418
  0
LINE
  5
281
100
AcDbEntity
  8
0
100
AcDbLine
 62
7
  6
CONTINUOUS
 10
61.3031028253
 20
109.0242989248
 11
61.3031028253
 21
109.432557188
  0
LINE
  5
282
100
AcDbEntity
  8
0
100
AcDbLine
 62
7
  6
CONTINUOUS
 10
61.6566576879
 20
104.7376664619
 11
61.6566576879
 21
113.7191930503
  0
LINE
  5
283
100
AcDbEntity
  8
0
100
AcDbLine
 62
7
  6
CONTINUOUS
 10
61.7272297052
 20
143.0720427853
 11
61.7272297052
 21
142.2555403682
  0
LINE
  5
284
100
AcDbEntity
  8
0
100
AcDbLine
 62
7
  6
CONTINUOUS
 10
61.7272297052
 20
138.2546785242
 11
61.7272297052
 21
140.4592350505
  0
LINE
  5
285
100
AcDbEntity
  8
0
100
AcDbLine
 62
7
  6
CONTINUOUS
 10
63.6717814493
 20
102.1040627544
 11
63.6717814493
 21
102.553431853
  0
LINE
  5
286
100
AcDbEntity
  8
0
100
AcDbLine
 62
7
  6
CONTINUOUS
 10
64.7324460371
 20
103.1658031829
 11
64.7324460371
 21
101.4917016226
  0
LINE
  5
287
100
AcDbEntity
  8
0
100
AcDbLine
 62
7
  6
CONTINUOUS
 10
66.6064051561
 20
113.719204948
 11
66.6064051561
 21
104.7376783596
  0
LINE
  5
288
100
AcDbEntity
  8
0
100
AcDbLine
 62
7
  6
CONTINUOUS
 10
66.6769977812
 20
137.6015497688
 11
66.6769977812
 21
135.3969932426
  0
LINE
  5
289
100
AcDbEntity
  8
0
100
AcDbLine
 62
7
  6
CONTINUOUS
 10
66.6769977812
 20
139.3978550865
 11
66.6769977812
 21
140.2143575036
  0
LINE
  5
28A
100
AcDbEntity
  8
0
100
AcDbLine
 62
7
  6
CONTINUOUS
 10
66.6064051561
 20
104.7376783596
 11
61.6566576879
 21
104.7376664619
  0
LINE
  5
28B
100
AcDbEntity
  8
0
100
AcDbLine
 62
7
  6
CONTINUOUS
 10
88.7388212058
 20
107.5545869846
 11
88.9509541233
 21
107.4321147583
  0
LINE
  5
28C
100
AcDbEntity
  8
0
100
AcDbLine
 62
7
  6
CONTINUOUS
 10
36.6248580142
 20
144.1740199648
 11
44.7566198534
 21
139.4792512878
  0
LINE
  5
28D
100
AcDbEntity
  8
0
100
AcDbLine
 62
7
  6
CONTINUOUS
 10
77.9907769353
 20
120.2919358253
 11
86.1225387745
 21
115.5971671484
  0
LINE
  5
28E
100
AcDbEntity
  8
0
100
AcDbLine
 62
7
  6
CONTINUOUS
 10
64.152113535
 20
141.3215513561
 11
63.8485588806
 21
141.8473205217
  0
LINE
  5
28F
100
AcDbEntity
  8
0
100
AcDbLine
 62
7
  6
CONTINUOUS
 10
68.2679946628
 20
99.45049785
 11
68.2679946628
 21
105.2070409492
  0
LINE
  5
290
100
AcDbEntity
  8
0
100
AcDbLine
 62
7
  6
CONTINUOUS
 10
69.3286592505
 20
105.819412279
 11
69.3286592505
 21
98.8381367183
  0
LINE
  5
291
100
AcDbEntity
  8
0
100
AcDbLine
 62
7
  6
CONTINUOUS
 10
70.495390297
 20
138.0098574292
 11
70.495390297
 21
137.1933550121
  0
LINE
  5
292
100
AcDbEntity
  8
0
100
AcDbLine
 62
7
  6
CONTINUOUS
 10
71.7681878023
 20
137.2750240711
 11
71.7681878023
 21
137.6832752797
  0
LINE
  5
293
100
AcDbEntity
  8
0
100
AcDbLine
 62
7
  6
CONTINUOUS
 10
72.4752975274
 20
137.2750345251
 11
72.4752975274
 21
136.8667833166
  0
LINE
  5
294
100
AcDbEntity
  8
0
100
AcDbLine
 62
7
  6
CONTINUOUS
 10
72.5106530137
 20
134.233563544
 11
72.5106530137
 21
127.2116427567
  0
LINE
  5
295
100
AcDbEntity
  8
0
100
AcDbLine
 62
7
  6
CONTINUOUS
 10
72.8642078762
 20
96.7969329457
 11
72.8642078762
 21
108.3506008783
  0
LINE
  5
296
100
AcDbEntity
  8
0
100
AcDbLine
 62
7
  6
CONTINUOUS
 10
73.7480950327
 20
135.3154475413
 11
73.7480950327
 21
136.1319499584
  0
LINE
  5
297
100
AcDbEntity
  8
0
100
AcDbLine
 62
7
  6
CONTINUOUS
 10
39.9977934205
 20
155.8796286655
 11
138.9923306304
 21
213.0338102075
  0
LINE
  5
298
100
AcDbEntity
  8
0
100
AcDbLine
 62
7
  6
CONTINUOUS
 10
41.4977867051
 20
155.7310558284
 11
140.4923239151
 21
212.8852373704
  0
LINE
  5
299
100
AcDbEntity
  8
0
100
AcDbLine
 62
7
  6
CONTINUOUS
 10
39.453273363
 20
154.135321235
 11
39.6654062806
 21
154.257795501
  0
LINE
  5
29A
100
AcDbEntity
  8
0
100
AcDbLine
 62
7
  6
CONTINUOUS
 10
110.022324636
 20
192.1838924459
 11
108.5374065778
 21
191.3265797228
  0
LINE
  5
29B
100
AcDbEntity
  8
0
100
AcDbLine
 62
7
  6
CONTINUOUS
 10
81.9369246584
 20
175.9688759992
 11
83.3511323329
 21
176.7853643069
  0
LINE
  5
29C
100
AcDbEntity
  8
0
100
AcDbLine
 62
7
  6
CONTINUOUS
 10
39.453273363
 20
151.1142622916
 11
39.6654062806
 21
151.2367365576
  0
LINE
  5
29D
100
AcDbEntity
  8
0
100
AcDbLine
 62
7
  6
CONTINUOUS
 10
113.8406853569
 20
193.2453074928
 11
115.4670241825
 21
194.1842690467
  0
LINE
  5
29E
100
AcDbEntity
  8
0
100
AcDbLine
 62
7
  6
CONTINUOUS
 10
111.3537214751
 20
191.4828658301
 11
113.6992645895
 21
192.8370576952
  0
LINE
  5
29F
100
AcDbEntity
  8
0
100
AcDbLine
 62
7
  6
CONTINUOUS
 10
61.6566576879
 20
113.7191930503
 11
66.6064051561
 21
113.719204948
  0
LINE
  5
2A0
100
AcDbEntity
  8
0
100
AcDbLine
 62
7
  6
CONTINUOUS
 10
59.5361926917
 20
132.1712619411
 11
62.4353926611
 21
130.497360201
  0
LINE
  5
2A1
100
AcDbEntity
  8
0
100
AcDbLine
 62
7
  6
CONTINUOUS
 10
39.453273363
 20
145.8069965803
 11
88.9509541233
 21
117.2301437638
  0
LINE
  5
2A2
100
AcDbEntity
  8
0
100
AcDbLine
 62
7
  6
CONTINUOUS
 10
88.9509541233
 20
117.475094489
 11
88.7388212058
 21
117.5975667153
  0
LINE
  5
2A3
100
AcDbEntity
  8
0
100
AcDbLine
 62
7
  6
CONTINUOUS
 10
39.453273363
 20
146.0519473054
 11
39.6654062806
 21
145.929475079
  0
LINE
  5
2A4
100
AcDbEntity
  8
0
100
AcDbLine
 62
7
  6
CONTINUOUS
 10
86.6528475166
 20
119.0468276663
 11
73.924872464
 21
126.3951612477
  0
LINE
  5
2A5
100
AcDbEntity
  8
0
100
AcDbLine
 62
7
  6
CONTINUOUS
 10
72.5106530137
 20
127.2116427567
 11
55.8935744727
 21
136.8053004879
  0
LINE
  5
2A6
100
AcDbEntity
  8
0
100
AcDbLine
 62
7
  6
CONTINUOUS
 10
54.4793550224
 20
137.621781997
 11
41.7513799698
 21
144.9701155783
  0
LINE
  5
2A7
100
AcDbEntity
  8
0
100
AcDbLine
 62
7
  6
CONTINUOUS
 10
39.6654062806
 20
147.9707311219
 11
39.453273363
 21
148.0932033482
  0
LINE
  5
2A8
100
AcDbEntity
  8
0
100
AcDbLine
 62
7
  6
CONTINUOUS
 10
88.7388212058
 20
119.6388227582
 11
88.9509541233
 21
119.5163505318
  0
LINE
  5
2A9
100
AcDbEntity
  8
0
100
AcDbLine
 62
7
  6
CONTINUOUS
 10
88.9509541233
 20
120.4961534324
 11
88.7388212058
 21
120.6186256587
  0
LINE
  5
2AA
100
AcDbEntity
  8
0
100
AcDbLine
 62
7
  6
CONTINUOUS
 10
39.453273363
 20
149.0730062488
 11
39.6654062806
 21
148.9505340224
  0
LINE
  5
2AB
100
AcDbEntity
  8
0
100
AcDbLine
 62
7
  6
CONTINUOUS
 10
73.924872464
 20
108.9629722082
 11
73.924872464
 21
96.1845718139
  0
LINE
  5
2AC
100
AcDbEntity
  8
0
100
AcDbLine
 62
7
  6
CONTINUOUS
 10
73.924872464
 20
126.3951612477
 11
73.924872464
 21
133.417082035
  0
LINE
  5
2AD
100
AcDbEntity
  8
0
100
AcDbLine
 62
7
  6
CONTINUOUS
 10
77.4604210897
 20
94.1433680413
 11
77.4604210897
 21
111.0042099745
  0
LINE
  5
2AE
100
AcDbEntity
  8
0
100
AcDbLine
 62
7
  6
CONTINUOUS
 10
77.5664875485
 20
133.927449884
 11
77.5664875485
 21
133.1109474669
  0
LINE
  5
2AF
100
AcDbEntity
  8
0
100
AcDbLine
 62
7
  6
CONTINUOUS
 10
77.9907769353
 20
111.3104092369
 11
77.9907769353
 21
120.2919358253
  0
LINE
  5
2B0
100
AcDbEntity
  8
0
100
AcDbLine
 62
7
  6
CONTINUOUS
 10
78.3443082461
 20
134.4581879546
 11
78.3443082461
 21
133.4783850541
  0
LINE
  5
2B1
100
AcDbEntity
  8
0
100
AcDbLine
 62
7
  6
CONTINUOUS
 10
78.5210856774
 20
111.0042422683
 11
78.5210856774
 21
93.5310069095
  0
LINE
  5
2B2
100
AcDbEntity
  8
0
100
AcDbLine
 62
7
  6
CONTINUOUS
 10
79.7585276964
 20
130.0490958102
 11
79.7585276964
 21
132.0087016113
  0
LINE
  5
2B3
100
AcDbEntity
  8
0
100
AcDbLine
 62
7
  6
CONTINUOUS
 10
39.453273363
 20
148.0932033482
 11
39.6654062806
 21
148.2156776142
  0
LINE
  5
2B4
100
AcDbEntity
  8
0
100
AcDbLine
 62
7
  6
CONTINUOUS
 10
39.453273363
 20
145.8069965803
 11
36.6248580142
 21
144.1740199648
  0
LINE
  5
2B5
100
AcDbEntity
  8
0
100
AcDbLine
 62
7
  6
CONTINUOUS
 10
108.3959858104
 20
185.2028130052
 11
88.5838347213
 21
173.7643305193
  0
LINE
  5
2B6
100
AcDbEntity
  8
0
100
AcDbLine
 62
7
  6
CONTINUOUS
 10
108.5374101993
 20
185.1211634434
 11
110.1637454034
 21
186.0601229065
  0
LINE
  5
2B7
100
AcDbEntity
  8
0
100
AcDbLine
 62
7
  6
CONTINUOUS
 10
50.0599192403
 20
150.7878181354
 11
82.9402476707
 21
169.7711712904
  0
LINE
  5
2B8
100
AcDbEntity
  8
0
100
AcDbLine
 62
7
  6
CONTINUOUS
 10
120.6390522948
 20
191.5364563671
 11
149.0544564502
 21
207.9419996774
  0
LINE
  5
2B9
100
AcDbEntity
  8
0
100
AcDbLine
 62
7
  6
CONTINUOUS
 10
50.0599192403
 20
149.8080152349
 11
83.2938086429
 21
168.9954956939
  0
LINE
  5
2BA
100
AcDbEntity
  8
0
100
AcDbLine
 62
7
  6
CONTINUOUS
 10
121.487598628
 20
191.0465589961
 11
149.0544564502
 21
206.9621967769
  0
LINE
  5
2BB
100
AcDbEntity
  8
0
100
AcDbLine
 62
7
  6
CONTINUOUS
 10
41.7513799698
 20
144.9701155783
 11
48.64569979
 21
148.9505292225
  0
LINE
  5
2BC
100
AcDbEntity
  8
0
100
AcDbLine
 62
7
  6
CONTINUOUS
 10
50.8377399379
 20
149.3589504049
 11
84.0716293405
 21
168.5464308639
  0
LINE
  5
2BD
100
AcDbEntity
  8
0
100
AcDbLine
 62
7
  6
CONTINUOUS
 10
122.2654193257
 20
190.5974941661
 11
149.8322771479
 21
206.5131319469
  0
LINE
  5
2BE
100
AcDbEntity
  8
0
100
AcDbLine
 62
7
  6
CONTINUOUS
 10
50.8377399379
 20
148.5424479878
 11
84.7787512849
 21
168.1381830548
  0
LINE
  5
2BF
100
AcDbEntity
  8
0
100
AcDbLine
 62
7
  6
CONTINUOUS
 10
122.9725412701
 20
190.189246357
 11
149.8322771479
 21
205.6966295298
  0
LINE
  5
2C0
100
AcDbEntity
  8
0
100
AcDbLine
 62
7
  6
CONTINUOUS
 10
66.6769977812
 20
135.3969932426
 11
61.7272297052
 21
138.2546785242
  0
LINE
  5
2C1
100
AcDbEntity
  8
0
100
AcDbLine
 62
7
  6
CONTINUOUS
 10
39.6654062806
 20
150.9917900652
 11
39.453273363
 21
151.1142622916
  0
LINE
  5
2C2
100
AcDbEntity
  8
0
100
AcDbLine
 62
7
  6
CONTINUOUS
 10
88.7388212058
 20
122.6598817015
 11
88.9509541233
 21
122.5374094752
  0
LINE
  5
2C3
100
AcDbEntity
  8
0
100
AcDbLine
 62
7
  6
CONTINUOUS
 10
88.9509541233
 20
123.5172123757
 11
88.7388212058
 21
123.6396846021
  0
LINE
  5
2C4
100
AcDbEntity
  8
0
100
AcDbLine
 62
7
  6
CONTINUOUS
 10
39.453273363
 20
152.0940651922
 11
39.6654062806
 21
151.9715929658
  0
LINE
  5
2C5
100
AcDbEntity
  8
0
100
AcDbLine
 62
7
  6
CONTINUOUS
 10
48.64569979
 20
148.0116890091
 11
54.4793550224
 21
144.6437027843
  0
LINE
  5
2C6
100
AcDbEntity
  8
0
100
AcDbLine
 62
7
  6
CONTINUOUS
 10
55.8935744727
 20
143.8272212753
 11
61.7272297052
 21
140.4592350505
  0
LINE
  5
2C7
100
AcDbEntity
  8
0
100
AcDbLine
 62
7
  6
CONTINUOUS
 10
66.6769977812
 20
137.6015497688
 11
72.5106530137
 21
134.233563544
  0
LINE
  5
2C8
100
AcDbEntity
  8
0
100
AcDbLine
 62
7
  6
CONTINUOUS
 10
73.924872464
 20
133.417082035
 11
79.7585276964
 21
130.0490958102
  0
LINE
  5
2C9
100
AcDbEntity
  8
0
100
AcDbLine
 62
7
  6
CONTINUOUS
 10
39.6654062806
 20
154.0128490086
 11
39.453273363
 21
154.135321235
  0
LINE
  5
2CA
100
AcDbEntity
  8
0
100
AcDbLine
 62
7
  6
CONTINUOUS
 10
88.7388212058
 20
125.6809406449
 11
88.9509541233
 21
125.5584684186
  0
LINE
  5
2CB
100
AcDbEntity
  8
0
100
AcDbLine
 62
7
  6
CONTINUOUS
 10
88.9509541233
 20
126.5382713191
 11
88.7388212058
 21
126.6607435455
  0
LINE
  5
2CC
100
AcDbEntity
  8
0
100
AcDbLine
 62
7
  6
CONTINUOUS
 10
77.5664875485
 20
133.1109474669
 11
73.7480950327
 21
135.3154475413
  0
LINE
  5
2CD
100
AcDbEntity
  8
0
100
AcDbLine
 62
7
  6
CONTINUOUS
 10
70.495390297
 20
137.1933550121
 11
66.6769977812
 21
139.3978550865
  0
LINE
  5
2CE
100
AcDbEntity
  8
0
100
AcDbLine
 62
7
  6
CONTINUOUS
 10
61.7272297052
 20
142.2555403682
 11
57.9088371894
 21
144.4600404426
  0
LINE
  5
2CF
100
AcDbEntity
  8
0
100
AcDbLine
 62
7
  6
CONTINUOUS
 10
54.6561324537
 20
146.3379479134
 11
50.8377399379
 21
148.5424479878
  0
LINE
  5
2D0
100
AcDbEntity
  8
0
100
AcDbLine
 62
7
  6
CONTINUOUS
 10
39.453273363
 20
155.1151241355
 11
39.6654062806
 21
154.9926519092
  0
LINE
  5
2D1
100
AcDbEntity
  8
0
100
AcDbLine
 62
7
  6
CONTINUOUS
 10
41.7513799698
 20
153.9516421668
 11
48.64569979
 21
149.9712948102
  0
LINE
  5
2D2
100
AcDbEntity
  8
0
100
AcDbLine
 62
7
  6
CONTINUOUS
 10
79.7585276964
 20
132.0087016113
 11
86.6528475166
 21
128.0283542547
  0
LINE
  5
2D3
100
AcDbEntity
  8
0
100
AcDbLine
 62
7
  6
CONTINUOUS
 10
78.3443082461
 20
133.4783850541
 11
77.5664875485
 21
133.927449884
  0
LINE
  5
2D4
100
AcDbEntity
  8
0
100
AcDbLine
 62
7
  6
CONTINUOUS
 10
73.7480950327
 20
136.1319499584
 11
72.4752975274
 21
136.8667833166
  0
LINE
  5
2D5
100
AcDbEntity
  8
0
100
AcDbLine
 62
7
  6
CONTINUOUS
 10
71.7681878023
 20
137.2750240711
 11
70.495390297
 21
138.0098574292
  0
LINE
  5
2D6
100
AcDbEntity
  8
0
100
AcDbLine
 62
7
  6
CONTINUOUS
 10
66.6769977812
 20
140.2143575036
 11
64.5556686058
 21
141.4390797672
  0
LINE
  5
2D7
100
AcDbEntity
  8
0
100
AcDbLine
 62
7
  6
CONTINUOUS
 10
63.8485588806
 20
141.8473205217
 11
61.7272297052
 21
143.0720427853
  0
LINE
  5
2D8
100
AcDbEntity
  8
0
100
AcDbLine
 62
7
  6
CONTINUOUS
 10
57.9088371894
 20
145.2765428597
 11
56.6360396841
 21
146.0113762178
  0
LINE
  5
2D9
100
AcDbEntity
  8
0
100
AcDbLine
 62
7
  6
CONTINUOUS
 10
55.928929959
 20
146.4196169723
 11
54.6561324537
 21
147.1544503305
  0
LINE
  5
2DA
100
AcDbEntity
  8
0
100
AcDbLine
 62
7
  6
CONTINUOUS
 10
50.8377399379
 20
149.3589504049
 11
50.0599192403
 21
149.8080152349
  0
LINE
  5
2DB
100
AcDbEntity
  8
0
100
AcDbLine
 62
7
  6
CONTINUOUS
 10
55.928929959
 20
146.8278681809
 11
56.6360396841
 21
146.4196274264
  0
LINE
  5
2DC
100
AcDbEntity
  8
0
100
AcDbLine
 62
7
  6
CONTINUOUS
 10
71.7681878023
 20
137.6832752797
 11
72.4752975274
 21
137.2750345251
  0
LINE
  5
2DD
100
AcDbEntity
  8
0
100
AcDbLine
 62
7
  6
CONTINUOUS
 10
86.9064407812
 20
129.5149502616
 11
78.3443082461
 21
134.4581879546
  0
LINE
  5
2DE
100
AcDbEntity
  8
0
100
AcDbLine
 62
7
  6
CONTINUOUS
 10
50.0599192403
 20
150.7878181354
 11
41.4977867051
 21
155.7310558284
  0
LINE
  5
2DF
100
AcDbEntity
  8
0
100
AcDbLine
 62
7
  6
CONTINUOUS
 10
82.0566343032
 20
91.4898031369
 11
82.0566343032
 21
108.9630384957
  0
LINE
  5
2E0
100
AcDbEntity
  8
0
100
AcDbLine
 62
7
  6
CONTINUOUS
 10
82.9402476707
 20
169.1996195985
 11
82.9402476707
 21
174.0986341012
  0
LINE
  5
2E1
100
AcDbEntity
  8
0
100
AcDbLine
 62
7
  6
CONTINUOUS
 10
83.1172988909
 20
108.3506773639
 11
83.1172988909
 21
90.8774420051
  0
LINE
  5
2E2
100
AcDbEntity
  8
0
100
AcDbLine
 62
7
  6
CONTINUOUS
 10
86.1225387745
 20
115.5971671484
 11
86.1225387745
 21
106.6156405599
  0
LINE
  5
2E3
100
AcDbEntity
  8
0
100
AcDbLine
 62
7
  6
CONTINUOUS
 10
86.6528475166
 20
128.0283542547
 11
86.6528475166
 21
119.0468276663
  0
LINE
  5
2E4
100
AcDbEntity
  8
0
100
AcDbLine
 62
7
  6
CONTINUOUS
 10
86.6528475166
 20
106.9218126274
 11
86.6528475166
 21
88.8362382325
  0
LINE
  5
2E5
100
AcDbEntity
  8
0
100
AcDbLine
 62
7
  6
CONTINUOUS
 10
54.6561324537
 20
147.1544503305
 11
87.8900218563
 21
166.3419307895
  0
LINE
  5
2E6
100
AcDbEntity
  8
0
100
AcDbLine
 62
7
  6
CONTINUOUS
 10
126.0838118415
 20
188.3929940917
 11
153.6506696636
 21
204.3086318725
  0
LINE
  5
2E7
100
AcDbEntity
  8
0
100
AcDbLine
 62
7
  6
CONTINUOUS
 10
55.928929959
 20
146.8278681809
 11
88.8092583894
 21
165.8112213359
  0
LINE
  5
2E8
100
AcDbEntity
  8
0
100
AcDbLine
 62
7
  6
CONTINUOUS
 10
127.0030483746
 20
187.8622846381
 11
154.9234671689
 21
203.9820497229
  0
LINE
  5
2E9
100
AcDbEntity
  8
0
100
AcDbLine
 62
7
  6
CONTINUOUS
 10
25.5941264727
 20
128.9057974487
 11
42.6366321963
 21
138.7452339825
  0
LINE
  5
2EA
100
AcDbEntity
  8
0
100
AcDbLine
 62
7
  6
CONTINUOUS
 10
56.6360396841
 20
146.4196274264
 11
89.5163681146
 21
165.4029805814
  0
LINE
  5
2EB
100
AcDbEntity
  8
0
100
AcDbLine
 62
7
  6
CONTINUOUS
 10
127.7101580997
 20
187.4540438836
 11
155.6305768941
 21
203.5738089684
  0
LINE
  5
2EC
100
AcDbEntity
  8
0
100
AcDbLine
 62
7
  6
CONTINUOUS
 10
43.1723176931
 20
138.5645594691
 11
44.7566198534
 21
139.4792512878
  0
LINE
  5
2ED
100
AcDbEntity
  8
0
100
AcDbLine
 62
7
  6
CONTINUOUS
 10
56.6360396841
 20
146.0113762178
 11
89.8699290868
 21
165.1988566768
  0
LINE
  5
2EE
100
AcDbEntity
  8
0
100
AcDbLine
 62
7
  6
CONTINUOUS
 10
128.0637190719
 20
187.249919979
 11
155.6305768941
 21
203.1655577598
  0
LINE
  5
2EF
100
AcDbEntity
  8
0
100
AcDbLine
 62
7
  6
CONTINUOUS
 10
57.9088371894
 20
145.2765428597
 11
91.142726592
 21
164.4640233187
  0
LINE
  5
2F0
100
AcDbEntity
  8
0
100
AcDbLine
 62
7
  6
CONTINUOUS
 10
129.3365165772
 20
186.5150866209
 11
156.9033743993
 21
202.4307244017
  0
LINE
  5
2F1
100
AcDbEntity
  8
0
100
AcDbLine
 62
7
  6
CONTINUOUS
 10
88.7388212058
 20
126.6607435455
 11
88.7388212058
 21
125.6809406449
  0
LINE
  5
2F2
100
AcDbEntity
  8
0
100
AcDbLine
 62
7
  6
CONTINUOUS
 10
88.7388212058
 20
123.6396846021
 11
88.7388212058
 21
122.6598817015
  0
LINE
  5
2F3
100
AcDbEntity
  8
0
100
AcDbLine
 62
7
  6
CONTINUOUS
 10
88.7388212058
 20
120.6186256587
 11
88.7388212058
 21
119.6388227582
  0
LINE
  5
2F4
100
AcDbEntity
  8
0
100
AcDbLine
 62
7
  6
CONTINUOUS
 10
88.7388212058
 20
117.5975667153
 11
88.7388212058
 21
117.3526159902
  0
LINE
  5
2F5
100
AcDbEntity
  8
0
100
AcDbLine
 62
7
  6
CONTINUOUS
 10
88.7388212058
 20
108.1261429094
 11
88.7388212058
 21
107.5545869846
  0
LINE
  5
2F6
100
AcDbEntity
  8
0
100
AcDbLine
 62
7
  6
CONTINUOUS
 10
88.7388212058
 20
105.5133309418
 11
88.7388212058
 21
104.5335280413
  0
LINE
  5
2F7
100
AcDbEntity
  8
0
100
AcDbLine
 62
7
  6
CONTINUOUS
 10
88.7388212058
 20
102.4922719984
 11
88.7388212058
 21
101.5124690979
  0
LINE
  5
2F8
100
AcDbEntity
  8
0
100
AcDbLine
 62
7
  6
CONTINUOUS
 10
88.7388212058
 20
99.4712130551
 11
88.7388212058
 21
98.4914101545
  0
LINE
  5
2F9
100
AcDbEntity
  8
0
100
AcDbLine
 62
7
  6
CONTINUOUS
 10
88.7388212058
 20
96.4501541117
 11
88.7388212058
 21
95.4703512111
  0
LINE
  5
2FA
100
AcDbEntity
  8
0
100
AcDbLine
 62
7
  6
CONTINUOUS
 10
88.7388212058
 20
93.4290951683
 11
88.7388212058
 21
92.4492922677
  0
LINE
  5
2FB
100
AcDbEntity
  8
0
100
AcDbLine
 62
7
  6
CONTINUOUS
 10
88.7388212058
 20
90.4080362249
 11
88.7388212058
 21
89.4282333244
  0
LINE
  5
2FC
100
AcDbEntity
  8
0
100
AcDbLine
 62
7
  6
CONTINUOUS
 10
88.9509541233
 20
117.2301437638
 11
88.9509541233
 21
116.4952915884
  0
LINE
  5
2FD
100
AcDbEntity
  8
0
100
AcDbLine
 62
7
  6
CONTINUOUS
 10
88.9509541233
 20
114.4540355456
 11
88.9509541233
 21
113.474232645
  0
LINE
  5
2FE
100
AcDbEntity
  8
0
100
AcDbLine
 62
7
  6
CONTINUOUS
 10
88.9509541233
 20
111.4329766022
 11
88.9509541233
 21
110.4531737017
  0
LINE
  5
2FF
100
AcDbEntity
  8
0
100
AcDbLine
 62
7
  6
CONTINUOUS
 10
88.9509541233
 20
108.4119176588
 11
88.9509541233
 21
108.2486171754
  0
LINE
  5
300
100
AcDbEntity
  8
0
100
AcDbLine
 62
7
  6
CONTINUOUS
 10
88.9509541233
 20
87.5094557803
 11
88.9509541233
 21
89.305761098
  0
LINE
  5
301
100
AcDbEntity
  8
0
100
AcDbLine
 62
7
  6
CONTINUOUS
 10
88.9509541233
 20
90.2855639986
 11
88.9509541233
 21
92.3268200414
  0
LINE
  5
302
100
AcDbEntity
  8
0
100
AcDbLine
 62
7
  6
CONTINUOUS
 10
88.9509541233
 20
93.3066229419
 11
88.9509541233
 21
95.3478789848
  0
LINE
  5
303
100
AcDbEntity
  8
0
100
AcDbLine
 62
7
  6
CONTINUOUS
 10
88.9509541233
 20
96.3276818853
 11
88.9509541233
 21
98.3689379281
  0
LINE
  5
304
100
AcDbEntity
  8
0
100
AcDbLine
 62
7
  6
CONTINUOUS
 10
88.9509541233
 20
99.3487408287
 11
88.9509541233
 21
101.3899968715
  0
LINE
  5
305
100
AcDbEntity
  8
0
100
AcDbLine
 62
7
  6
CONTINUOUS
 10
88.9509541233
 20
102.3697997721
 11
88.9509541233
 21
104.4110558149
  0
LINE
  5
306
100
AcDbEntity
  8
0
100
AcDbLine
 62
7
  6
CONTINUOUS
 10
88.9509541233
 20
105.3908587155
 11
88.9509541233
 21
107.4321147583
  0
LINE
  5
307
100
AcDbEntity
  8
0
100
AcDbLine
 62
7
  6
CONTINUOUS
 10
88.9509541233
 20
117.475094489
 11
88.9509541233
 21
119.5163505318
  0
LINE
  5
308
100
AcDbEntity
  8
0
100
AcDbLine
 62
7
  6
CONTINUOUS
 10
88.9509541233
 20
120.4961534324
 11
88.9509541233
 21
122.5374094752
  0
LINE
  5
309
100
AcDbEntity
  8
0
100
AcDbLine
 62
7
  6
CONTINUOUS
 10
88.9509541233
 20
123.5172123757
 11
88.9509541233
 21
125.5584684186
  0
LINE
  5
30A
100
AcDbEntity
  8
0
100
AcDbLine
 62
7
  6
CONTINUOUS
 10
57.9088371894
 20
144.4600404426
 11
91.8498485364
 21
164.0557755096
  0
LINE
  5
30B
100
AcDbEntity
  8
0
100
AcDbLine
 62
7
  6
CONTINUOUS
 10
130.0436385216
 20
186.1068388118
 11
156.9033743993
 21
201.6142219846
  0
LINE
  5
30C
100
AcDbEntity
  8
0
100
AcDbLine
 62
7
  6
CONTINUOUS
 10
24.6041811006
 20
124.9865957231
 11
25.5941264727
 21
125.5581375385
  0
LINE
  5
30D
100
AcDbEntity
  8
0
100
AcDbLine
 62
7
  6
CONTINUOUS
 10
61.7272297052
 20
143.0720427853
 11
94.9611191078
 21
162.2595232443
  0
LINE
  5
30E
100
AcDbEntity
  8
0
100
AcDbLine
 62
7
  6
CONTINUOUS
 10
133.154909093
 20
184.3105865465
 11
160.7217669151
 21
200.2262243273
  0
LINE
  5
30F
100
AcDbEntity
  8
0
100
AcDbLine
 62
7
  6
CONTINUOUS
 10
24.6041811006
 20
120.0875812203
 11
25.3112878817
 21
120.4958270739
  0
LINE
  5
310
100
AcDbEntity
  8
0
100
AcDbLine
 62
7
  6
CONTINUOUS
 10
29.200394314
 20
122.3330308187
 11
30.1903396861
 21
122.9045726341
  0
LINE
  5
311
100
AcDbEntity
  8
0
100
AcDbLine
 62
7
  6
CONTINUOUS
 10
63.8485588806
 20
141.8473205217
 11
97.0824482833
 21
161.0348009807
  0
LINE
  5
312
100
AcDbEntity
  8
0
100
AcDbLine
 62
7
  6
CONTINUOUS
 10
114.4576906543
 20
171.0663419607
 11
115.2903690366
 21
171.5470861792
  0
LINE
  5
313
100
AcDbEntity
  8
0
100
AcDbLine
 62
7
  6
CONTINUOUS
 10
135.2762382684
 20
183.0858642829
 11
162.8430960906
 21
199.0015020637
  0
LINE
  5
314
100
AcDbEntity
  8
0
100
AcDbLine
 62
7
  6
CONTINUOUS
 10
55.8935744727
 20
136.8053004879
 11
61.7272297052
 21
140.1733428023
  0
LINE
  5
315
100
AcDbEntity
  8
0
100
AcDbLine
 62
7
  6
CONTINUOUS
 10
163.146650745
 20
198.4757328981
 11
135.8833528228
 21
182.7353544611
  0
LINE
  5
316
100
AcDbEntity
  8
0
100
AcDbLine
 62
7
  6
CONTINUOUS
 10
97.6895628376
 20
160.6842911589
 11
64.152113535
 21
141.3215513561
  0
LINE
  5
317
100
AcDbEntity
  8
0
100
AcDbLine
 62
7
  6
CONTINUOUS
 10
64.2521139514
 20
141.2638173949
 11
97.7895580084
 21
160.6265602262
  0
LINE
  5
318
100
AcDbEntity
  8
0
100
AcDbLine
 62
7
  6
CONTINUOUS
 10
135.9833479936
 20
182.6776235284
 11
163.5502058157
 21
198.5932613092
  0
LINE
  5
319
100
AcDbEntity
  8
0
100
AcDbLine
 62
7
  6
CONTINUOUS
 10
70.9210212022
 20
106.7387573928
 11
71.3778975425
 21
107.4924843293
  0
LINE
  5
31A
100
AcDbEntity
  8
0
100
AcDbLine
 62
7
  6
CONTINUOUS
 10
32.0288332146
 20
120.7000678006
 11
33.0187785867
 21
121.271609616
  0
LINE
  5
31B
100
AcDbEntity
  8
0
100
AcDbLine
 62
7
  6
CONTINUOUS
 10
66.6769977812
 20
140.2143575036
 11
99.9108871838
 21
159.4018379627
  0
LINE
  5
31C
100
AcDbEntity
  8
0
100
AcDbLine
 62
7
  6
CONTINUOUS
 10
138.104677169
 20
181.4529012649
 11
165.6715349911
 21
197.3685390456
  0
LINE
  5
31D
100
AcDbEntity
  8
0
100
AcDbLine
 62
7
  6
CONTINUOUS
 10
29.200394314
 20
118.2505187331
 11
29.5539462326
 21
118.45464081
  0
LINE
  5
31E
100
AcDbEntity
  8
0
100
AcDbLine
 62
7
  6
CONTINUOUS
 10
66.6769977812
 20
139.3978550865
 11
100.6180091282
 21
158.9935901535
  0
LINE
  5
31F
100
AcDbEntity
  8
0
100
AcDbLine
 62
7
  6
CONTINUOUS
 10
138.8117991134
 20
181.0446534557
 11
165.6715349911
 21
196.5520366285
  0
LINE
  5
320
100
AcDbEntity
  8
0
100
AcDbLine
 62
7
  6
CONTINUOUS
 10
29.5539462326
 20
117.6381383929
 11
29.200394314
 21
117.4340163159
  0
LINE
  5
321
100
AcDbEntity
  8
0
100
AcDbLine
 62
7
  6
CONTINUOUS
 10
31.9758503887
 20
116.7093252091
 11
32.0288332146
 21
116.7399146753
  0
LINE
  5
322
100
AcDbEntity
  8
0
100
AcDbLine
 62
7
  6
CONTINUOUS
 10
70.495390297
 20
138.0098574292
 11
103.7292796996
 21
157.1973378882
  0
LINE
  5
323
100
AcDbEntity
  8
0
100
AcDbLine
 62
7
  6
CONTINUOUS
 10
141.9230696848
 20
179.2484011905
 11
169.4899275069
 21
195.1640389712
  0
LINE
  5
324
100
AcDbEntity
  8
0
100
AcDbLine
 62
7
  6
CONTINUOUS
 10
32.0288332146
 20
115.8010532978
 11
32.3823851332
 21
116.0051753748
  0
LINE
  5
325
100
AcDbEntity
  8
0
100
AcDbLine
 62
7
  6
CONTINUOUS
 10
66.6769977812
 20
135.3969932426
 11
68.586227031
 21
136.4992806841
  0
LINE
  5
326
100
AcDbEntity
  8
0
100
AcDbLine
 62
7
  6
CONTINUOUS
 10
29.200394314
 20
113.3515042303
 11
31.9580992791
 21
114.9436564304
  0
LINE
  5
327
100
AcDbEntity
  8
0
100
AcDbLine
 62
7
  6
CONTINUOUS
 10
71.7681878023
 20
137.6832752797
 11
104.6485162327
 21
156.6666284347
  0
LINE
  5
328
100
AcDbEntity
  8
0
100
AcDbLine
 62
7
  6
CONTINUOUS
 10
142.8423062179
 20
178.7176917369
 11
170.7627250122
 21
194.8374568217
  0
LINE
  5
329
100
AcDbEntity
  8
0
100
AcDbLine
 62
7
  6
CONTINUOUS
 10
37.3321561532
 20
117.6382621417
 11
38.3221015253
 21
118.2098039571
  0
LINE
  5
32A
100
AcDbEntity
  8
0
100
AcDbLine
 62
7
  6
CONTINUOUS
 10
138.3067136419
 20
175.8542622651
 11
136.8217955837
 21
174.996949542
  0
LINE
  5
32B
100
AcDbEntity
  8
0
100
AcDbLine
 62
7
  6
CONTINUOUS
 10
110.2213136643
 20
159.6392458183
 11
111.6355213387
 21
160.4557341261
  0
LINE
  5
32C
100
AcDbEntity
  8
0
100
AcDbLine
 62
7
  6
CONTINUOUS
 10
72.4752975274
 20
137.2750345251
 11
105.3556259579
 21
156.2583876802
  0
LINE
  5
32D
100
AcDbEntity
  8
0
100
AcDbLine
 62
7
  6
CONTINUOUS
 10
143.549415943
 20
178.3094509824
 11
171.4698347373
 21
194.4292160671
  0
LINE
  5
32E
100
AcDbEntity
  8
0
100
AcDbLine
 62
7
  6
CONTINUOUS
 10
82.9402476707
 20
174.0986341012
 11
81.9369246584
 21
175.9688759992
  0
LINE
  5
32F
100
AcDbEntity
  8
0
100
AcDbLine
 62
7
  6
CONTINUOUS
 10
108.3959858104
 20
191.0816304086
 11
108.3959858104
 21
188.0605714652
  0
LINE
  5
330
100
AcDbEntity
  8
0
100
AcDbLine
 62
7
  6
CONTINUOUS
 10
113.1688423672
 20
155.6878766564
 11
113.7917861484
 21
156.4363537861
  0
LINE
  5
331
100
AcDbEntity
  8
0
100
AcDbLine
 62
7
  6
CONTINUOUS
 10
72.4752975274
 20
136.8667833166
 11
105.70918693
 21
156.0542637756
  0
LINE
  5
332
100
AcDbEntity
  8
0
100
AcDbLine
 62
7
  6
CONTINUOUS
 10
143.9029769152
 20
178.1053270778
 11
171.4698347373
 21
194.0209648586
  0
LINE
  5
333
100
AcDbEntity
  8
0
100
AcDbLine
 62
7
  6
CONTINUOUS
 10
142.1250743628
 20
176.915677312
 11
143.7514131884
 21
177.8546388659
  0
LINE
  5
334
100
AcDbEntity
  8
0
100
AcDbLine
 62
7
  6
CONTINUOUS
 10
138.4481344093
 20
174.466206745
 11
141.9836535954
 21
176.5074275144
  0
LINE
  5
335
100
AcDbEntity
  8
0
100
AcDbLine
 62
7
  6
CONTINUOUS
 10
73.7480950327
 20
136.1319499584
 11
106.9819844353
 21
155.3194304175
  0
LINE
  5
336
100
AcDbEntity
  8
0
100
AcDbLine
 62
7
  6
CONTINUOUS
 10
144.4585170256
 20
176.9563874416
 11
172.7426322426
 21
193.2861315004
  0
LINE
  5
337
100
AcDbEntity
  8
0
100
AcDbLine
 62
7
  6
CONTINUOUS
 10
142.4786262814
 20
175.0785433461
 11
136.6803748163
 21
171.7309412844
  0
LINE
  5
338
100
AcDbEntity
  8
0
100
AcDbLine
 62
7
  6
CONTINUOUS
 10
40.1605950538
 20
116.0052991236
 11
41.1505404259
 21
116.5768409391
  0
LINE
  5
339
100
AcDbEntity
  8
0
100
AcDbLine
 62
7
  6
CONTINUOUS
 10
73.7480950327
 20
135.3154475413
 11
107.6891063797
 21
154.9111826083
  0
LINE
  5
33A
100
AcDbEntity
  8
0
100
AcDbLine
 62
7
  6
CONTINUOUS
 10
144.4585170256
 20
176.1398850244
 11
172.7426322426
 21
192.4696290833
  0
LINE
  5
33B
100
AcDbEntity
  8
0
100
AcDbLine
 62
7
  6
CONTINUOUS
 10
37.3321561532
 20
113.5557500561
 11
37.6857080718
 21
113.759872133
  0
LINE
  5
33C
100
AcDbEntity
  8
0
100
AcDbLine
 62
7
  6
CONTINUOUS
 10
138.4481344093
 20
171.4451478016
 11
142.4786262814
 21
173.7721394787
  0
LINE
  5
33D
100
AcDbEntity
  8
0
100
AcDbLine
 62
7
  6
CONTINUOUS
 10
37.6857080718
 20
112.9433697159
 11
37.3321561532
 21
112.7392476389
  0
LINE
  5
33E
100
AcDbEntity
  8
0
100
AcDbLine
 62
7
  6
CONTINUOUS
 10
114.110384769
 20
155.8424707779
 11
136.6803748163
 21
168.8731828244
  0
LINE
  5
33F
100
AcDbEntity
  8
0
100
AcDbLine
 62
7
  6
CONTINUOUS
 10
136.6803748163
 20
168.709882341
 11
138.4481344093
 21
169.7304927257
  0
LINE
  5
340
100
AcDbEntity
  8
0
100
AcDbLine
 62
7
  6
CONTINUOUS
 10
78.3443082461
 20
134.4581879546
 11
177.3388454561
 21
191.6123694966
  0
LINE
  5
341
100
AcDbEntity
  8
0
100
AcDbLine
 62
7
  6
CONTINUOUS
 10
77.5664875485
 20
133.927449884
 11
78.3443082461
 21
134.3765221926
  0
LINE
  5
342
100
AcDbEntity
  8
0
100
AcDbLine
 62
7
  6
CONTINUOUS
 10
40.1605950538
 20
112.0451459984
 11
40.1076122279
 21
112.0145565322
  0
LINE
  5
343
100
AcDbEntity
  8
0
100
AcDbLine
 62
7
  6
CONTINUOUS
 10
40.0898611183
 20
111.5960638316
 11
40.4081824334
 21
111.7798456315
  0
LINE
  5
344
100
AcDbEntity
  8
0
100
AcDbLine
 62
7
  6
CONTINUOUS
 10
40.1605950538
 20
111.1062846209
 11
40.5141469724
 21
111.3104066978
  0
LINE
  5
345
100
AcDbEntity
  8
0
100
AcDbLine
 62
7
  6
CONTINUOUS
 10
37.3321561532
 20
108.6567355533
 11
40.0898611183
 21
110.2488877534
  0
LINE
  5
346
100
AcDbEntity
  8
0
100
AcDbLine
 62
7
  6
CONTINUOUS
 10
110.1637454034
 20
186.0601229065
 11
110.1637454034
 21
187.0399780772
  0
LINE
  5
347
100
AcDbEntity
  8
0
100
AcDbLine
 62
7
  6
CONTINUOUS
 10
111.2246366766
 20
157.7690039204
 11
111.2246366766
 21
153.4415411096
  0
LINE
  5
348
100
AcDbEntity
  8
0
100
AcDbLine
 62
7
  6
CONTINUOUS
 10
113.6992645895
 20
192.8370576952
 11
113.6992645895
 21
193.0003581786
  0
LINE
  5
349
100
AcDbEntity
  8
0
100
AcDbLine
 62
7
  6
CONTINUOUS
 10
114.110384769
 20
155.8424707779
 11
113.4711724962
 21
155.1243188915
  0
LINE
  5
34A
100
AcDbEntity
  8
0
100
AcDbLine
 62
7
  6
CONTINUOUS
 10
45.4639179924
 20
112.9434934647
 11
46.4538633645
 21
113.5150352802
  0
LINE
  5
34B
100
AcDbEntity
  8
0
100
AcDbLine
 62
7
  6
CONTINUOUS
 10
79.7585276964
 20
130.0490958102
 11
81.4556203629
 21
131.0289068694
  0
LINE
  5
34C
100
AcDbEntity
  8
0
100
AcDbLine
 62
7
  6
CONTINUOUS
 10
73.924872464
 20
126.3951612477
 11
81.7032138522
 21
130.8859619356
  0
LINE
  5
34D
100
AcDbEntity
  8
0
100
AcDbLine
 62
7
  6
CONTINUOUS
 10
48.292356893
 20
111.3105304467
 11
49.2823022651
 21
111.8820722621
  0
LINE
  5
34E
100
AcDbEntity
  8
0
100
AcDbLine
 62
7
  6
CONTINUOUS
 10
45.4639179924
 20
108.8609813791
 11
45.817469911
 21
109.065103456
  0
LINE
  5
34F
100
AcDbEntity
  8
0
100
AcDbLine
 62
7
  6
CONTINUOUS
 10
45.817469911
 20
108.2486010389
 11
45.4639179924
 21
108.044478962
  0
LINE
  5
350
100
AcDbEntity
  8
0
100
AcDbLine
 62
7
  6
CONTINUOUS
 10
70.9210697575
 20
122.4156318349
 11
53.8785154785
 21
112.5761672679
  0
LINE
  5
351
100
AcDbEntity
  8
0
100
AcDbLine
 62
7
  6
CONTINUOUS
 10
185.9009779912
 20
186.6691318036
 11
86.9064407812
 21
129.5149502616
  0
LINE
  5
352
100
AcDbEntity
  8
0
100
AcDbLine
 62
7
  6
CONTINUOUS
 10
82.9402476707
 20
169.1996195985
 11
110.7296513155
 21
153.155762884
  0
LINE
  5
353
100
AcDbEntity
  8
0
100
AcDbLine
 62
7
  6
CONTINUOUS
 10
110.2213136643
 20
159.6392458183
 11
111.2246366766
 21
157.7690039204
  0
LINE
  5
354
100
AcDbEntity
  8
0
100
AcDbLine
 62
7
  6
CONTINUOUS
 10
113.4711724962
 20
155.1243188915
 11
113.1688423672
 21
155.6878766564
  0
LINE
  5
355
100
AcDbEntity
  8
0
100
AcDbLine
 62
7
  6
CONTINUOUS
 10
48.5399442726
 20
107.0850769545
 11
48.2216229575
 21
106.9012951546
  0
LINE
  5
356
100
AcDbEntity
  8
0
100
AcDbLine
 62
7
  6
CONTINUOUS
 10
48.2393679576
 20
106.5032960201
 11
48.6459088116
 21
106.7380110905
  0
LINE
  5
357
100
AcDbEntity
  8
0
100
AcDbLine
 62
7
  6
CONTINUOUS
 10
48.292356893
 20
106.4115159439
 11
48.6459088116
 21
106.6156380208
  0
LINE
  5
358
100
AcDbEntity
  8
0
100
AcDbLine
 62
7
  6
CONTINUOUS
 10
74.0309748391
 20
120.863465743
 11
61.6566576879
 21
113.7191930503
  0
LINE
  5
359
100
AcDbEntity
  8
0
100
AcDbLine
 62
7
  6
CONTINUOUS
 10
52.8885701064
 20
108.6569655423
 11
53.8785154785
 21
109.2285073577
  0
LINE
  5
35A
100
AcDbEntity
  8
0
100
AcDbLine
 62
7
  6
CONTINUOUS
 10
45.4639179924
 20
103.9619668763
 11
48.2216229575
 21
105.5541190764
  0
LINE
  5
35B
100
AcDbEntity
  8
0
100
AcDbLine
 62
7
  6
CONTINUOUS
 10
77.9907769353
 20
120.2919358253
 11
66.6064051561
 21
113.719204948
  0
LINE
  5
35C
100
AcDbEntity
  8
0
100
AcDbLine
 62
7
  6
CONTINUOUS
 10
88.9509541233
 20
126.5382713191
 11
187.9454913333
 21
183.6924528611
  0
LINE
  5
35D
100
AcDbEntity
  8
0
100
AcDbLine
 62
7
  6
CONTINUOUS
 10
88.7388212058
 20
125.6809406449
 11
187.7333584157
 21
182.8351221869
  0
LINE
  5
35E
100
AcDbEntity
  8
0
100
AcDbLine
 62
7
  6
CONTINUOUS
 10
88.9509541233
 20
125.5584684186
 11
187.9454913333
 21
182.7126499606
  0
LINE
  5
35F
100
AcDbEntity
  8
0
100
AcDbLine
 62
7
  6
CONTINUOUS
 10
61.6566576879
 20
109.6366809646
 11
52.8885701064
 21
104.5744534566
  0
LINE
  5
360
100
AcDbEntity
  8
0
100
AcDbLine
 62
7
  6
CONTINUOUS
 10
52.8885671625
 20
104.1661934937
 11
61.3031028253
 21
109.0242989248
  0
LINE
  5
361
100
AcDbEntity
  8
0
100
AcDbLine
 62
7
  6
CONTINUOUS
 10
52.8885701064
 20
103.7579510395
 11
61.6566576879
 21
108.8201785475
  0
LINE
  5
362
100
AcDbEntity
  8
0
100
AcDbLine
 62
7
  6
CONTINUOUS
 10
88.9509541233
 20
123.5172123757
 11
187.9454913333
 21
180.6713939177
  0
LINE
  5
363
100
AcDbEntity
  8
0
100
AcDbLine
 62
7
  6
CONTINUOUS
 10
88.7388212058
 20
122.6598817015
 11
187.7333584157
 21
179.8140632435
  0
LINE
  5
364
100
AcDbEntity
  8
0
100
AcDbLine
 62
7
  6
CONTINUOUS
 10
88.9509541233
 20
122.5374094752
 11
187.9454913333
 21
179.6915910172
  0
LINE
  5
365
100
AcDbEntity
  8
0
100
AcDbLine
 62
7
  6
CONTINUOUS
 10
114.110384769
 20
155.8424707779
 11
113.5613320048
 21
156.1594593678
  0
LINE
  5
366
100
AcDbEntity
  8
0
100
AcDbLine
 62
7
  6
CONTINUOUS
 10
111.2246366766
 20
157.7690039204
 11
82.9402476707
 21
174.0986341012
  0
LINE
  5
367
100
AcDbEntity
  8
0
100
AcDbLine
 62
7
  6
CONTINUOUS
 10
110.2213136643
 20
159.6392458183
 11
81.9369246584
 21
175.9688759992
  0
LINE
  5
368
100
AcDbEntity
  8
0
100
AcDbLine
 62
7
  6
CONTINUOUS
 10
111.6355213387
 20
160.4557341261
 11
83.3511323329
 21
176.7853643069
  0
LINE
  5
369
100
AcDbEntity
  8
0
100
AcDbLine
 62
7
  6
CONTINUOUS
 10
113.7917861484
 20
156.4363537861
 11
111.6355213387
 21
160.4557341261
  0
LINE
  5
36A
100
AcDbEntity
  8
0
100
AcDbLine
 62
7
  6
CONTINUOUS
 10
88.9509541233
 20
120.4961534324
 11
187.9454913333
 21
177.6503349744
  0
LINE
  5
36B
100
AcDbEntity
  8
0
100
AcDbLine
 62
7
  6
CONTINUOUS
 10
52.8885701064
 20
99.6754389538
 11
53.8785154785
 21
100.2469807693
  0
LINE
  5
36C
100
AcDbEntity
  8
0
100
AcDbLine
 62
7
  6
CONTINUOUS
 10
88.7388212058
 20
119.6388227582
 11
187.7333584157
 21
176.7930043002
  0
LINE
  5
36D
100
AcDbEntity
  8
0
100
AcDbLine
 62
7
  6
CONTINUOUS
 10
88.9509541233
 20
119.5163505318
 11
187.9454913333
 21
176.6705320738
  0
LINE
  5
36E
100
AcDbEntity
  8
0
100
AcDbLine
 62
7
  6
CONTINUOUS
 10
77.9907769353
 20
111.3104092369
 11
66.6064051561
 21
104.7376783596
  0
LINE
  5
36F
100
AcDbEntity
  8
0
100
AcDbLine
 62
7
  6
CONTINUOUS
 10
88.9509541233
 20
117.475094489
 11
187.9454913333
 21
174.629276031
  0
LINE
  5
370
100
AcDbEntity
  8
0
100
AcDbLine
 62
7
  6
CONTINUOUS
 10
190.7739066821
 20
176.0173019213
 11
187.9454913333
 21
174.3843253058
  0
LINE
  5
371
100
AcDbEntity
  8
0
100
AcDbLine
 62
7
  6
CONTINUOUS
 10
88.9509541233
 20
117.2301437638
 11
86.1225387745
 21
115.5971671484
  0
LINE
  5
372
100
AcDbEntity
  8
0
100
AcDbLine
 62
7
  6
CONTINUOUS
 10
70.9210312145
 20
106.7387631733
 11
53.8785154785
 21
96.899320859
  0
LINE
  5
373
100
AcDbEntity
  8
0
100
AcDbLine
 62
7
  6
CONTINUOUS
 10
88.9509541233
 20
116.7402380808
 11
187.7333584157
 21
173.7719453568
  0
LINE
  5
374
100
AcDbEntity
  8
0
100
AcDbLine
 62
7
  6
CONTINUOUS
 10
88.9509541233
 20
116.4952915884
 11
187.9454913333
 21
173.6494731304
  0
LINE
  5
375
100
AcDbEntity
  8
0
100
AcDbLine
 62
7
  6
CONTINUOUS
 10
64.7324460371
 20
101.4917016226
 11
68.2679946628
 21
103.5329393889
  0
LINE
  5
376
100
AcDbEntity
  8
0
100
AcDbLine
 62
7
  6
CONTINUOUS
 10
88.9509541233
 20
114.4540355456
 11
187.9454913333
 21
171.6082170876
  0
LINE
  5
377
100
AcDbEntity
  8
0
100
AcDbLine
 62
7
  6
CONTINUOUS
 10
142.4786262814
 20
175.0785433461
 11
142.8786108176
 21
175.1181506244
  0
LINE
  5
378
100
AcDbEntity
  8
0
100
AcDbLine
 62
7
  6
CONTINUOUS
 10
88.9509541233
 20
113.7191791374
 11
187.7333584157
 21
170.7508864134
  0
LINE
  5
379
100
AcDbEntity
  8
0
100
AcDbLine
 62
7
  6
CONTINUOUS
 10
88.9509541233
 20
113.474232645
 11
187.9454913333
 21
170.6284141871
  0
LINE
  5
37A
100
AcDbEntity
  8
0
100
AcDbLine
 62
7
  6
CONTINUOUS
 10
88.9509541233
 20
111.4329766022
 11
187.9454913333
 21
168.5871581442
  0
LINE
  5
37B
100
AcDbEntity
  8
0
100
AcDbLine
 62
7
  6
CONTINUOUS
 10
88.9509541233
 20
110.698120194
 11
187.7333584157
 21
167.72982747
  0
LINE
  5
37C
100
AcDbEntity
  8
0
100
AcDbLine
 62
7
  6
CONTINUOUS
 10
88.9509541233
 20
110.4531737017
 11
187.9454913333
 21
167.6073552437
  0
LINE
  5
37D
100
AcDbEntity
  8
0
100
AcDbLine
 62
7
  6
CONTINUOUS
 10
69.3286592505
 20
98.8381367183
 11
72.8642078762
 21
100.8793744845
  0
LINE
  5
37E
100
AcDbEntity
  8
0
100
AcDbLine
 62
7
  6
CONTINUOUS
 10
88.9509541233
 20
108.4119176588
 11
187.9454913333
 21
165.5660992009
  0
LINE
  5
37F
100
AcDbEntity
  8
0
100
AcDbLine
 62
7
  6
CONTINUOUS
 10
190.7739066821
 20
167.0357753329
 11
187.9454913333
 21
165.4027987174
  0
LINE
  5
380
100
AcDbEntity
  8
0
100
AcDbLine
 62
7
  6
CONTINUOUS
 10
88.9509541233
 20
108.2486171754
 11
86.1225387745
 21
106.6156405599
  0
LINE
  5
381
100
AcDbEntity
  8
0
100
AcDbLine
 62
7
  6
CONTINUOUS
 10
88.7388212058
 20
107.5545869846
 11
187.7333584157
 21
164.7087685267
  0
LINE
  5
382
100
AcDbEntity
  8
0
100
AcDbLine
 62
7
  6
CONTINUOUS
 10
88.9509541233
 20
107.4321147583
 11
187.9454913333
 21
164.5862963003
  0
LINE
  5
383
100
AcDbEntity
  8
0
100
AcDbLine
 62
7
  6
CONTINUOUS
 10
144.2513938586
 20
177.9041479637
 11
143.7514131884
 21
177.8546388659
  0
LINE
  5
384
100
AcDbEntity
  8
0
100
AcDbLine
 62
7
  6
CONTINUOUS
 10
136.6803748163
 20
174.7520002278
 11
136.6803748163
 21
171.7309412844
  0
LINE
  5
385
100
AcDbEntity
  8
0
100
AcDbLine
 62
7
  6
CONTINUOUS
 10
136.6803748163
 20
168.8731828244
 11
136.6803748163
 21
168.709882341
  0
LINE
  5
386
100
AcDbEntity
  8
0
100
AcDbLine
 62
7
  6
CONTINUOUS
 10
138.4481344093
 20
175.7726106124
 11
138.4481344093
 21
174.466206745
  0
LINE
  5
387
100
AcDbEntity
  8
0
100
AcDbLine
 62
7
  6
CONTINUOUS
 10
138.4481344093
 20
169.7304927257
 11
138.4481344093
 21
171.4451478016
  0
LINE
  5
388
100
AcDbEntity
  8
0
100
AcDbLine
 62
7
  6
CONTINUOUS
 10
141.9836535954
 20
176.5074275144
 11
141.9836535954
 21
176.6707279978
  0
LINE
  5
389
100
AcDbEntity
  8
0
100
AcDbLine
 62
7
  6
CONTINUOUS
 10
88.9509541233
 20
105.3908587155
 11
187.9454913333
 21
162.5450402575
  0
LINE
  5
38A
100
AcDbEntity
  8
0
100
AcDbLine
 62
7
  6
CONTINUOUS
 10
73.924872464
 20
96.1845718139
 11
77.4604210897
 21
98.2258095801
  0
LINE
  5
38B
100
AcDbEntity
  8
0
100
AcDbLine
 62
7
  6
CONTINUOUS
 10
88.7388212058
 20
104.5335280413
 11
187.7333584157
 21
161.6877095833
  0
LINE
  5
38C
100
AcDbEntity
  8
0
100
AcDbLine
 62
7
  6
CONTINUOUS
 10
88.9509541233
 20
104.4110558149
 11
187.9454913333
 21
161.5652373569
  0
LINE
  5
38D
100
AcDbEntity
  8
0
100
AcDbLine
 62
7
  6
CONTINUOUS
 10
88.9509541233
 20
102.3697997721
 11
187.9454913333
 21
159.5239813141
  0
LINE
  5
38E
100
AcDbEntity
  8
0
100
AcDbLine
 62
7
  6
CONTINUOUS
 10
88.7388212058
 20
101.5124690979
 11
187.7333584157
 21
158.6666506399
  0
LINE
  5
38F
100
AcDbEntity
  8
0
100
AcDbLine
 62
7
  6
CONTINUOUS
 10
88.9509541233
 20
101.3899968715
 11
187.9454913333
 21
158.5441784135
  0
LINE
  5
390
100
AcDbEntity
  8
0
100
AcDbLine
 62
7
  6
CONTINUOUS
 10
78.5210856774
 20
93.5310069095
 11
82.0566343032
 21
95.5722446758
  0
LINE
  5
391
100
AcDbEntity
  8
0
100
AcDbLine
 62
7
  6
CONTINUOUS
 10
88.9509541233
 20
99.3487408287
 11
187.9454913333
 21
156.5029223707
  0
LINE
  5
392
100
AcDbEntity
  8
0
100
AcDbLine
 62
7
  6
CONTINUOUS
 10
88.7388212058
 20
98.4914101545
 11
187.7333584157
 21
155.6455916965
  0
LINE
  5
393
100
AcDbEntity
  8
0
100
AcDbLine
 62
7
  6
CONTINUOUS
 10
88.9509541233
 20
98.3689379281
 11
187.9454913333
 21
155.5231194702
  0
LINE
  5
394
100
AcDbEntity
  8
0
100
AcDbLine
 62
7
  6
CONTINUOUS
 10
108.3959858104
 20
185.2028130052
 11
136.6803748163
 21
168.8731828244
  0
LINE
  5
395
100
AcDbEntity
  8
0
100
AcDbLine
 62
7
  6
CONTINUOUS
 10
110.1637454034
 20
186.0601229065
 11
138.4481344093
 21
169.7304927257
  0
LINE
  5
396
100
AcDbEntity
  8
0
100
AcDbLine
 62
7
  6
CONTINUOUS
 10
108.3959858104
 20
188.0605714652
 11
136.6803748163
 21
171.7309412844
  0
LINE
  5
397
100
AcDbEntity
  8
0
100
AcDbLine
 62
7
  6
CONTINUOUS
 10
137.3167392983
 20
172.0983442963
 11
138.4481344093
 21
171.4451478016
  0
LINE
  5
398
100
AcDbEntity
  8
0
100
AcDbLine
 62
7
  6
CONTINUOUS
 10
108.3959858104
 20
191.0816304086
 11
136.6803748163
 21
174.7520002278
  0
LINE
  5
399
100
AcDbEntity
  8
0
100
AcDbLine
 62
7
  6
CONTINUOUS
 10
144.4585170256
 20
177.4463806027
 11
144.4585170256
 21
172.8739670667
  0
LINE
  5
39A
100
AcDbEntity
  8
0
100
AcDbLine
 62
7
  6
CONTINUOUS
 10
149.0544564502
 20
206.9621967769
 11
149.0544564502
 21
207.9419996774
  0
LINE
  5
39B
100
AcDbEntity
  8
0
100
AcDbLine
 62
7
  6
CONTINUOUS
 10
149.8322771479
 20
205.6966295298
 11
149.8322771479
 21
206.5131319469
  0
LINE
  5
39C
100
AcDbEntity
  8
0
100
AcDbLine
 62
7
  6
CONTINUOUS
 10
88.9509541233
 20
96.3276818853
 11
187.9454913333
 21
153.4818634273
  0
LINE
  5
39D
100
AcDbEntity
  8
0
100
AcDbLine
 62
7
  6
CONTINUOUS
 10
88.7388212058
 20
95.4703512111
 11
187.7333584157
 21
152.6245327531
  0
LINE
  5
39E
100
AcDbEntity
  8
0
100
AcDbLine
 62
7
  6
CONTINUOUS
 10
88.9509541233
 20
95.3478789848
 11
187.9454913333
 21
152.5020605268
  0
LINE
  5
39F
100
AcDbEntity
  8
0
100
AcDbLine
 62
7
  6
CONTINUOUS
 10
83.1172988909
 20
90.8774420051
 11
86.6528475166
 21
92.9186797714
  0
LINE
  5
3A0
100
AcDbEntity
  8
0
100
AcDbLine
 62
7
  6
CONTINUOUS
 10
88.9509541233
 20
93.3066229419
 11
187.9454913333
 21
150.460804484
  0
LINE
  5
3A1
100
AcDbEntity
  8
0
100
AcDbLine
 62
7
  6
CONTINUOUS
 10
88.7388212058
 20
92.4492922677
 11
187.7333584157
 21
149.6034738098
  0
LINE
  5
3A2
100
AcDbEntity
  8
0
100
AcDbLine
 62
7
  6
CONTINUOUS
 10
88.9509541233
 20
92.3268200414
 11
187.9454913333
 21
149.4810015834
  0
LINE
  5
3A3
100
AcDbEntity
  8
0
100
AcDbLine
 62
7
  6
CONTINUOUS
 10
136.8217955837
 20
174.996949542
 11
108.5374065778
 21
191.3265797228
  0
LINE
  5
3A4
100
AcDbEntity
  8
0
100
AcDbLine
 62
7
  6
CONTINUOUS
 10
187.7333584157
 20
146.5824148664
 11
187.9454913333
 21
146.45994264
  0
LINE
  5
3A5
100
AcDbEntity
  8
0
100
AcDbLine
 62
7
  6
CONTINUOUS
 10
110.022324636
 20
192.1838924459
 11
138.3067136419
 21
175.8542622651
  0
LINE
  5
3A6
100
AcDbEntity
  8
0
100
AcDbLine
 62
7
  6
CONTINUOUS
 10
110.1223229393
 20
192.1937980228
 11
138.4067119452
 21
175.864167842
  0
LINE
  5
3A7
100
AcDbEntity
  8
0
100
AcDbLine
 62
7
  6
CONTINUOUS
 10
141.3472311704
 20
174.4253359733
 11
142.4786262814
 21
173.7721394787
  0
LINE
  5
3A8
100
AcDbEntity
  8
0
100
AcDbLine
 62
7
  6
CONTINUOUS
 10
187.7333584157
 20
149.6034738098
 11
187.9454913333
 21
149.4810015834
  0
LINE
  5
3A9
100
AcDbEntity
  8
0
100
AcDbLine
 62
7
  6
CONTINUOUS
 10
113.6992645895
 20
192.8370576952
 11
141.9836535954
 21
176.5074275144
  0
LINE
  5
3AA
100
AcDbEntity
  8
0
100
AcDbLine
 62
7
  6
CONTINUOUS
 10
113.6992645895
 20
193.0003581786
 11
141.9836535954
 21
176.6707279978
  0
LINE
  5
3AB
100
AcDbEntity
  8
0
100
AcDbLine
 62
7
  6
CONTINUOUS
 10
142.1250743628
 20
176.915677312
 11
113.8406853569
 21
193.2453074928
  0
LINE
  5
3AC
100
AcDbEntity
  8
0
100
AcDbLine
 62
7
  6
CONTINUOUS
 10
115.4670241825
 20
194.1842690467
 11
143.7514131884
 21
177.8546388659
  0
LINE
  5
3AD
100
AcDbEntity
  8
0
100
AcDbLine
 62
7
  6
CONTINUOUS
 10
187.7333584157
 20
152.6245327531
 11
187.9454913333
 21
152.5020605268
  0
LINE
  5
3AE
100
AcDbEntity
  8
0
100
AcDbLine
 62
7
  6
CONTINUOUS
 10
144.2514047049
 20
177.9041667505
 11
115.967015699
 21
194.2337969313
  0
LINE
  5
3AF
100
AcDbEntity
  8
0
100
AcDbLine
 62
7
  6
CONTINUOUS
 10
142.8786108176
 20
175.1181506244
 11
143.0443093512
 21
174.7519367355
  0
LINE
  5
3B0
100
AcDbEntity
  8
0
100
AcDbLine
 62
7
  6
CONTINUOUS
 10
155.6305768941
 20
203.5738089684
 11
155.6305768941
 21
203.1655577598
  0
LINE
  5
3B1
100
AcDbEntity
  8
0
100
AcDbLine
 62
7
  6
CONTINUOUS
 10
156.9033743993
 20
201.6142219846
 11
156.9033743993
 21
202.4307244017
  0
LINE
  5
3B2
100
AcDbEntity
  8
0
100
AcDbLine
 62
7
  6
CONTINUOUS
 10
88.9509541233
 20
90.2855639986
 11
187.9454913333
 21
147.4397455406
  0
LINE
  5
3B3
100
AcDbEntity
  8
0
100
AcDbLine
 62
7
  6
CONTINUOUS
 10
88.7388212058
 20
89.4282333244
 11
187.7333584157
 21
146.5824148664
  0
LINE
  5
3B4
100
AcDbEntity
  8
0
100
AcDbLine
 62
7
  6
CONTINUOUS
 10
88.9509541233
 20
89.305761098
 11
187.9454913333
 21
146.45994264
  0
LINE
  5
3B5
100
AcDbEntity
  8
0
100
AcDbLine
 62
7
  6
CONTINUOUS
 10
88.9509541233
 20
87.5094557803
 11
187.9454913333
 21
144.6636373223
  0
LINE
  5
3B6
100
AcDbEntity
  8
0
100
AcDbLine
 62
7
  6
CONTINUOUS
 10
115.4670241825
 20
194.1842690467
 11
115.9670048527
 21
194.2337781445
  0
LINE
  5
3B7
100
AcDbEntity
  8
0
100
AcDbLine
 62
7
  6
CONTINUOUS
 10
187.7333584157
 20
155.6455916965
 11
187.9454913333
 21
155.5231194702
  0
LINE
  5
3B8
100
AcDbEntity
  8
0
100
AcDbLine
 62
7
  6
CONTINUOUS
 10
187.7333584157
 20
158.6666506399
 11
187.9454913333
 21
158.5441784135
  0
LINE
  5
3B9
100
AcDbEntity
  8
0
100
AcDbLine
 62
7
  6
CONTINUOUS
 10
144.4585170256
 20
177.4463806027
 11
144.2513938586
 21
177.9041479637
  0
LINE
  5
3BA
100
AcDbEntity
  8
0
100
AcDbLine
 62
7
  6
CONTINUOUS
 10
187.7333584157
 20
161.6877095833
 11
187.9454913333
 21
161.5652373569
  0
LINE
  5
3BB
100
AcDbEntity
  8
0
100
AcDbLine
 62
7
  6
CONTINUOUS
 10
187.7333584157
 20
164.7087685267
 11
187.9454913333
 21
164.5862963003
  0
LINE
  5
3BC
100
AcDbEntity
  8
0
100
AcDbLine
 62
7
  6
CONTINUOUS
 10
187.9454913333
 20
165.4027987174
 11
187.8040669444
 21
165.4844482793
  0
LINE
  5
3BD
100
AcDbEntity
  8
0
100
AcDbLine
 62
7
  6
CONTINUOUS
 10
187.9454913333
 20
167.6073552437
 11
187.7333584157
 21
167.72982747
  0
LINE
  5
3BE
100
AcDbEntity
  8
0
100
AcDbLine
 62
7
  6
CONTINUOUS
 10
165.6715349911
 20
196.5520366285
 11
165.6715349911
 21
197.3685390456
  0
LINE
  5
3BF
100
AcDbEntity
  8
0
100
AcDbLine
 62
7
  6
CONTINUOUS
 10
187.9454913333
 20
170.6284141871
 11
187.7333584157
 21
170.7508864134
  0
LINE
  5
3C0
100
AcDbEntity
  8
0
100
AcDbLine
 62
7
  6
CONTINUOUS
 10
187.9454913333
 20
173.6494731304
 11
187.7333584157
 21
173.7719453568
  0
LINE
  5
3C1
100
AcDbEntity
  8
0
100
AcDbLine
 62
7
  6
CONTINUOUS
 10
187.7333584157
 20
174.5067975322
 11
187.9454913333
 21
174.3843253058
  0
LINE
  5
3C2
100
AcDbEntity
  8
0
100
AcDbLine
 62
7
  6
CONTINUOUS
 10
187.7333584157
 20
176.7930043002
 11
187.9454913333
 21
176.6705320738
  0
LINE
  5
3C3
100
AcDbEntity
  8
0
100
AcDbLine
 62
7
  6
CONTINUOUS
 10
171.4698347373
 20
194.4292160671
 11
171.4698347373
 21
194.0209648586
  0
LINE
  5
3C4
100
AcDbEntity
  8
0
100
AcDbLine
 62
7
  6
CONTINUOUS
 10
172.7426322426
 20
192.4696290833
 11
172.7426322426
 21
193.2861315004
  0
LINE
  5
3C5
100
AcDbEntity
  8
0
100
AcDbLine
 62
7
  6
CONTINUOUS
 10
187.9454551199
 20
177.6502722495
 11
190.7739066821
 21
176.0173019213
  0
LINE
  5
3C6
100
AcDbEntity
  8
0
100
AcDbLine
 62
7
  6
CONTINUOUS
 10
187.7333584157
 20
179.8140632435
 11
187.9454913333
 21
179.6915910172
  0
LINE
  5
3C7
100
AcDbEntity
  8
0
100
AcDbLine
 62
7
  6
CONTINUOUS
 10
187.7333584157
 20
182.8351221869
 11
187.9454913333
 21
182.7126499606
  0
LINE
  5
3C8
100
AcDbEntity
  8
0
100
AcDbLine
 62
7
  6
CONTINUOUS
 10
175.7831771784
 20
190.714209359
 11
172.7426322426
 21
192.4696290833
  0
LINE
  5
3C9
100
AcDbEntity
  8
0
100
AcDbLine
 62
7
  6
CONTINUOUS
 10
168.7828055626
 20
194.7557843632
 11
165.6715349911
 21
196.5520366285
  0
LINE
  5
3CA
100
AcDbEntity
  8
0
100
AcDbLine
 62
7
  6
CONTINUOUS
 10
160.0146449707
 20
199.8179697193
 11
156.9033743993
 21
201.6142219846
  0
LINE
  5
3CB
100
AcDbEntity
  8
0
100
AcDbLine
 62
7
  6
CONTINUOUS
 10
152.9435477193
 20
203.9003772645
 11
149.8322771479
 21
205.6966295298
  0
LINE
  5
3CC
100
AcDbEntity
  8
0
100
AcDbLine
 62
7
  6
CONTINUOUS
 10
172.7426322426
 20
193.2861315004
 11
171.4698347373
 21
194.0209648586
  0
LINE
  5
3CD
100
AcDbEntity
  8
0
100
AcDbLine
 62
7
  6
CONTINUOUS
 10
170.40916404
 20
194.6333295177
 11
169.4899275069
 21
195.1640389712
  0
LINE
  5
3CE
100
AcDbEntity
  8
0
100
AcDbLine
 62
7
  6
CONTINUOUS
 10
165.6715349911
 20
197.3685390456
 11
163.5502058157
 21
198.5932613092
  0
LINE
  5
3CF
100
AcDbEntity
  8
0
100
AcDbLine
 62
7
  6
CONTINUOUS
 10
162.8430960906
 20
199.0015020637
 11
160.7217669151
 21
200.2262243273
  0
LINE
  5
3D0
100
AcDbEntity
  8
0
100
AcDbLine
 62
7
  6
CONTINUOUS
 10
156.9033743993
 20
202.4307244017
 11
155.6305768941
 21
203.1655577598
  0
LINE
  5
3D1
100
AcDbEntity
  8
0
100
AcDbLine
 62
7
  6
CONTINUOUS
 10
154.5699061967
 20
203.7779224189
 11
153.6506696636
 21
204.3086318725
  0
LINE
  5
3D2
100
AcDbEntity
  8
0
100
AcDbLine
 62
7
  6
CONTINUOUS
 10
149.8322771479
 20
206.5131319469
 11
149.0544564502
 21
206.9621967769
  0
LINE
  5
3D3
100
AcDbEntity
  8
0
100
AcDbLine
 62
7
  6
CONTINUOUS
 10
154.9234671689
 20
203.9820497229
 11
155.6305768941
 21
203.5738089684
  0
LINE
  5
3D4
100
AcDbEntity
  8
0
100
AcDbLine
 62
7
  6
CONTINUOUS
 10
170.7627250122
 20
194.8374568217
 11
171.4698347373
 21
194.4292160671
  0
LINE
  5
3D5
100
AcDbEntity
  8
0
100
AcDbLine
 62
7
  6
CONTINUOUS
 10
185.9009779912
 20
186.6691318036
 11
177.3388454561
 21
191.6123694966
  0
LINE
  5
3D6
100
AcDbEntity
  8
0
100
AcDbLine
 62
7
  6
CONTINUOUS
 10
149.0544564502
 20
207.9419996774
 11
140.4923239151
 21
212.8852373704
  0
LINE
  5
3D7
100
AcDbEntity
  8
0
100
AcDbLine
 62
7
  6
CONTINUOUS
 10
162.8430960906
 20
199.0015020637
 11
163.146650745
 21
198.4757328981
  0
LINE
  5
3D8
100
AcDbEntity
  8
0
100
AcDbLine
 62
7
  6
CONTINUOUS
 10
187.7333584157
 20
183.5699785952
 11
187.7333584157
 21
182.8351221869
  0
LINE
  5
3D9
100
AcDbEntity
  8
0
100
AcDbLine
 62
7
  6
CONTINUOUS
 10
187.7333584157
 20
180.5489196518
 11
187.7333584157
 21
179.8140632435
  0
LINE
  5
3DA
100
AcDbEntity
  8
0
100
AcDbLine
 62
7
  6
CONTINUOUS
 10
187.7333584157
 20
177.5278607084
 11
187.7333584157
 21
176.7930043002
  0
LINE
  5
3DB
100
AcDbEntity
  8
0
100
AcDbLine
 62
7
  6
CONTINUOUS
 10
187.7333584157
 20
174.5067975322
 11
187.7333584157
 21
173.7719453568
  0
LINE
  5
3DC
100
AcDbEntity
  8
0
100
AcDbLine
 62
7
  6
CONTINUOUS
 10
187.7333584157
 20
171.4857428216
 11
187.7333584157
 21
170.7508864134
  0
LINE
  5
3DD
100
AcDbEntity
  8
0
100
AcDbLine
 62
7
  6
CONTINUOUS
 10
187.7333584157
 20
168.4646838783
 11
187.7333584157
 21
167.72982747
  0
LINE
  5
3DE
100
AcDbEntity
  8
0
100
AcDbLine
 62
7
  6
CONTINUOUS
 10
187.7333584157
 20
165.4436249349
 11
187.7333584157
 21
164.7087685267
  0
LINE
  5
3DF
100
AcDbEntity
  8
0
100
AcDbLine
 62
7
  6
CONTINUOUS
 10
187.7333584157
 20
162.4225659915
 11
187.7333584157
 21
161.6877095833
  0
LINE
  5
3E0
100
AcDbEntity
  8
0
100
AcDbLine
 62
7
  6
CONTINUOUS
 10
187.7333584157
 20
159.4015070481
 11
187.7333584157
 21
158.6666506399
  0
LINE
  5
3E1
100
AcDbEntity
  8
0
100
AcDbLine
 62
7
  6
CONTINUOUS
 10
187.7333584157
 20
156.3804481047
 11
187.7333584157
 21
155.6455916965
  0
LINE
  5
3E2
100
AcDbEntity
  8
0
100
AcDbLine
 62
7
  6
CONTINUOUS
 10
187.7333584157
 20
153.3593891614
 11
187.7333584157
 21
152.6245327531
  0
LINE
  5
3E3
100
AcDbEntity
  8
0
100
AcDbLine
 62
7
  6
CONTINUOUS
 10
187.7333584157
 20
150.338330218
 11
187.7333584157
 21
149.6034738098
  0
LINE
  5
3E4
100
AcDbEntity
  8
0
100
AcDbLine
 62
7
  6
CONTINUOUS
 10
187.7333584157
 20
147.3172712746
 11
187.7333584157
 21
146.5824148664
  0
LINE
  5
3E5
100
AcDbEntity
  8
0
100
AcDbLine
 62
7
  6
CONTINUOUS
 10
187.9454913333
 20
174.3843253058
 11
187.9454913333
 21
173.6494731304
  0
LINE
  5
3E6
100
AcDbEntity
  8
0
100
AcDbLine
 62
7
  6
CONTINUOUS
 10
187.9454913333
 20
171.6082170876
 11
187.9454913333
 21
170.6284141871
  0
LINE
  5
3E7
100
AcDbEntity
  8
0
100
AcDbLine
 62
7
  6
CONTINUOUS
 10
187.9454913333
 20
168.5871581442
 11
187.9454913333
 21
167.6073552437
  0
LINE
  5
3E8
100
AcDbEntity
  8
0
100
AcDbLine
 62
7
  6
CONTINUOUS
 10
187.9454913333
 20
165.5660992009
 11
187.9454913333
 21
165.4027987174
  0
LINE
  5
3E9
100
AcDbEntity
  8
0
100
AcDbLine
 62
7
  6
CONTINUOUS
 10
187.9454913333
 20
144.6636373223
 11
187.9454913333
 21
146.45994264
  0
LINE
  5
3EA
100
AcDbEntity
  8
0
100
AcDbLine
 62
7
  6
CONTINUOUS
 10
187.9454913333
 20
147.4397455406
 11
187.9454913333
 21
149.4810015834
  0
LINE
  5
3EB
100
AcDbEntity
  8
0
100
AcDbLine
 62
7
  6
CONTINUOUS
 10
187.9454913333
 20
150.460804484
 11
187.9454913333
 21
152.5020605268
  0
LINE
  5
3EC
100
AcDbEntity
  8
0
100
AcDbLine
 62
7
  6
CONTINUOUS
 10
187.9454913333
 20
153.4818634273
 11
187.9454913333
 21
155.5231194702
  0
LINE
  5
3ED
100
AcDbEntity
  8
0
100
AcDbLine
 62
7
  6
CONTINUOUS
 10
187.9454913333
 20
156.5029223707
 11
187.9454913333
 21
158.5441784135
  0
LINE
  5
3EE
100
AcDbEntity
  8
0
100
AcDbLine
 62
7
  6
CONTINUOUS
 10
187.9454913333
 20
159.5239813141
 11
187.9454913333
 21
161.5652373569
  0
LINE
  5
3EF
100
AcDbEntity
  8
0
100
AcDbLine
 62
7
  6
CONTINUOUS
 10
187.9454913333
 20
162.5450402575
 11
187.9454913333
 21
164.5862963003
  0
LINE
  5
3F0
100
AcDbEntity
  8
0
100
AcDbLine
 62
7
  6
CONTINUOUS
 10
187.9454913333
 20
174.629276031
 11
187.9454913333
 21
176.6705320738
  0
LINE
  5
3F1
100
AcDbEntity
  8
0
100
AcDbLine
 62
7
  6
CONTINUOUS
 10
187.9454913333
 20
177.6503349744
 11
187.9454913333
 21
179.6915910172
  0
LINE
  5
3F2
100
AcDbEntity
  8
0
100
AcDbLine
 62
7
  6
CONTINUOUS
 10
187.9454913333
 20
180.6713939177
 11
187.9454913333
 21
182.7126499606
  0
LINE
  5
3F3
100
AcDbEntity
  8
0
100
AcDbLine
 62
7
  6
CONTINUOUS
 10
190.7739066821
 20
176.0173019213
 11
190.7739066821
 21
167.0357753329
  0
ARC
  5
3F4
100
AcDbEntity
  8
0
100
AcDbCircle
 62
7
  6
CONTINUOUS
 10
-88.4678039573
 20
-200.8280452147
 40
360.4043393421
100
AcDbArc
 50
63.1998992035
 51
63.7524619728
  0
ARC
  5
3F5
100
AcDbEntity
  8
0
100
AcDbCircle
 62
7
  6
CONTINUOUS
 10
112.8416971311
 20
170.1776730932
 40
1.5495595942
100
AcDbArc
 50
129.4780785975
 51
132.093924715
  0
SPLINE
  5
3F6
100
AcDbEntity
  8
0
100
AcDbSpline
 62
7
  6
CONTINUOUS
 70
0
 71
3
 72
9
 73
5
 74
0
 42
0.0000001
 43
0.0000001
 44
0.0000000001
 40
0.0
 40
0.0
 40
0.0
 40
0.0
 40
0.2616983579
 40
1.0
 40
1.0
 40
1.0
 40
1.0
 10
144.4259472582
 20
172.6102122898
 30
0.0
 10
144.4312644766
 20
172.6328056934
 30
0.0
 10
144.4493858027
 20
172.7196184296
 30
0.0
 10
144.4585170256
 20
172.808485312
 30
0.0
 10
144.4585170256
 20
172.8739670667
 30
0.0
  0
SPLINE
  5
3F7
100
AcDbEntity
  8
0
100
AcDbSpline
 62
7
  6
CONTINUOUS
 70
0
 71
3
 72
9
 73
5
 74
0
 42
0.0000001
 43
0.0000001
 44
0.0000000001
 40
0.0
 40
0.0
 40
0.0
 40
0.0
 40
0.5500403563
 40
1.0
 40
1.0
 40
1.0
 40
1.0
 10
138.4481344093
 20
175.7726106124
 30
0.0
 10
138.4481344093
 20
175.7916796001
 30
0.0
 10
138.4433745518
 20
175.8271015454
 30
0.0
 10
138.4202306806
 20
175.8563842778
 30
0.0
 10
138.4067211702
 20
175.8641838299
 30
0.0
  0
SPLINE
  5
3F8
100
AcDbEntity
  8
0
100
AcDbSpline
 62
7
  6
CONTINUOUS
 70
0
 71
3
 72
9
 73
5
 74
0
 42
0.0000001
 43
0.0000001
 44
0.0000000001
 40
0.0
 40
0.0
 40
0.0
 40
0.0
 40
0.2375991783
 40
1.0
 40
1.0
 40
1.0
 40
1.0
 10
115.6391578667
 20
171.2866655222
 30
0.0
 10
115.6145128841
 20
171.310847631
 30
0.0
 10
115.5070306572
 20
171.4087802096
 30
0.0
 10
115.3863141924
 20
171.4916969983
 30
0.0
 10
115.2903659819
 20
171.5470914702
 30
0.0
  0
SPLINE
  5
3F9
100
AcDbEntity
  8
0
100
AcDbSpline
 62
7
  6
CONTINUOUS
 70
0
 71
3
 72
16
 73
12
 74
0
 42
0.0000001
 43
0.0000001
 44
0.0000000001
 40
0.0
 40
0.0
 40
0.0
 40
0.0
 40
0.0428749138
 40
0.0875217781
 40
0.1869209243
 40
0.3042316762
 40
0.4379522078
 40
0.5823542791
 40
0.7295664465
 40
0.8712579657
 40
1.0
 40
1.0
 40
1.0
 40
1.0
 10
115.949289825
 20
171.9349460467
 30
0.0
 10
115.949290997
 20
171.8709004651
 30
0.0
 10
115.9322832679
 20
171.7395870096
 30
0.0
 10
115.8281780729
 20
171.4778630897
 30
0.0
 10
115.5650196636
 20
171.1755366542
 30
0.0
 10
115.1131176129
 20
170.9012839372
 30
0.0
 10
114.5491430971
 20
170.7124677126
 30
0.0
 10
113.9168635167
 20
170.6237784406
 30
0.0
 10
113.2667328007
 20
170.6416389147
 30
0.0
 10
112.6521121398
 20
170.7646705099
 30
0.0
 10
112.2749466943
 20
170.9202422995
 30
0.0
 10
112.1083987144
 20
171.0163966452
 30
0.0
  0
SPLINE
  5
3FA
100
AcDbEntity
  8
0
100
AcDbSpline
 62
7
  6
CONTINUOUS
 70
0
 71
3
 72
9
 73
5
 74
0
 42
0.0000001
 43
0.0000001
 44
0.0000000001
 40
0.0
 40
0.0
 40
0.0
 40
0.0
 40
0.4999998047
 40
1.0
 40
1.0
 40
1.0
 40
1.0
 10
113.6992645895
 20
193.0003581786
 30
0.0
 10
113.6992645895
 20
193.0488287085
 30
0.0
 10
113.7323659981
 20
193.1445461374
 30
0.0
 10
113.7987085513
 20
193.2210723174
 30
0.0
 10
113.8406853569
 20
193.2453074928
 30
0.0
  0
SPLINE
  5
3FB
100
AcDbEntity
  8
0
100
AcDbSpline
 62
7
  6
CONTINUOUS
 70
0
 71
3
 72
9
 73
5
 74
0
 42
0.0000001
 43
0.0000001
 44
0.0000000001
 40
0.0
 40
0.0
 40
0.0
 40
0.0
 40
0.5500380887
 40
1.0
 40
1.0
 40
1.0
 40
1.0
 10
110.022324636
 20
192.1838924459
 30
0.0
 10
110.0388381715
 20
192.1934264832
 30
0.0
 10
110.0718931462
 20
192.2070146148
 30
0.0
 10
110.1088231165
 20
192.2016132775
 30
0.0
 10
110.1223321721
 20
192.1938140062
 30
0.0
  0
SPLINE
  5
3FC
100
AcDbEntity
  8
0
100
AcDbSpline
 62
7
  6
CONTINUOUS
 70
0
 71
3
 72
9
 73
5
 74
0
 42
0.0000001
 43
0.0000001
 44
0.0000000001
 40
0.0
 40
0.0
 40
0.0
 40
0.0
 40
0.4999998047
 40
1.0
 40
1.0
 40
1.0
 40
1.0
 10
108.3959858104
 20
191.0816304086
 30
0.0
 10
108.3959858104
 20
191.1301009385
 30
0.0
 10
108.429087219
 20
191.2258183674
 30
0.0
 10
108.4954297722
 20
191.3023445474
 30
0.0
 10
108.5374065778
 20
191.3265797228
 30
0.0
  0
SPLINE
  5
3FD
100
AcDbEntity
  8
0
100
AcDbSpline
 62
7
  6
CONTINUOUS
 70
0
 71
3
 72
11
 73
7
 74
0
 42
0.0000001
 43
0.0000001
 44
0.0000000001
 40
0.0
 40
0.0
 40
0.0
 40
0.0
 40
0.2177807295
 40
0.4509125517
 40
0.710293307
 40
1.0
 40
1.0
 40
1.0
 40
1.0
 10
138.9923359764
 20
213.0338009552
 30
0.0
 10
139.0913035125
 20
213.0909124734
 30
0.0
 10
139.3186653178
 20
213.1734269867
 30
0.0
 10
139.6963241146
 20
213.1830202982
 30
0.0
 10
140.0988181171
 20
213.0858077469
 30
0.0
 10
140.3606856327
 20
212.9612370489
 30
0.0
 10
140.4923239151
 20
212.8852373704
 30
0.0
  0
SPLINE
  5
3FE
100
AcDbEntity
  8
0
100
AcDbSpline
 62
7
  6
CONTINUOUS
 70
0
 71
3
 72
9
 73
5
 74
0
 42
0.0000001
 43
0.0000001
 44
0.0000000001
 40
0.0
 40
0.0
 40
0.0
 40
0.0
 40
0.4728117196
 40
1.0
 40
1.0
 40
1.0
 40
1.0
 10
39.9977987694
 20
155.879619408
 30
0.0
 10
39.8671646948
 20
155.8042340248
 30
0.0
 10
39.6270304904
 20
155.5768761246
 30
0.0
 10
39.4983297457
 20
155.2771470344
 30
0.0
 10
39.453273363
 20
155.1151241355
 30
0.0
  0
SPLINE
  5
3FF
100
AcDbEntity
  8
0
100
AcDbSpline
 62
7
  6
CONTINUOUS
 70
0
 71
3
 72
11
 73
7
 74
0
 42
0.0000001
 43
0.0000001
 44
0.0000000001
 40
0.0
 40
0.0
 40
0.0
 40
0.0
 40
0.217687738
 40
0.4508872874
 40
0.7106279664
 40
1.0
 40
1.0
 40
1.0
 40
1.0
 10
81.3584702972
 20
114.8672208866
 30
0.0
 10
81.4161451964
 20
114.9005720638
 30
0.0
 10
81.5487639459
 20
114.9487127679
 30
0.0
 10
81.7691741364
 20
114.9543657062
 30
0.0
 10
82.0039171154
 20
114.8973869148
 30
0.0
 10
82.1567374113
 20
114.8248877709
 30
0.0
 10
82.2334352862
 20
114.780607234
 30
0.0
  0
SPLINE
  5
400
100
AcDbEntity
  8
0
100
AcDbSpline
 62
7
  6
CONTINUOUS
 70
0
 71
3
 72
11
 73
7
 74
0
 42
0.0000001
 43
0.0000001
 44
0.0000000001
 40
0.0
 40
0.0
 40
0.0
 40
0.0
 40
0.2308502414
 40
0.4857089314
 40
0.7481293234
 40
1.0
 40
1.0
 40
1.0
 40
1.0
 10
185.9009779912
 20
186.6691318036
 30
0.0
 10
186.1475635576
 20
186.5267687812
 30
0.0
 10
186.6228294403
 20
186.1505288964
 30
0.0
 10
187.2150530318
 20
185.4362534954
 30
0.0
 10
187.67938932
 20
184.6032021852
 30
0.0
 10
187.8815013746
 20
183.9964485291
 30
0.0
 10
187.9454913333
 20
183.6924528611
 30
0.0
  0
SPLINE
  5
401
100
AcDbEntity
  8
0
100
AcDbSpline
 62
7
  6
CONTINUOUS
 70
0
 71
3
 72
9
 73
5
 74
0
 42
0.0000001
 43
0.0000001
 44
0.0000000001
 40
0.0
 40
0.0
 40
0.0
 40
0.0
 40
0.3202269755
 40
1.0
 40
1.0
 40
1.0
 40
1.0
 10
163.146650745
 20
198.4757328981
 30
0.0
 10
163.153059904
 20
198.4646319706
 30
0.0
 10
163.1744695877
 20
198.4333788954
 30
0.0
 10
163.2230864145
 20
198.404393435
 30
0.0
 10
163.2466511613
 20
198.4179989369
 30
0.0
  0
SPLINE
  5
402
100
AcDbEntity
  8
0
100
AcDbSpline
 62
7
  6
CONTINUOUS
 70
0
 71
3
 72
9
 73
5
 74
0
 42
0.0000001
 43
0.0000001
 44
0.0000000001
 40
0.0
 40
0.0
 40
0.0
 40
0.0
 40
0.4812483132
 40
1.0
 40
1.0
 40
1.0
 40
1.0
 10
59.5361818329
 20
132.1712556722
 30
0.0
 10
57.0108171601
 20
133.6293174633
 30
0.0
 10
51.4977319243
 20
136.2086489992
 30
0.0
 10
45.6900985189
 20
137.9990579289
 30
0.0
 10
42.6366422086
 20
138.745239763
 30
0.0
  0
SPLINE
  5
403
100
AcDbEntity
  8
0
100
AcDbSpline
 62
7
  6
CONTINUOUS
 70
0
 71
3
 72
11
 73
7
 74
0
 42
0.0000001
 43
0.0000001
 44
0.0000000001
 40
0.0
 40
0.0
 40
0.0
 40
0.0
 40
0.217687738
 40
0.4508872874
 40
0.7106279664
 40
1.0
 40
1.0
 40
1.0
 40
1.0
 10
39.6389965135
 20
138.9534254033
 30
0.0
 10
39.6966714128
 20
138.9867765805
 30
0.0
 10
39.8292901622
 20
139.0349172846
 30
0.0
 10
40.0497003527
 20
139.0405702229
 30
0.0
 10
40.2844433317
 20
138.9835914315
 30
0.0
 10
40.4372636276
 20
138.9110922876
 30
0.0
 10
40.5139615025
 20
138.8668117507
 30
0.0
  0
SPLINE
  5
404
100
AcDbEntity
  8
0
100
AcDbSpline
 62
7
  6
CONTINUOUS
 70
0
 71
3
 72
15
 73
11
 74
0
 42
0.0000001
 43
0.0000001
 44
0.0000000001
 40
0.0
 40
0.0
 40
0.0
 40
0.0
 40
0.1288027672
 40
0.2706179341
 40
0.4178929834
 40
0.5623841759
 40
0.6961952424
 40
0.8135956892
 40
0.9130680795
 40
1.0
 40
1.0
 40
1.0
 40
1.0
 10
82.2334352862
 20
114.780607234
 30
0.0
 10
82.3629511392
 20
114.705832913
 30
0.0
 10
82.6143903377
 20
114.5122310641
 30
0.0
 10
82.9363271748
 20
114.1461581967
 30
0.0
 10
83.2011587074
 20
113.7151687669
 30
0.0
 10
83.3872706251
 20
113.2548162912
 30
0.0
 10
83.479662276
 20
112.801583629
 30
0.0
 10
83.4699553784
 20
112.3902102267
 30
0.0
 10
83.3545800966
 20
112.0485821807
 30
0.0
 10
83.1957784794
 20
111.886762578
 30
0.0
 10
83.1084002752
 20
111.8362351214
 30
0.0
  0
SPLINE
  5
405
100
AcDbEntity
  8
0
100
AcDbSpline
 62
7
  6
CONTINUOUS
 70
0
 71
3
 72
9
 73
5
 74
0
 42
0.0000001
 43
0.0000001
 44
0.0000000001
 40
0.0
 40
0.0
 40
0.0
 40
0.0
 40
0.4745806682
 40
1.0
 40
1.0
 40
1.0
 40
1.0
 10
40.5139615025
 20
138.8668117507
 30
0.0
 10
40.6799071307
 20
138.771005165
 30
0.0
 10
40.995723375
 20
138.5100935344
 30
0.0
 10
41.2419357024
 20
138.1860794119
 30
0.0
 10
41.3522934207
 20
138.004900407
 30
0.0
  0
SPLINE
  5
406
100
AcDbEntity
  8
0
100
AcDbSpline
 62
7
  6
CONTINUOUS
 70
0
 71
3
 72
11
 73
7
 74
0
 42
0.0000001
 43
0.0000001
 44
0.0000000001
 40
0.0
 40
0.0
 40
0.0
 40
0.0
 40
0.2895473313
 40
0.5491390889
 40
0.7822792833
 40
1.0
 40
1.0
 40
1.0
 40
1.0
 10
112.1083987144
 20
171.0163966452
 30
0.0
 10
112.0097251695
 20
171.0733645542
 30
0.0
 10
111.8306630773
 20
171.1968322934
 30
0.0
 10
111.6164655011
 20
171.4216987845
 30
0.0
 10
111.4809786494
 20
171.6706474622
 30
0.0
 10
111.4494764392
 20
171.8492721754
 30
0.0
 10
111.4494748713
 20
171.9349459362
 30
0.0
  0
SPLINE
  5
407
100
AcDbEntity
  8
0
100
AcDbSpline
 62
7
  6
CONTINUOUS
 70
0
 71
3
 72
11
 73
7
 74
0
 42
0.0000001
 43
0.0000001
 44
0.0000000001
 40
0.0
 40
0.0
 40
0.0
 40
0.0
 40
0.2431597814
 40
0.512108121
 40
0.7743439707
 40
1.0
 40
1.0
 40
1.0
 40
1.0
 10
115.2903659819
 20
171.5470914702
 30
0.0
 10
115.037668141
 20
171.6929833362
 30
0.0
 10
114.444672502
 20
171.8951842242
 30
0.0
 10
113.5095687598
 20
171.961113852
 30
0.0
 10
112.6062551653
 20
171.8082736867
 30
0.0
 10
112.0654747579
 20
171.5459474639
 30
0.0
 10
111.8565135616
 20
171.3737283889
 30
0.0
  0
SPLINE
  5
408
100
AcDbEntity
  8
0
100
AcDbSpline
 62
7
  6
CONTINUOUS
 70
0
 71
3
 72
11
 73
7
 74
0
 42
0.0000001
 43
0.0000001
 44
0.0000000001
 40
0.0
 40
0.0
 40
0.0
 40
0.0
 40
0.2372446848
 40
0.5000016179
 40
0.7627576706
 40
1.0
 40
1.0
 40
1.0
 40
1.0
 10
143.0443093512
 20
174.7519367355
 30
0.0
 10
143.0443093512
 20
174.6591997598
 30
0.0
 10
143.0095169488
 20
174.4636284528
 30
0.0
 10
142.8882869167
 20
174.1888175636
 30
0.0
 10
142.710910534
 20
173.9464236519
 30
0.0
 10
142.5589381807
 20
173.8185072986
 30
0.0
 10
142.4786262814
 20
173.7721394787
 30
0.0
  0
SPLINE
  5
409
100
AcDbEntity
  8
0
100
AcDbSpline
 62
7
  6
CONTINUOUS
 70
0
 71
3
 72
10
 73
6
 74
0
 42
0.0000001
 43
0.0000001
 44
0.0000000001
 40
0.0
 40
0.0
 40
0.0
 40
0.0
 40
0.1870023694
 40
0.5474424563
 40
1.0
 40
1.0
 40
1.0
 40
1.0
 10
64.2521139514
 20
141.2638173949
 30
0.0
 10
64.2453776644
 20
141.2599280866
 30
0.0
 10
64.221126591
 20
141.2564816685
 30
0.0
 10
64.18298359
 20
141.2785852433
 30
0.0
 10
64.1615257441
 20
141.3052490223
 30
0.0
 10
64.152113535
 20
141.3215513561
 30
0.0
  0
SPLINE
  5
40A
100
AcDbEntity
  8
0
100
AcDbSpline
 62
7
  6
CONTINUOUS
 70
0
 71
3
 72
9
 73
5
 74
0
 42
0.0000001
 43
0.0000001
 44
0.0000000001
 40
0.0
 40
0.0
 40
0.0
 40
0.0
 40
0.5251041756
 40
1.0
 40
1.0
 40
1.0
 40
1.0
 10
62.4352936199
 20
130.4973030227
 30
0.0
 10
64.7305139432
 20
129.1721191437
 30
0.0
 10
68.9280771572
 20
126.3255893844
 30
0.0
 10
72.5419916959
 20
122.7417771648
 30
0.0
 10
74.0309748391
 20
120.863465743
 30
0.0
  0
SPLINE
  5
40B
100
AcDbEntity
  8
0
100
AcDbSpline
 62
7
  6
CONTINUOUS
 70
0
 71
3
 72
16
 73
12
 74
0
 42
0.0000001
 43
0.0000001
 44
0.0000000001
 40
0.0
 40
0.0
 40
0.0
 40
0.0
 40
0.0428749138
 40
0.0875217781
 40
0.1869209243
 40
0.3042316762
 40
0.4379522078
 40
0.5823542791
 40
0.7295664465
 40
0.8712579657
 40
1.0
 40
1.0
 40
1.0
 40
1.0
 10
111.4494748713
 20
171.9349459362
 30
0.0
 10
111.4494736993
 20
171.9989915178
 30
0.0
 10
111.4664814284
 20
172.1303049732
 30
0.0
 10
111.5705866234
 20
172.3920288931
 30
0.0
 10
111.8337450327
 20
172.6943553287
 30
0.0
 10
112.2856470835
 20
172.9686080457
 30
0.0
 10
112.8496215992
 20
173.1574242703
 30
0.0
 10
113.4819011796
 20
173.2461135423
 30
0.0
 10
114.1320318956
 20
173.2282530682
 30
0.0
 10
114.7466525565
 20
173.1052214729
 30
0.0
 10
115.123818002
 20
172.9496496834
 30
0.0
 10
115.2903659819
 20
172.8534953376
 30
0.0
  0
SPLINE
  5
40C
100
AcDbEntity
  8
0
100
AcDbSpline
 62
7
  6
CONTINUOUS
 70
0
 71
3
 72
13
 73
9
 74
0
 42
0.0000001
 43
0.0000001
 44
0.0000000001
 40
0.0
 40
0.0
 40
0.0
 40
0.0
 40
0.3068196145
 40
0.5823862744
 40
0.7029123033
 40
0.8109881364
 40
0.9085672132
 40
1.0
 40
1.0
 40
1.0
 40
1.0
 10
39.6030266319
 20
136.9968534898
 30
0.0
 10
39.4988518039
 20
137.1878978938
 30
0.0
 10
39.3387992643
 20
137.5724751746
 30
0.0
 10
39.2595599176
 20
138.0721658307
 30
0.0
 10
39.2941783065
 20
138.4300117088
 30
0.0
 10
39.3639790022
 20
138.6527399862
 30
0.0
 10
39.4775603645
 20
138.8334881413
 30
0.0
 10
39.5828607457
 20
138.9209642467
 30
0.0
 10
39.6389965135
 20
138.9534254033
 30
0.0
  0
SPLINE
  5
40D
100
AcDbEntity
  8
0
100
AcDbSpline
 62
7
  6
CONTINUOUS
 70
0
 71
3
 72
11
 73
7
 74
0
 42
0.0000001
 43
0.0000001
 44
0.0000000001
 40
0.0
 40
0.0
 40
0.0
 40
0.0
 40
0.251870795
 40
0.5142912222
 40
0.7691498702
 40
1.0
 40
1.0
 40
1.0
 40
1.0
 10
88.9509541233
 20
126.5382713191
 30
0.0
 10
88.8869641345
 20
126.8422671301
 30
0.0
 10
88.684851987
 20
127.4490209616
 30
0.0
 10
88.2205155522
 20
128.282072349
 30
0.0
 10
87.6282919812
 20
128.9963475774
 30
0.0
 10
87.1530262285
 20
129.3725873079
 30
0.0
 10
86.9064407812
 20
129.5149502616
 30
0.0
  0
SPLINE
  5
40E
100
AcDbEntity
  8
0
100
AcDbSpline
 62
7
  6
CONTINUOUS
 70
0
 71
3
 72
11
 73
7
 74
0
 42
0.0000001
 43
0.0000001
 44
0.0000000001
 40
0.0
 40
0.0
 40
0.0
 40
0.0
 40
0.2895473313
 40
0.5491390889
 40
0.7822792833
 40
1.0
 40
1.0
 40
1.0
 40
1.0
 10
115.2903659819
 20
172.8534953376
 30
0.0
 10
115.3890395268
 20
172.7965274287
 30
0.0
 10
115.568101619
 20
172.6730596895
 30
0.0
 10
115.7822991952
 20
172.4481931984
 30
0.0
 10
115.9177860469
 20
172.1992445206
 30
0.0
 10
115.9492882571
 20
172.0206198075
 30
0.0
 10
115.949289825
 20
171.9349460467
 30
0.0
  0
SPLINE
  5
40F
100
AcDbEntity
  8
0
100
AcDbSpline
 62
7
  6
CONTINUOUS
 70
0
 71
3
 72
10
 73
6
 74
0
 42
0.0000001
 43
0.0000001
 44
0.0000000001
 40
0.0
 40
0.0
 40
0.0
 40
0.0
 40
0.4724943549
 40
0.7293617265
 40
1.0
 40
1.0
 40
1.0
 40
1.0
 10
70.9210312145
 20
122.4156095822
 30
0.0
 10
69.5166436342
 20
124.3311440884
 30
0.0
 10
66.9452835123
 20
127.0035004776
 30
0.0
 10
62.9592543301
 20
130.0704158721
 30
0.0
 10
60.7143854857
 20
131.4909999664
 30
0.0
 10
59.5361818329
 20
132.1712556722
 30
0.0
  0
SPLINE
  5
410
100
AcDbEntity
  8
0
100
AcDbSpline
 62
7
  6
CONTINUOUS
 70
0
 71
3
 72
10
 73
6
 74
0
 42
0.0000001
 43
0.0000001
 44
0.0000000001
 40
0.0
 40
0.0
 40
0.0
 40
0.0
 40
0.2307160049
 40
0.4852322666
 40
1.0
 40
1.0
 40
1.0
 40
1.0
 10
112.5327035419
 20
170.8939029607
 30
0.0
 10
112.6641299872
 20
170.9697765395
 30
0.0
 10
112.9638992732
 20
171.0900909347
 30
0.0
 10
113.6130563706
 20
171.2064362349
 30
0.0
 10
114.1332665536
 20
171.1632653705
 30
0.0
 10
114.4576906543
 20
171.0663419607
 30
0.0
  0
SPLINE
  5
411
100
AcDbEntity
  8
0
100
AcDbSpline
 62
7
  6
CONTINUOUS
 70
0
 71
3
 72
9
 73
5
 74
0
 42
0.0000001
 43
0.0000001
 44
0.0000000001
 40
0.0
 40
0.0
 40
0.0
 40
0.0
 40
0.4999964594
 40
1.0
 40
1.0
 40
1.0
 40
1.0
 10
136.8217955837
 20
174.996949542
 30
0.0
 10
136.7798190917
 20
174.9727145476
 30
0.0
 10
136.7134764422
 20
174.8961885629
 30
0.0
 10
136.6803748163
 20
174.8004711198
 30
0.0
 10
136.6803748163
 20
174.7520002278
 30
0.0
  0
SPLINE
  5
412
100
AcDbEntity
  8
0
100
AcDbSpline
 62
7
  6
CONTINUOUS
 70
0
 71
3
 72
9
 73
5
 74
0
 42
0.0000001
 43
0.0000001
 44
0.0000000001
 40
0.0
 40
0.0
 40
0.0
 40
0.0
 40
0.4999964594
 40
1.0
 40
1.0
 40
1.0
 40
1.0
 10
142.1250743628
 20
176.915677312
 30
0.0
 10
142.0830978708
 20
176.8914423177
 30
0.0
 10
142.0167552213
 20
176.814916333
 30
0.0
 10
141.9836535954
 20
176.7191988899
 30
0.0
 10
141.9836535954
 20
176.6707279978
 30
0.0
  0
SPLINE
  5
413
100
AcDbEntity
  8
0
100
AcDbSpline
 62
7
  6
CONTINUOUS
 70
0
 71
3
 72
15
 73
11
 74
0
 42
0.0000001
 43
0.0000001
 44
0.0000000001
 40
0.0
 40
0.0
 40
0.0
 40
0.0
 40
0.1288027672
 40
0.2706179341
 40
0.4178929834
 40
0.5623841759
 40
0.6961952424
 40
0.8135956892
 40
0.9130680795
 40
1.0
 40
1.0
 40
1.0
 40
1.0
 10
82.2334352862
 20
111.922848774
 30
0.0
 10
82.1039194331
 20
111.997623095
 30
0.0
 10
81.8524802347
 20
112.1912249439
 30
0.0
 10
81.5305433975
 20
112.5572978113
 30
0.0
 10
81.2657118649
 20
112.9882872411
 30
0.0
 10
81.0795999472
 20
113.4486397168
 30
0.0
 10
80.9872082963
 20
113.901872379
 30
0.0
 10
80.9969151939
 20
114.3132457813
 30
0.0
 10
81.1122904758
 20
114.6548738273
 30
0.0
 10
81.271092093
 20
114.81669343
 30
0.0
 10
81.3584702972
 20
114.8672208866
 30
0.0
  0
SPLINE
  5
414
100
AcDbEntity
  8
0
100
AcDbSpline
 62
7
  6
CONTINUOUS
 70
0
 71
3
 72
11
 73
7
 74
0
 42
0.0000001
 43
0.0000001
 44
0.0000000001
 40
0.0
 40
0.0
 40
0.0
 40
0.0
 40
0.217687738
 40
0.4508872874
 40
0.7106279664
 40
1.0
 40
1.0
 40
1.0
 40
1.0
 10
83.1084002752
 20
111.8362351214
 30
0.0
 10
83.0507253759
 20
111.8028839442
 30
0.0
 10
82.9181066265
 20
111.7547432401
 30
0.0
 10
82.6976964359
 20
111.7490903018
 30
0.0
 10
82.4629534569
 20
111.8060690932
 30
0.0
 10
82.3101331611
 20
111.8785682371
 30
0.0
 10
82.2334352862
 20
111.922848774
 30
0.0
  0
SPLINE
  5
415
100
AcDbEntity
  8
0
100
AcDbSpline
 62
7
  6
CONTINUOUS
 70
0
 71
3
 72
9
 73
5
 74
0
 42
0.0000001
 43
0.0000001
 44
0.0000000001
 40
0.0
 40
0.0
 40
0.0
 40
0.0
 40
0.4499625918
 40
1.0
 40
1.0
 40
1.0
 40
1.0
 10
138.4067211702
 20
175.8641838299
 30
0.0
 10
138.3932121157
 20
175.8719831188
 30
0.0
 10
138.3562821278
 20
175.8773840496
 30
0.0
 10
138.3232271403
 20
175.8637962809
 30
0.0
 10
138.3067136419
 20
175.8542622651
 30
0.0
  0
SPLINE
  5
416
100
AcDbEntity
  8
0
100
AcDbSpline
 62
7
  6
CONTINUOUS
 70
0
 71
3
 72
11
 73
7
 74
0
 42
0.0000001
 43
0.0000001
 44
0.0000000001
 40
0.0
 40
0.0
 40
0.0
 40
0.0
 40
0.2897067061
 40
0.5490875408
 40
0.7822193242
 40
1.0
 40
1.0
 40
1.0
 40
1.0
 10
41.4977867051
 20
155.7310558284
 30
0.0
 10
41.366148417
 20
155.8070555102
 30
0.0
 10
41.1042808343
 20
155.9316261795
 30
0.0
 10
40.7017868207
 20
156.0288387652
 30
0.0
 10
40.3241280121
 20
156.0192454678
 30
0.0
 10
40.0967662964
 20
155.9367308851
 30
0.0
 10
39.9977987694
 20
155.879619408
 30
0.0
  0
ELLIPSE
  5
417
100
AcDbEntity
  8
0
100
AcDbEllipse
 62
7
  6
CONTINUOUS
 10
113.6993823482
 20
169.8120397069
 30
0.0
 11
-1.1667360868
 21
2.0208233232
 31
0.0
 40
0.5773470039
 41
-1.4229053514
 42
-1.2629297785
  0
ENDSEC
  0
SECTION
  2
OBJECTS
  0
DICTIONARY
  5
C
100
AcDbDictionary
280
0
281
1
  3
ACAD_GROUP
350
D
  3
ACAD_MLINESTYLE
350
17
  3
ACAD_LAYOUT
350
1A
  3
ACAD_PLOTSETTINGS
350
19
  3
ACAD_PLOTSTYLENAME
350
E
  0
DICTIONARY
  5
D
102
{ACAD_REACTORS
330
C
102
}
100
AcDbDictionary
280
0
281
1
  0
ACDBDICTIONARYWDFLT
  5
E
102
{ACAD_REACTORS
330
C
102
}
100
AcDbDictionary
281
1
  3
Normal
350
F
100
AcDbDictionaryWithDefault
340
F
  0
DICTIONARY
  5
17
102
{ACAD_REACTORS
330
C
102
}
100
AcDbDictionary
280
0
281
1
  3
Standard
350
18
  0
DICTIONARY
  5
19
102
{ACAD_REACTORS
330
C
102
}
100
AcDbDictionary
281
1
  0
DICTIONARY
  5
1A
102
{ACAD_REACTORS
330
C
102
}
100
AcDbDictionary
281
1
  3
Model
350
418
  3
Layout1
350
419
  0
ACDBPLACEHOLDER
  5
F
102
{ACAD_REACTORS
330
E
102
}
  0
MLINESTYLE
  5
18
102
{ACAD_REACTORS
330
17
102
}
100
AcDbMlineStyle
  2
STANDARD
 70
0
  3

 62
256
 51
90.0
 52
90.0
 71
2
 49
0.5
 62
256
  6
BYLAYER
 49
-0.5
 62
256
  6
BYLAYER
  0
LAYOUT
  5
418
102
{ACAD_REACTORS
330
1A
102
}
100
AcDbPlotSettings
  1

  2
none_device
  4

  6

 40
0.0
 41
0.0
 42
0.0
 43
0.0
 44
210.0
 45
297.0
 46
0.0
 47
0.0
 48
0.0
 49
0.0
140
0.0
141
0.0
142
1.0
143
1.0
 70
1024
 72
1
 73
0
 74
0
  7

 75
0
147
1.0
148
0.0
149
0.0
100
AcDbLayout
  1
Model
 70
0
 71
0
 10
0.0
 20
0.0
 11
210.0
 21
297.0
 12
0.0
 22
0.0
 32
0.0
 14
0.0
 24
0.0
 34
0.0
 15
0.0
 25
0.0
 35
0.0
146
0.0
 13
0.0
 23
0.0
 33
0.0
 16
1.0
 26
0.0
 36
0.0
 17
0.0
 27
1.0
 37
0.0
 76
0
330
210
345
0
346
0
  0
LAYOUT
  5
419
102
{ACAD_REACTORS
330
1A
102
}
100
AcDbPlotSettings
  1

  2
none_device
  4

  6

 40
0.0
 41
0.0
 42
0.0
 43
0.0
 44
210.0
 45
297.0
 46
0.0
 47
0.0
 48
0.0
 49
0.0
140
0.0
141
0.0
142
1.0
143
1.0
 70
0
 72
1
 73
0
 74
0
  7

 75
0
147
1.0
148
0.0
149
0.0
100
AcDbLayout
  1
Layout1
 70
0
 71
1
 10
0.0
 20
0.0
 11
210.0
 21
297.0
 12
0.0
 22
0.0
 32
0.0
 14
0.0
 24
0.0
 34
0.0
 15
0.0
 25
0.0
 35
0.0
146
0.0
 13
0.0
 23
0.0
 33
0.0
 16
1.0
 26
0.0
 36
0.0
 17
0.0
 27
1.0
 37
0.0
 76
0
330
211
345
0
346
0
  0
ENDSEC
  0
EOF
