999
DXF file: C:\Users\sesa63760\Dev\_Creo\CAD\MCADPE0010604_3D-CAD\drw0001_1.dxf
999
Pro/ENGINEER 2019471 by Parametric Technology Corporation
  0
SECTION
  2
HEADER
  9
$ACADVER
  1
AC1024
  9
$DWGCODEPAGE
  3
ANSI_1252
  9
$EXTMAX
 10
67.823513485
 20
95.9218262144
 30
0.0
  9
$EXTMIN
 10
0.0
 20
0.0
 30
0.0
  9
$LIMMIN
 10
0.0
 20
0.0
  9
$LIMMAX
 10
67.823513485
 20
95.9218262144
  9
$VIEWCTR
 10
33.9117567425
 20
47.9609131072
  9
$VIEWSIZE
 40
95.9218262144
  9
$CLAYER
  8
0
  9
$LTSCALE
 40
6.2526820051
  9
$CELTYPE
  6
BYLAYER
  9
$DIMSCALE
 40
1.0
  9
$DIMASZ
 40
0.8074227796
  9
$DIMEXO
 40
1.0
  9
$DIMDLI
 40
4.3200348399
  9
$DIMEXE
 40
1.0
  9
$DIMCEN
 40
1.0231661463
  9
$DIMLFAC
 40
1.0
  9
$DIMBLK
  1
_FILLED
  9
$DIMALT
 70
0
  9
$DIMALTF
 40
0.0393700787
  9
$DIMTXT
 40
1.1303918914
  9
$DIMTOL
 70
1
  9
$DIMLIM
 70
0
  9
$DIMTFAC
 40
1.0
  9
$DIMTP
 40
0.01
  9
$DIMTM
 40
0.01
  9
$DIMGAP
 40
0.625
  9
$DIMDSEP
 70
46
  9
$AUNITS
 70
0
  9
$PDMODE
 70
3
  9
$PDSIZE
 40
0.3125
  9
$HANDSEED
  5
3C3
  9
$TILEMODE
 70
1
  9
$MEASUREMENT
 70
1
  9
$INSUNITS
 70
4
  0
ENDSEC
  0
SECTION
  2
CLASSES
  0
CLASS
  1
ACDBDICTIONARYWDFLT
  2
AcDbDictionaryWithDefault
  3
AutoCAD 2000
 90
0
 91
1
280
0
281
0
  0
CLASS
  1
ACDBPLACEHOLDER
  2
AcDbPlaceHolder
  3
AutoCAD 2000
 90
0
 91
1
280
0
281
0
  0
CLASS
  1
LAYOUT
  2
AcDbLayout
  3
AutoCAD 2000
 90
0
 91
0
280
0
281
0
  0
ENDSEC
  0
SECTION
  2
TABLES
  0
TABLE
  2
VPORT
  5
8
100
AcDbSymbolTable
 70
2
  0
VPORT
  5
1F4
100
AcDbSymbolTableRecord
100
AcDbViewportTableRecord
  2
*ACTIVE
 70
0
 10
0.0
 20
0.0
 11
1.0
 21
1.0
 12
33.9117567425
 22
47.9609131072
 13
0.0
 23
0.0
 14
1.0
 24
1.0
 15
0.0
 25
0.0
 16
0.0
 26
0.0
 36
1.0
 17
0.0
 27
0.0
 37
0.0
 40
95.9218262144
 41
0.7070707071
 42
50.0
 43
0.0
 44
0.0
 50
0.0
 51
0.0
 71
0
 72
100
 73
1
 74
1
 75
0
 76
0
 77
0
 78
0
  0
ENDTAB
  0
TABLE
  2
LTYPE
  5
5
100
AcDbSymbolTable
 70
6
  0
LTYPE
  5
14
100
AcDbSymbolTableRecord
100
AcDbLinetypeTableRecord
  2
BYBLOCK
 70
0
  3

 72
65
 73
0
 40
0.0
  0
LTYPE
  5
15
100
AcDbSymbolTableRecord
100
AcDbLinetypeTableRecord
  2
BYLAYER
 70
0
  3

 72
65
 73
0
 40
0.0
  0
LTYPE
  5
16
100
AcDbSymbolTableRecord
100
AcDbLinetypeTableRecord
  2
CONTINUOUS
 70
64
  3
Solid line
 72
65
 73
0
 40
0.0
  0
LTYPE
  5
1F5
100
AcDbSymbolTableRecord
100
AcDbLinetypeTableRecord
  2
CENTER
 70
64
  3
____ _ ____ _ ____ _ ____ _ ____ _ ____ _ ____
 72
65
 73
4
 40
0.6
 49
0.375
 74
0
 49
-0.075
 74
0
 49
0.075
 74
0
 49
-0.075
 74
0
  0
LTYPE
  5
1F6
100
AcDbSymbolTableRecord
100
AcDbLinetypeTableRecord
  2
HIDDEN
 70
64
  3
- - - - - - - - - - - - - - - - - - - -
 72
65
 73
2
 40
0.2
 49
0.1
 74
0
 49
-0.1
 74
0
  0
LTYPE
  5
1F7
100
AcDbSymbolTableRecord
100
AcDbLinetypeTableRecord
  2
PHANTOM
 70
64
  3
_____ _ _ _____ _ _ _____ _ _ _____
 72
65
 73
6
 40
0.8
 49
0.45
 74
0
 49
-0.05
 74
0
 49
0.1
 74
0
 49
-0.05
 74
0
 49
0.1
 74
0
 49
-0.05
 74
0
  0
LTYPE
  5
1F8
100
AcDbSymbolTableRecord
100
AcDbLinetypeTableRecord
  2
DOT
 70
64
  3
. . . . . . . . . . . . . . . . . . . .
 72
65
 73
2
 40
0.2
 49
0.1
 74
0
 49
-0.1
 74
0
  0
LTYPE
  5
1F9
100
AcDbSymbolTableRecord
100
AcDbLinetypeTableRecord
  2
DASHED
 70
64
  3
- - - - - - - - - - - - - - - - - - - -
 72
65
 73
2
 40
0.2
 49
0.1
 74
0
 49
-0.1
 74
0
  0
ENDTAB
  0
TABLE
  2
LAYER
  5
2
100
AcDbSymbolTable
 70
36
  0
LAYER
  5
10
100
AcDbSymbolTableRecord
100
AcDbLayerTableRecord
  2
0
 70
0
 62
7
  6
CONTINUOUS
370
-3
390
F
  0
LAYER
  5
1FA
100
AcDbSymbolTableRecord
100
AcDbLayerTableRecord
  2
DEFAULT_1
 70
0
 62
7
  6
CENTER
370
-3
390
F
  0
LAYER
  5
1FB
100
AcDbSymbolTableRecord
100
AcDbLayerTableRecord
  2
DEFAULT_2
 70
0
 62
7
  6
HIDDEN
370
-3
390
F
  0
LAYER
  5
1FC
100
AcDbSymbolTableRecord
100
AcDbLayerTableRecord
  2
DEFAULT_3
 70
0
 62
7
  6
PHANTOM
370
-3
390
F
  0
LAYER
  5
1FD
100
AcDbSymbolTableRecord
100
AcDbLayerTableRecord
  2
00_COMPONENTS
 70
0
 62
7
  6
CONTINUOUS
370
-3
390
F
  0
LAYER
  5
1FE
100
AcDbSymbolTableRecord
100
AcDbLayerTableRecord
  2
01_1_DEFAULT_DATUMS
 70
0
 62
7
  6
CONTINUOUS
370
-3
390
F
  0
LAYER
  5
1FF
100
AcDbSymbolTableRecord
100
AcDbLayerTableRecord
  2
01_PLANES
 70
0
 62
7
  6
CONTINUOUS
370
-3
390
F
  0
LAYER
  5
200
100
AcDbSymbolTableRecord
100
AcDbLayerTableRecord
  2
02_COORD_SYS
 70
0
 62
7
  6
CONTINUOUS
370
-3
390
F
  0
LAYER
  5
201
100
AcDbSymbolTableRecord
100
AcDbLayerTableRecord
  2
03_AXES
 70
0
 62
7
  6
CONTINUOUS
370
-3
390
F
  0
LAYER
  5
202
100
AcDbSymbolTableRecord
100
AcDbLayerTableRecord
  2
04_POINTS
 70
0
 62
7
  6
CONTINUOUS
370
-3
390
F
  0
LAYER
  5
203
100
AcDbSymbolTableRecord
100
AcDbLayerTableRecord
  2
05_CURVES
 70
0
 62
7
  6
CONTINUOUS
370
-3
390
F
  0
LAYER
  5
204
100
AcDbSymbolTableRecord
100
AcDbLayerTableRecord
  2
06_SURFS
 70
0
 62
7
  6
CONTINUOUS
370
-3
390
F
  0
LAYER
  5
205
100
AcDbSymbolTableRecord
100
AcDbLayerTableRecord
  2
07_COSMETICS
 70
0
 62
7
  6
CONTINUOUS
370
-3
390
F
  0
LAYER
  5
206
100
AcDbSymbolTableRecord
100
AcDbLayerTableRecord
  2
10_NOTES
 70
0
 62
7
  6
CONTINUOUS
370
-3
390
F
  0
LAYER
  5
207
100
AcDbSymbolTableRecord
100
AcDbLayerTableRecord
  2
11_NOTES_PUB
 70
0
 62
7
  6
CONTINUOUS
370
-3
390
F
  0
LAYER
  5
208
100
AcDbSymbolTableRecord
100
AcDbLayerTableRecord
  2
13_REF_GTOL
 70
0
 62
7
  6
CONTINUOUS
370
-3
390
F
  0
LAYER
  5
209
100
AcDbSymbolTableRecord
100
AcDbLayerTableRecord
  2
16_MISC
 70
0
 62
7
  6
CONTINUOUS
370
-3
390
F
  0
LAYER
  5
20A
100
AcDbSymbolTableRecord
100
AcDbLayerTableRecord
  2
17_NO_PRINT
 70
0
 62
7
  6
CONTINUOUS
370
-3
390
F
  0
LAYER
  5
20B
100
AcDbSymbolTableRecord
100
AcDbLayerTableRecord
  2
18_DATUM_CAMS_JOINTS
 70
0
 62
7
  6
CONTINUOUS
370
-3
390
F
  0
LAYER
  5
20C
100
AcDbSymbolTableRecord
100
AcDbLayerTableRecord
  2
19_DATUM_FUNCTIONAL
 70
0
 62
7
  6
CONTINUOUS
370
-3
390
F
  0
LAYER
  5
20D
100
AcDbSymbolTableRecord
100
AcDbLayerTableRecord
  2
20_DATUM_KINEMATIC_SCHEME
 70
0
 62
7
  6
CONTINUOUS
370
-3
390
F
  0
ENDTAB
  0
TABLE
  2
STYLE
  5
3
100
AcDbSymbolTable
 70
1
  0
STYLE
  5
11
100
AcDbSymbolTableRecord
100
AcDbTextStyleTableRecord
  2
STANDARD
 70
0
 40
0.0
 41
1.0
 50
0.0
 71
0
 42
0.2
  3
ARIAL.TTF
  4

  0
STYLE
  5
20E
100
AcDbSymbolTableRecord
100
AcDbTextStyleTableRecord
  2
TEXTSTYLE_1
 70
0
 40
0.0
 41
0.8
 50
0.0
 71
0
 42
0.2
  3
gdt
  4

  0
ENDTAB
  0
TABLE
  2
VIEW
  5
6
100
AcDbSymbolTable
 70
0
  0
ENDTAB
  0
TABLE
  2
UCS
  5
7
100
AcDbSymbolTable
 70
0
  0
ENDTAB
  0
TABLE
  2
APPID
  5
9
100
AcDbSymbolTable
 70
1
  0
APPID
  5
20F
100
AcDbSymbolTableRecord
100
AcDbRegAppTableRecord
  2
ACAD
 70
0
  0
ENDTAB
  0
TABLE
  2
BLOCK_RECORD
  5
1
100
AcDbSymbolTable
 70
0
  0
BLOCK_RECORD
  5
210
100
AcDbSymbolTableRecord
100
AcDbBlockTableRecord
  2
*Model_Space
  0
BLOCK_RECORD
  5
211
100
AcDbSymbolTableRecord
100
AcDbBlockTableRecord
  2
*Paper_Space
  0
BLOCK_RECORD
  5
212
100
AcDbSymbolTableRecord
100
AcDbBlockTableRecord
  2
_FILLED
  0
ENDTAB
  0
TABLE
  2
DIMSTYLE
  5
A
100
AcDbSymbolTable
 70
1
100
AcDbDimStyleTable
 71
0
  0
DIMSTYLE
105
213
100
AcDbSymbolTableRecord
100
AcDbDimStyleTableRecord
  2
STANDARD
 70
0
  3

  4

 40
1.0
 41
0.8074227796
 42
1.0
 43
0.38
 44
1.0
 45
0.0
 46
0.0
 47
0.01
 48
0.01
140
1.1303918914
141
0.09
142
0.0
143
25.4
144
1.0
145
0.0
146
1.0
147
0.625
 71
1
 72
0
 73
0
 74
0
 75
0
 76
0
 77
1
 78
8
 79
2
170
0
171
1
172
0
173
0
174
0
175
0
176
0
177
0
178
0
270
2
179
2
271
2
272
2
273
2
274
2
275
0
280
0
281
0
282
0
283
1
284
8
285
0
286
0
287
3
288
0
340
11
278
46
341
212
342
212
343
212
344
212
  0
ENDTAB
  0
ENDSEC
  0
SECTION
  2
BLOCKS
  0
BLOCK
  5
20
100
AcDbEntity
  8
0
100
AcDbBlockBegin
  2
*Model_Space
 70
0
 10
0.0
 20
0.0
 30
0.0
  3
*Model_Space
  1

  0
ENDBLK
  5
21
100
AcDbEntity
  8
0
100
AcDbBlockEnd
  0
BLOCK
  5
1C
100
AcDbEntity
  8
0
100
AcDbBlockBegin
  2
*Paper_Space
 70
0
 10
0.0
 20
0.0
 30
0.0
  3
*Paper_Space
  1

  0
ENDBLK
  5
1D
100
AcDbEntity
  8
0
100
AcDbBlockEnd
  0
BLOCK
  5
214
100
AcDbEntity
  8
0
100
AcDbBlockBegin
  2
_FILLED
 70
64
 10
0.0
 20
0.0
  3
_FILLED
  1

  0
SOLID
  5
215
100
AcDbEntity
  8
0
  6
BYBLOCK
 62
0
100
AcDbTrace
 10
0.0
 20
0.0
 11
-1.0
 21
0.25
 12
-1.0
 22
-0.25
 13
-1.0
 23
-0.25
  0
ENDBLK
  5
216
100
AcDbEntity
  8
0
  6
BYBLOCK
 62
0
100
AcDbBlockEnd
  0
ENDSEC
  0
SECTION
  2
ENTITIES
  0
LINE
  5
217
100
AcDbEntity
  8
0
100
AcDbLine
 62
7
  6
BYLAYER
 10
21.2636753273
 20
7.4401617729
 11
14.2986445381
 21
11.4613332029
  0
LINE
  5
218
100
AcDbEntity
  8
0
100
AcDbLine
 62
7
  6
BYLAYER
 10
21.0565630067
 20
7.8979479205
 11
14.0915322175
 21
11.9191193505
  0
LINE
  5
219
100
AcDbEntity
  8
0
100
AcDbLine
 62
7
  6
BYLAYER
 10
14.0915322175
 20
12.1130386745
 11
21.0565630067
 21
8.0918672445
  0
LINE
  5
21A
100
AcDbEntity
  8
0
100
AcDbLine
 62
7
  6
BYLAYER
 10
18.0690058725
 20
13.2459394292
 11
16.7700567281
 21
13.9452620131
  0
LINE
  5
21B
100
AcDbEntity
  8
0
100
AcDbLine
 62
7
  6
BYLAYER
 10
16.2577950936
 20
14.2210512011
 11
16.3785390961
 21
14.1560455709
  0
LINE
  5
21C
100
AcDbEntity
  8
0
100
AcDbLine
 62
7
  6
BYLAYER
 10
21.4791844189
 20
9.0833734011
 11
14.5141536297
 21
13.1045448311
  0
LINE
  5
21D
100
AcDbEntity
  8
0
100
AcDbLine
 62
7
  6
BYLAYER
 10
15.41141613
 20
14.0778875868
 11
22.3764469192
 21
10.0567161568
  0
LINE
  5
21E
100
AcDbEntity
  8
0
100
AcDbLine
 62
7
  6
BYLAYER
 10
22.5098074889
 20
10.1047867671
 11
15.5447766996
 21
14.1259581971
  0
LINE
  5
21F
100
AcDbEntity
  8
0
100
AcDbLine
 62
7
  6
BYLAYER
 10
18.0690058725
 20
13.2459394292
 11
23.2839400929
 21
10.2351638661
  0
LINE
  5
220
100
AcDbEntity
  8
0
100
AcDbLine
 62
7
  6
BYLAYER
 10
23.8118656152
 20
10.2027124412
 11
24.5896865305
 21
9.7536474856
  0
LINE
  5
221
100
AcDbEntity
  8
0
100
AcDbLine
 62
7
  6
BYLAYER
 10
22.509805645
 20
10.1047835733
 11
22.4248089311
 21
10.0963670267
  0
LINE
  5
222
100
AcDbEntity
  8
0
100
AcDbLine
 62
7
  6
BYLAYER
 10
21.2636959562
 20
14.5131496305
 11
21.479184419
 21
14.467392208
  0
LINE
  5
223
100
AcDbEntity
  8
0
100
AcDbLine
 62
7
  6
BYLAYER
 10
21.0656493425
 20
12.6493774913
 11
17.600811691
 21
14.6497571875
  0
LINE
  5
224
100
AcDbEntity
  8
0
100
AcDbLine
 62
7
  6
BYLAYER
 10
23.7612372476
 20
11.5847920768
 11
22.9834163323
 21
12.0338570325
  0
LINE
  5
225
100
AcDbEntity
  8
0
100
AcDbLine
 62
7
  6
BYLAYER
 10
16.9906630304
 20
15.4936964925
 11
16.5487180511
 21
15.748847773
  0
LINE
  5
226
100
AcDbEntity
  8
0
100
AcDbLine
 62
7
  6
BYLAYER
 10
21.2156467974
 20
13.1541373068
 11
17.7508091459
 21
15.1545170029
  0
LINE
  5
227
100
AcDbEntity
  8
0
100
AcDbLine
 62
7
  6
BYLAYER
 10
21.533843524
 20
13.3378471759
 11
18.0690058725
 21
15.3382268721
  0
LINE
  5
228
100
AcDbEntity
  8
0
100
AcDbLine
 62
7
  6
BYLAYER
 10
21.0656493425
 20
14.1190818414
 11
17.600811691
 21
16.1194615376
  0
LINE
  5
229
100
AcDbEntity
  8
0
100
AcDbLine
 62
7
  6
BYLAYER
 10
21.2636753273
 20
14.5131139578
 11
14.2986445381
 21
18.5342853878
  0
LINE
  5
22A
100
AcDbEntity
  8
0
100
AcDbLine
 62
7
  6
BYLAYER
 10
21.0565630067
 20
14.9709001054
 11
14.0915322175
 21
18.9920715354
  0
LINE
  5
22B
100
AcDbEntity
  8
0
100
AcDbLine
 62
7
  6
BYLAYER
 10
10.8918933906
 20
71.901478008
 11
10.9643299368
 21
71.9432990177
  0
LINE
  5
22C
100
AcDbEntity
  8
0
100
AcDbLine
 62
7
  6
BYLAYER
 10
25.8199706789
 20
79.5631490884
 11
41.1408221766
 21
88.4085940246
  0
LINE
  5
22D
100
AcDbEntity
  8
0
100
AcDbLine
 62
7
  6
BYLAYER
 10
15.4597781419
 20
14.1175384567
 11
15.5447748558
 21
14.1259550034
  0
LINE
  5
22E
100
AcDbEntity
  8
0
100
AcDbLine
 62
7
  6
BYLAYER
 10
21.479184419
 20
14.467392208
 11
22.3764469195
 21
14.5301127601
  0
LINE
  5
22F
100
AcDbEntity
  8
0
100
AcDbLine
 62
7
  6
BYLAYER
 10
23.2145299583
 20
17.3772220262
 11
23.0667556439
 21
17.4227329824
  0
LINE
  5
230
100
AcDbEntity
  8
0
100
AcDbLine
 62
7
  6
BYLAYER
 10
22.9545338914
 20
17.5275556844
 11
23.2145320968
 21
17.3774727675
  0
LINE
  5
231
100
AcDbEntity
  8
0
100
AcDbLine
 62
7
  6
BYLAYER
 10
22.9514287433
 20
17.5391068692
 11
23.2228258829
 21
17.3777981588
  0
LINE
  5
232
100
AcDbEntity
  8
0
100
AcDbLine
 62
7
  6
BYLAYER
 10
16.5742996035
 20
14.2690672779
 11
16.7700567281
 21
13.9452620131
  0
LINE
  5
233
100
AcDbEntity
  8
0
100
AcDbLine
 62
7
  6
BYLAYER
 10
27.340256588
 20
78.6854314662
 11
41.9088445501
 21
87.0965594401
  0
LINE
  5
234
100
AcDbEntity
  8
0
100
AcDbLine
 62
7
  6
BYLAYER
 10
23.2228258829
 20
17.3777981588
 11
23.2145299583
 21
17.3772220262
  0
LINE
  5
235
100
AcDbEntity
  8
0
100
AcDbLine
 62
7
  6
BYLAYER
 10
14.1731146293
 20
66.8816412424
 11
14.0995184649
 21
66.7472773936
  0
LINE
  5
236
100
AcDbEntity
  8
0
100
AcDbLine
 62
7
  6
BYLAYER
 10
16.7558239701
 20
70.0783775107
 11
17.2744824839
 21
70.9767253953
  0
LINE
  5
237
100
AcDbEntity
  8
0
100
AcDbLine
 62
7
  6
BYLAYER
 10
21.4869649451
 20
78.2729995467
 11
22.0087420916
 21
79.1767490914
  0
LINE
  5
238
100
AcDbEntity
  8
0
100
AcDbLine
 62
7
  6
BYLAYER
 10
16.4797857902
 20
68.7590211341
 11
16.407349244
 21
68.7172001243
  0
LINE
  5
239
100
AcDbEntity
  8
0
100
AcDbLine
 62
7
  6
BYLAYER
 10
33.4639554495
 20
78.1384174625
 11
38.3695578136
 21
80.9706514018
  0
LINE
  5
23A
100
AcDbEntity
  8
0
100
AcDbLine
 62
7
  6
BYLAYER
 10
14.3842531311
 20
67.003713135
 11
14.1730192802
 21
66.8817579423
  0
LINE
  5
23B
100
AcDbEntity
  8
0
100
AcDbLine
 62
7
  6
BYLAYER
 10
14.387790407
 20
66.836657171
 11
14.4986659104
 21
66.9006707907
  0
LINE
  5
23C
100
AcDbEntity
  8
0
100
AcDbLine
 62
7
  6
BYLAYER
 10
31.5122039664
 20
76.2768110145
 11
46.0807919284
 21
84.6879389884
  0
LINE
  5
23D
100
AcDbEntity
  8
0
100
AcDbLine
 62
7
  6
BYLAYER
 10
22.5450165834
 20
10.026963122
 11
22.509805645
 21
10.1047835733
  0
LINE
  5
23E
100
AcDbEntity
  8
0
100
AcDbLine
 62
7
  6
BYLAYER
 10
10.396920705
 20
70.8744377247
 11
10.396920705
 21
71.0441554086
  0
LINE
  5
23F
100
AcDbEntity
  8
0
100
AcDbLine
 62
7
  6
BYLAYER
 10
19.4682295279
 20
71.4277723303
 11
20.2307201756
 21
72.7484522036
  0
LINE
  5
240
100
AcDbEntity
  8
0
100
AcDbLine
 62
7
  6
BYLAYER
 10
20.5307189266
 20
73.268068167
 11
21.1307164286
 21
74.3073000937
  0
LINE
  5
241
100
AcDbEntity
  8
0
100
AcDbLine
 62
7
  6
BYLAYER
 10
21.4307151795
 20
74.826916057
 11
22.1932181826
 21
76.1476173307
  0
LINE
  5
242
100
AcDbEntity
  8
0
100
AcDbLine
 62
7
  6
BYLAYER
 10
15.788595557
 20
64.1666751537
 11
16.1991317233
 21
64.6277770101
  0
LINE
  5
243
100
AcDbEntity
  8
0
100
AcDbLine
 62
7
  6
BYLAYER
 10
33.0324898755
 20
75.3990933923
 11
48.3533413731
 21
84.2445383285
  0
LINE
  5
244
100
AcDbEntity
  8
0
100
AcDbLine
 62
7
  6
BYLAYER
 10
15.788595557
 20
64.1666751537
 11
16.7728543823
 21
64.7349338594
  0
LINE
  5
245
100
AcDbEntity
  8
0
100
AcDbLine
 62
7
  6
BYLAYER
 10
17.6270655328
 20
63.4490525503
 11
15.788595557
 21
62.3876177508
  0
LINE
  5
246
100
AcDbEntity
  8
0
100
AcDbLine
 62
7
  6
BYLAYER
 10
18.3951638851
 20
63.7928479744
 11
18.3164925807
 21
63.7474273467
  0
LINE
  5
247
100
AcDbEntity
  8
0
100
AcDbLine
 62
7
  6
BYLAYER
 10
14.0915322175
 20
11.9191193505
 11
14.0915322175
 21
12.1130386745
  0
LINE
  5
248
100
AcDbEntity
  8
0
100
AcDbLine
 62
7
  6
BYLAYER
 10
14.0915322175
 20
18.9920715354
 11
14.0915322175
 21
66.6656063919
  0
LINE
  5
249
100
AcDbEntity
  8
0
100
AcDbLine
 62
7
  6
BYLAYER
 10
15.3112964928
 20
57.0615147484
 11
15.3112964928
 21
28.9738316131
  0
LINE
  5
24A
100
AcDbEntity
  8
0
100
AcDbLine
 62
7
  6
BYLAYER
 10
15.788595557
 20
64.1666751537
 11
15.788595557
 21
62.3876177508
  0
LINE
  5
24B
100
AcDbEntity
  8
0
100
AcDbLine
 62
7
  6
BYLAYER
 10
15.788595557
 20
23.0149533507
 11
15.788595557
 21
21.2358959479
  0
LINE
  5
24C
100
AcDbEntity
  8
0
100
AcDbLine
 62
7
  6
BYLAYER
 10
15.9123765584
 20
67.8598775249
 11
15.9123765584
 21
67.6916476652
  0
LINE
  5
24D
100
AcDbEntity
  8
0
100
AcDbLine
 62
7
  6
BYLAYER
 10
19.3594996672
 20
60.3260019414
 11
18.9489635009
 21
59.864900085
  0
LINE
  5
24E
100
AcDbEntity
  8
0
100
AcDbLine
 62
7
  6
BYLAYER
 10
22.1702455146
 20
64.532567743
 11
20.2744788659
 21
63.4380528913
  0
LINE
  5
24F
100
AcDbEntity
  8
0
100
AcDbLine
 62
7
  6
BYLAYER
 10
22.5414781202
 20
64.3182413469
 11
20.6457114714
 21
63.2237264953
  0
LINE
  5
250
100
AcDbEntity
  8
0
100
AcDbLine
 62
7
  6
BYLAYER
 10
21.0565630067
 20
62.6444349619
 11
22.8950329826
 21
63.7058697614
  0
LINE
  5
251
100
AcDbEntity
  8
0
100
AcDbLine
 62
7
  6
BYLAYER
 10
16.5487180511
 20
15.748847773
 11
16.5487180511
 21
17.2352342279
  0
LINE
  5
252
100
AcDbEntity
  8
0
100
AcDbLine
 62
7
  6
BYLAYER
 10
16.7255041665
 20
57.8780030557
 11
16.7255041665
 21
29.7903199204
  0
LINE
  5
253
100
AcDbEntity
  8
0
100
AcDbLine
 62
7
  6
BYLAYER
 10
16.9906630304
 20
16.9800829474
 11
16.9906630304
 21
13.8264929527
  0
LINE
  5
254
100
AcDbEntity
  8
0
100
AcDbLine
 62
7
  6
BYLAYER
 10
17.591710341
 20
22.2769185397
 11
17.591710341
 21
23.3249652084
  0
LINE
  5
255
100
AcDbEntity
  8
0
100
AcDbLine
 62
7
  6
BYLAYER
 10
17.6270655328
 20
63.4490525503
 11
17.6270655328
 21
64.4465953396
  0
LINE
  5
256
100
AcDbEntity
  8
0
100
AcDbLine
 62
7
  6
BYLAYER
 10
18.0690058725
 20
15.849155616
 11
18.0690058725
 21
15.3382268721
  0
LINE
  5
257
100
AcDbEntity
  8
0
100
AcDbLine
 62
7
  6
BYLAYER
 10
18.0690058725
 20
14.3794512659
 11
18.0690058725
 21
13.2459394292
  0
LINE
  5
258
100
AcDbEntity
  8
0
100
AcDbLine
 62
7
  6
BYLAYER
 10
18.1220390251
 20
22.8735894453
 11
18.1220390251
 21
22.4834384012
  0
LINE
  5
259
100
AcDbEntity
  8
0
100
AcDbLine
 62
7
  6
BYLAYER
 10
18.3164925807
 20
63.859807053
 11
18.3164925807
 21
63.7474273467
  0
LINE
  5
25A
100
AcDbEntity
  8
0
100
AcDbLine
 62
7
  6
BYLAYER
 10
29.2212612881
 20
75.0126933953
 11
28.6994841417
 21
74.1089438506
  0
LINE
  5
25B
100
AcDbEntity
  8
0
100
AcDbLine
 62
7
  6
BYLAYER
 10
24.4870016804
 20
66.8126696991
 11
23.9683431666
 21
65.9143218146
  0
LINE
  5
25C
100
AcDbEntity
  8
0
100
AcDbLine
 62
7
  6
BYLAYER
 10
26.0644951124
 20
67.1143216322
 11
26.1982445554
 21
67.345983749
  0
LINE
  5
25D
100
AcDbEntity
  8
0
100
AcDbLine
 62
7
  6
BYLAYER
 10
29.0932325025
 20
72.3602777956
 11
29.2269819457
 21
72.5919399126
  0
LINE
  5
25E
100
AcDbEntity
  8
0
100
AcDbLine
 62
7
  6
BYLAYER
 10
29.6244802907
 20
72.3624375744
 11
28.643234376
 21
70.662860361
  0
LINE
  5
25F
100
AcDbEntity
  8
0
100
AcDbLine
 62
7
  6
BYLAYER
 10
28.343235625
 20
70.1432443976
 11
27.743238123
 21
69.1040124709
  0
LINE
  5
260
100
AcDbEntity
  8
0
100
AcDbLine
 62
7
  6
BYLAYER
 10
27.4432393721
 20
68.5843965075
 11
26.4619934574
 21
66.884819294
  0
LINE
  5
261
100
AcDbEntity
  8
0
100
AcDbLine
 62
7
  6
BYLAYER
 10
15.3112964928
 20
57.0615147484
 11
16.7255041665
 21
57.8780030557
  0
LINE
  5
262
100
AcDbEntity
  8
0
100
AcDbLine
 62
7
  6
BYLAYER
 10
19.3594996672
 20
19.1742801385
 11
19.3594996672
 21
20.9533375414
  0
LINE
  5
263
100
AcDbEntity
  8
0
100
AcDbLine
 62
7
  6
BYLAYER
 10
19.3594996672
 20
60.3260019415
 11
19.3594996672
 21
62.1050593443
  0
LINE
  5
264
100
AcDbEntity
  8
0
100
AcDbLine
 62
7
  6
BYLAYER
 10
19.8367987315
 20
26.3610907855
 11
19.8367987315
 21
54.4487739207
  0
LINE
  5
265
100
AcDbEntity
  8
0
100
AcDbLine
 62
7
  6
BYLAYER
 10
21.0565630067
 20
7.8979479205
 11
21.0565630067
 21
8.0918672445
  0
LINE
  5
266
100
AcDbEntity
  8
0
100
AcDbLine
 62
7
  6
BYLAYER
 10
21.0565630067
 20
14.9709001054
 11
21.0565630067
 21
62.6444349619
  0
LINE
  5
267
100
AcDbEntity
  8
0
100
AcDbLine
 62
7
  6
BYLAYER
 10
21.533843524
 20
14.317650076
 11
21.533843524
 21
13.3378471759
  0
LINE
  5
268
100
AcDbEntity
  8
0
100
AcDbLine
 62
7
  6
BYLAYER
 10
21.533843524
 20
12.8479457259
 11
21.533843524
 21
11.245559733
  0
LINE
  5
269
100
AcDbEntity
  8
0
100
AcDbLine
 62
7
  6
BYLAYER
 10
21.5691987158
 20
14.467392208
 11
21.5691987158
 21
11.2251478653
  0
LINE
  5
26A
100
AcDbEntity
  8
0
100
AcDbLine
 62
7
  6
BYLAYER
 10
22.1702455146
 20
64.532567743
 11
22.1702455146
 21
65.8939913668
  0
LINE
  5
26B
100
AcDbEntity
  8
0
100
AcDbLine
 62
7
  6
BYLAYER
 10
38.3695578136
 20
80.9706514018
 11
41.90884455
 21
87.0965594401
  0
LINE
  5
26C
100
AcDbEntity
  8
0
100
AcDbLine
 62
7
  6
BYLAYER
 10
22.9834163323
 20
58.247893842
 11
22.8950329826
 21
58.1968659958
  0
LINE
  5
26D
100
AcDbEntity
  8
0
100
AcDbLine
 62
7
  6
BYLAYER
 10
51.7625492013
 20
74.3735485883
 11
54.5909645501
 21
76.0065252037
  0
LINE
  5
26E
100
AcDbEntity
  8
0
100
AcDbLine
 62
7
  6
BYLAYER
 10
23.248584901
 20
57.8270488336
 11
23.3192952847
 21
57.867873249
  0
LINE
  5
26F
100
AcDbEntity
  8
0
100
AcDbLine
 62
7
  6
BYLAYER
 10
22.5450165834
 20
14.9729265113
 11
22.5450165834
 21
14.7545121148
  0
LINE
  5
270
100
AcDbEntity
  8
0
100
AcDbLine
 62
7
  6
BYLAYER
 10
22.5450165834
 20
10.026963122
 11
22.5450165834
 21
9.8085487255
  0
LINE
  5
271
100
AcDbEntity
  8
0
100
AcDbLine
 62
7
  6
BYLAYER
 10
22.7889627767
 20
15.1137680709
 11
22.7889627767
 21
10.5209326879
  0
LINE
  5
272
100
AcDbEntity
  8
0
100
AcDbLine
 62
7
  6
BYLAYER
 10
22.8596777908
 20
24.4525164302
 11
22.8596777908
 21
17.8805788646
  0
LINE
  5
273
100
AcDbEntity
  8
0
100
AcDbLine
 62
7
  6
BYLAYER
 10
22.8950329826
 20
63.7058697614
 11
22.8950329826
 21
58.0311779652
  0
LINE
  5
274
100
AcDbEntity
  8
0
100
AcDbLine
 62
7
  6
BYLAYER
 10
22.9834163323
 20
58.247893842
 11
22.9834163323
 21
58.0617886656
  0
LINE
  5
275
100
AcDbEntity
  8
0
100
AcDbLine
 62
7
  6
BYLAYER
 10
22.9834163323
 20
25.1533460747
 11
22.9834163323
 21
17.5200945953
  0
LINE
  5
276
100
AcDbEntity
  8
0
100
AcDbLine
 62
7
  6
BYLAYER
 10
22.9834163323
 20
15.2260352135
 11
22.9834163323
 21
12.0338570325
  0
LINE
  5
277
100
AcDbEntity
  8
0
100
AcDbLine
 62
7
  6
BYLAYER
 10
23.2228258829
 20
15.3642575569
 11
23.2228258829
 21
17.3777981588
  0
LINE
  5
278
100
AcDbEntity
  8
0
100
AcDbLine
 62
7
  6
BYLAYER
 10
23.2839400929
 20
10.2351638661
 11
23.2839400929
 21
8.3674145879
  0
LINE
  5
279
100
AcDbEntity
  8
0
100
AcDbLine
 62
7
  6
BYLAYER
 10
23.3192952847
 20
25.9227350463
 11
23.3192952847
 21
57.867873249
  0
LINE
  5
27A
100
AcDbEntity
  8
0
100
AcDbLine
 62
7
  6
BYLAYER
 10
23.7612372476
 20
11.5847920768
 11
23.7612372476
 21
65.2173954742
  0
LINE
  5
27B
100
AcDbEntity
  8
0
100
AcDbLine
 62
7
  6
BYLAYER
 10
54.873806085
 20
73.1487639219
 11
54.0252814803
 21
72.6588709373
  0
LINE
  5
27C
100
AcDbEntity
  8
0
100
AcDbLine
 62
7
  6
BYLAYER
 10
55.3334235792
 20
72.7609206882
 11
55.0152268524
 21
72.577210819
  0
LINE
  5
27D
100
AcDbEntity
  8
0
100
AcDbLine
 62
7
  6
BYLAYER
 10
57.5784782623
 20
70.9747992521
 11
58.1264837362
 21
71.2911884714
  0
LINE
  5
27E
100
AcDbEntity
  8
0
100
AcDbLine
 62
7
  6
BYLAYER
 10
52.1958924225
 20
67.8467678581
 11
51.4089972827
 21
67.3924564491
  0
LINE
  5
27F
100
AcDbEntity
  8
0
100
AcDbLine
 62
7
  6
BYLAYER
 10
56.0758826083
 20
69.8623297
 11
56.4294345269
 21
70.0664517769
  0
LINE
  5
280
100
AcDbEntity
  8
0
100
AcDbLine
 62
7
  6
BYLAYER
 10
56.4294345269
 20
69.3724247224
 11
57.4900902827
 21
69.9847909532
  0
LINE
  5
281
100
AcDbEntity
  8
0
100
AcDbLine
 62
7
  6
BYLAYER
 10
51.4089972827
 20
66.1677028235
 11
52.0138160464
 21
66.5168930151
  0
LINE
  5
282
100
AcDbEntity
  8
0
100
AcDbLine
 62
7
  6
BYLAYER
 10
58.1264837362
 20
68.8825063408
 11
57.666866242
 21
68.6171476408
  0
LINE
  5
283
100
AcDbEntity
  8
0
100
AcDbLine
 62
7
  6
BYLAYER
 10
52.8246976988
 20
28.3849012554
 11
55.4844691866
 21
26.8493162106
  0
LINE
  5
284
100
AcDbEntity
  8
0
100
AcDbLine
 62
7
  6
BYLAYER
 10
55.4844634249
 20
27.8885574499
 11
53.7247169985
 21
28.9045245387
  0
LINE
  5
285
100
AcDbEntity
  8
0
100
AcDbLine
 62
7
  6
BYLAYER
 10
22.998594566
 20
57.8022942848
 11
22.8950329826
 21
58.0311779654
  0
LINE
  5
286
100
AcDbEntity
  8
0
100
AcDbLine
 62
7
  6
BYLAYER
 10
52.5019829868
 20
68.0621970082
 11
53.4712229242
 21
68.8699040619
  0
LINE
  5
287
100
AcDbEntity
  8
0
100
AcDbLine
 62
7
  6
BYLAYER
 10
56.0758826083
 20
69.8623297
 11
52.3199066097
 21
66.7323221644
  0
LINE
  5
288
100
AcDbEntity
  8
0
100
AcDbLine
 62
7
  6
BYLAYER
 10
54.8299303678
 20
29.542615966
 11
56.0370630342
 21
28.8456933626
  0
LINE
  5
289
100
AcDbEntity
  8
0
100
AcDbLine
 62
7
  6
BYLAYER
 10
52.1868115036
 20
51.6951897197
 11
51.3174913128
 21
51.4622621149
  0
LINE
  5
28A
100
AcDbEntity
  8
0
100
AcDbLine
 62
7
  6
BYLAYER
 10
21.6835677857
 20
76.4586843152
 11
21.3280558906
 21
77.3076137796
  0
LINE
  5
28B
100
AcDbEntity
  8
0
100
AcDbLine
 62
7
  6
BYLAYER
 10
15.788595557
 20
23.0149533508
 11
16.1991317233
 21
23.4760552072
  0
LINE
  5
28C
100
AcDbEntity
  8
0
100
AcDbLine
 62
7
  6
BYLAYER
 10
53.0706913001
 20
53.3690108564
 11
53.2206855012
 21
53.3838635858
  0
LINE
  5
28D
100
AcDbEntity
  8
0
100
AcDbLine
 62
7
  6
BYLAYER
 10
23.248584901
 20
57.8270488336
 11
22.8950284558
 21
58.0311701246
  0
LINE
  5
28E
100
AcDbEntity
  8
0
100
AcDbLine
 62
7
  6
BYLAYER
 10
23.3192952847
 20
57.867873249
 11
22.8950329826
 21
58.112815662
  0
LINE
  5
28F
100
AcDbEntity
  8
0
100
AcDbLine
 62
7
  6
BYLAYER
 10
22.9834163323
 20
58.247893842
 11
22.8950329826
 21
58.2989208384
  0
LINE
  5
290
100
AcDbEntity
  8
0
100
AcDbLine
 62
7
  6
BYLAYER
 10
14.6664212754
 20
66.7495870904
 11
10.5468191144
 21
70.4597798371
  0
LINE
  5
291
100
AcDbEntity
  8
0
100
AcDbLine
 62
7
  6
BYLAYER
 10
16.0614817012
 20
67.2762163845
 11
20.1818771296
 21
63.5653092059
  0
LINE
  5
292
100
AcDbEntity
  8
0
100
AcDbLine
 62
7
  6
BYLAYER
 10
55.3334235792
 20
72.7609206882
 11
55.6945133463
 21
73.3863499828
  0
LINE
  5
293
100
AcDbEntity
  8
0
100
AcDbLine
 62
7
  6
BYLAYER
 10
53.0706913001
 20
53.3690108564
 11
51.4089972827
 21
52.4096370948
  0
LINE
  5
294
100
AcDbEntity
  8
0
100
AcDbLine
 62
7
  6
BYLAYER
 10
55.4655332871
 20
55.3092052716
 11
55.2655416108
 21
55.2894026437
  0
LINE
  5
295
100
AcDbEntity
  8
0
100
AcDbLine
 62
7
  6
BYLAYER
 10
51.3174913128
 20
51.4622621149
 11
51.1590415687
 21
51.4764874305
  0
LINE
  5
296
100
AcDbEntity
  8
0
100
AcDbLine
 62
7
  6
BYLAYER
 10
52.7524945734
 20
43.5301599046
 11
51.4089800813
 21
44.3058208105
  0
LINE
  5
297
100
AcDbEntity
  8
0
100
AcDbLine
 62
7
  6
BYLAYER
 10
51.4089972827
 20
44.3874590304
 11
52.8232049571
 21
43.57098432
  0
LINE
  5
298
100
AcDbEntity
  8
0
100
AcDbLine
 62
7
  6
BYLAYER
 10
14.0995184651
 20
66.7472773939
 11
21.0485767592
 21
62.7353274789
  0
LINE
  5
299
100
AcDbEntity
  8
0
100
AcDbLine
 62
7
  6
BYLAYER
 10
20.6457114714
 20
63.2237264953
 11
20.2744788659
 21
63.4380528913
  0
LINE
  5
29A
100
AcDbEntity
  8
0
100
AcDbLine
 62
7
  6
BYLAYER
 10
14.7590230125
 20
66.622330775
 11
14.387790407
 21
66.836657171
  0
LINE
  5
29B
100
AcDbEntity
  8
0
100
AcDbLine
 62
7
  6
BYLAYER
 10
20.1818771293
 20
63.5653092062
 11
14.6664212759
 21
66.7495870898
  0
LINE
  5
29C
100
AcDbEntity
  8
0
100
AcDbLine
 62
7
  6
BYLAYER
 10
53.3888880269
 20
44.5507815768
 11
51.5281398113
 21
45.6250607565
  0
LINE
  5
29D
100
AcDbEntity
  8
0
100
AcDbLine
 62
7
  6
BYLAYER
 10
51.5695613057
 20
45.76444707
 11
53.3888880269
 21
44.7140820602
  0
LINE
  5
29E
100
AcDbEntity
  8
0
100
AcDbLine
 62
7
  6
BYLAYER
 10
28.5405750871
 20
73.1435580835
 11
28.8960869815
 21
72.2946286208
  0
LINE
  5
29F
100
AcDbEntity
  8
0
100
AcDbLine
 62
7
  6
BYLAYER
 10
41.9146989668
 20
88.7525622051
 11
41.9146989668
 21
88.5891957522
  0
LINE
  5
2A0
100
AcDbEntity
  8
0
100
AcDbLine
 62
7
  6
BYLAYER
 10
19.3594996672
 20
19.1742801385
 11
18.9489635009
 21
18.7131782821
  0
LINE
  5
2A1
100
AcDbEntity
  8
0
100
AcDbLine
 62
7
  6
BYLAYER
 10
14.5141536289
 20
13.1045448302
 11
15.4114161312
 21
14.077887588
  0
LINE
  5
2A2
100
AcDbEntity
  8
0
100
AcDbLine
 62
7
  6
BYLAYER
 10
16.7255041665
 20
29.7903199204
 11
15.3112964928
 21
28.9738316131
  0
LINE
  5
2A3
100
AcDbEntity
  8
0
100
AcDbLine
 62
7
  6
BYLAYER
 10
58.2728148063
 20
46.3353918876
 11
58.1808097087
 21
46.3720093616
  0
LINE
  5
2A4
100
AcDbEntity
  8
0
100
AcDbLine
 62
7
  6
BYLAYER
 10
53.8835694553
 20
44.9996848113
 11
51.7623771928
 21
46.22432803
  0
LINE
  5
2A5
100
AcDbEntity
  8
0
100
AcDbLine
 62
7
  6
BYLAYER
 10
51.9304473045
 20
46.5154405882
 11
54.873806085
 21
44.8161300475
  0
LINE
  5
2A6
100
AcDbEntity
  8
0
100
AcDbLine
 62
7
  6
BYLAYER
 10
10.5468191145
 20
70.4597798369
 11
16.0622749679
 21
67.2755019532
  0
LINE
  5
2A7
100
AcDbEntity
  8
0
100
AcDbLine
 62
7
  6
BYLAYER
 10
15.9123765584
 20
67.6916476653
 11
10.396920705
 21
70.875925549
  0
LINE
  5
2A8
100
AcDbEntity
  8
0
100
AcDbLine
 62
7
  6
BYLAYER
 10
10.396920705
 20
71.0441554088
 11
15.9123765584
 21
67.8598775252
  0
LINE
  5
2A9
100
AcDbEntity
  8
0
100
AcDbLine
 62
7
  6
BYLAYER
 10
22.5414781202
 20
64.3182413469
 11
22.1702455146
 21
64.532567743
  0
LINE
  5
2AA
100
AcDbEntity
  8
0
100
AcDbLine
 62
7
  6
BYLAYER
 10
55.0152268524
 20
45.7346938558
 11
52.1868115036
 21
47.3676432766
  0
LINE
  5
2AB
100
AcDbEntity
  8
0
100
AcDbLine
 62
7
  6
BYLAYER
 10
52.1868115036
 20
47.5309395785
 11
55.1566476199
 21
45.8163426866
  0
LINE
  5
2AC
100
AcDbEntity
  8
0
100
AcDbLine
 62
7
  6
BYLAYER
 10
16.4073492443
 20
68.7172001244
 11
10.8918933908
 21
71.9014780081
  0
LINE
  5
2AD
100
AcDbEntity
  8
0
100
AcDbLine
 62
7
  6
BYLAYER
 10
10.9643299364
 20
71.9432990176
 11
16.4797857899
 21
68.7590211339
  0
LINE
  5
2AE
100
AcDbEntity
  8
0
100
AcDbLine
 62
7
  6
BYLAYER
 10
16.7070445824
 20
68.7947156369
 11
11.191588729
 21
71.9789935206
  0
LINE
  5
2AF
100
AcDbEntity
  8
0
100
AcDbLine
 62
7
  6
BYLAYER
 10
11.5756470881
 20
71.8286066626
 11
17.0911029415
 21
68.6443287789
  0
LINE
  5
2B0
100
AcDbEntity
  8
0
100
AcDbLine
 62
7
  6
BYLAYER
 10
17.6915847971
 20
68.5340865984
 11
18.3638898479
 21
68.1459398775
  0
LINE
  5
2B1
100
AcDbEntity
  8
0
100
AcDbLine
 62
7
  6
BYLAYER
 10
22.1105622089
 20
66.1703915925
 11
23.7612372476
 21
65.2173954742
  0
LINE
  5
2B2
100
AcDbEntity
  8
0
100
AcDbLine
 62
7
  6
BYLAYER
 10
18.9643717035
 20
68.035697697
 11
19.6366767543
 21
67.647550976
  0
LINE
  5
2B3
100
AcDbEntity
  8
0
100
AcDbLine
 62
7
  6
BYLAYER
 10
17.6119351821
 20
68.9712916939
 11
12.0964793287
 21
72.1555695776
  0
LINE
  5
2B4
100
AcDbEntity
  8
0
100
AcDbLine
 62
7
  6
BYLAYER
 10
21.7107153984
 20
76.4261848225
 11
21.6835677857
 21
76.4586843152
  0
LINE
  5
2B5
100
AcDbEntity
  8
0
100
AcDbLine
 62
7
  6
BYLAYER
 10
55.0152268524
 20
45.7346938558
 11
55.1566476199
 21
45.8163426866
  0
LINE
  5
2B6
100
AcDbEntity
  8
0
100
AcDbLine
 62
7
  6
BYLAYER
 10
15.788595557
 20
23.0149533507
 11
16.7728543823
 21
23.5832120565
  0
LINE
  5
2B7
100
AcDbEntity
  8
0
100
AcDbLine
 62
7
  6
BYLAYER
 10
53.3888880269
 20
44.7140820602
 11
53.8835694553
 21
44.9996848113
  0
LINE
  5
2B8
100
AcDbEntity
  8
0
100
AcDbLine
 62
7
  6
BYLAYER
 10
23.2485849012
 20
57.8270488337
 11
22.998594566
 21
57.8022942848
  0
LINE
  5
2B9
100
AcDbEntity
  8
0
100
AcDbLine
 62
7
  6
BYLAYER
 10
21.6650730117
 20
66.8532859048
 11
20.1783497191
 21
67.4354465045
  0
LINE
  5
2BA
100
AcDbEntity
  8
0
100
AcDbLine
 62
7
  6
BYLAYER
 10
19.6366767543
 20
67.647550976
 11
18.9055628128
 21
67.9338354061
  0
LINE
  5
2BB
100
AcDbEntity
  8
0
100
AcDbLine
 62
7
  6
BYLAYER
 10
18.3638898479
 20
68.1459398774
 11
17.6327759065
 21
68.4322243075
  0
LINE
  5
2BC
100
AcDbEntity
  8
0
100
AcDbLine
 62
7
  6
BYLAYER
 10
17.0911029416
 20
68.644328779
 11
16.7070445827
 21
68.7947156369
  0
LINE
  5
2BD
100
AcDbEntity
  8
0
100
AcDbLine
 62
7
  6
BYLAYER
 10
21.7559565692
 20
66.809452219
 11
21.6650730117
 21
66.8532859048
  0
LINE
  5
2BE
100
AcDbEntity
  8
0
100
AcDbLine
 62
7
  6
BYLAYER
 10
20.2377470129
 20
67.677334312
 11
21.6650730113
 21
66.8532859051
  0
LINE
  5
2BF
100
AcDbEntity
  8
0
100
AcDbLine
 62
7
  6
BYLAYER
 10
20.2396364523
 20
67.68502881
 11
21.7560208734
 21
66.8095636619
  0
LINE
  5
2C0
100
AcDbEntity
  8
0
100
AcDbLine
 62
7
  6
BYLAYER
 10
18.8847220885
 20
68.4729027924
 11
13.3692662351
 21
71.6571806761
  0
LINE
  5
2C1
100
AcDbEntity
  8
0
100
AcDbLine
 62
7
  6
BYLAYER
 10
20.1575089948
 20
67.9745138908
 11
14.6420531414
 21
71.1587917745
  0
LINE
  5
2C2
100
AcDbEntity
  8
0
100
AcDbLine
 62
7
  6
BYLAYER
 10
23.9683431665
 20
65.9143218145
 11
16.75582397
 21
70.0783775106
  0
LINE
  5
2C3
100
AcDbEntity
  8
0
100
AcDbLine
 62
7
  6
BYLAYER
 10
52.1868115036
 20
49.8325675505
 11
58.1808097088
 21
46.3720093615
  0
LINE
  5
2C4
100
AcDbEntity
  8
0
100
AcDbLine
 62
7
  6
BYLAYER
 10
52.1868115036
 20
49.8493191974
 11
58.2729233341
 21
46.3355803852
  0
LINE
  5
2C5
100
AcDbEntity
  8
0
100
AcDbLine
 62
7
  6
BYLAYER
 10
17.2744824837
 20
70.9767253949
 11
24.4870016802
 21
66.8126696988
  0
LINE
  5
2C6
100
AcDbEntity
  8
0
100
AcDbLine
 62
7
  6
BYLAYER
 10
51.3174913127
 20
51.4622621148
 11
51.0962853537
 21
51.5899725456
  0
LINE
  5
2C7
100
AcDbEntity
  8
0
100
AcDbLine
 62
7
  6
BYLAYER
 10
52.1868115036
 20
51.6951897196
 11
51.2464844583
 21
52.2380755106
  0
LINE
  5
2C8
100
AcDbEntity
  8
0
100
AcDbLine
 62
7
  6
BYLAYER
 10
25.2435876683
 20
67.4329766619
 11
18.0310684718
 21
71.597032358
  0
LINE
  5
2C9
100
AcDbEntity
  8
0
100
AcDbLine
 62
7
  6
BYLAYER
 10
26.4619934574
 20
66.884819294
 11
26.0644951124
 21
67.1143216322
  0
LINE
  5
2CA
100
AcDbEntity
  8
0
100
AcDbLine
 62
7
  6
BYLAYER
 10
18.9443456848
 20
71.7136435725
 11
26.1568648813
 21
67.5495878764
  0
LINE
  5
2CB
100
AcDbEntity
  8
0
100
AcDbLine
 62
7
  6
BYLAYER
 10
18.9857242707
 20
71.7063405684
 11
26.1982434672
 21
67.5422848723
  0
LINE
  5
2CC
100
AcDbEntity
  8
0
100
AcDbLine
 62
7
  6
BYLAYER
 10
28.8960869815
 20
72.2946286208
 11
28.923234719
 21
72.2621293393
  0
LINE
  5
2CD
100
AcDbEntity
  8
0
100
AcDbLine
 62
7
  6
BYLAYER
 10
49.1272181633
 20
84.4251400561
 11
49.1272181633
 21
84.588506509
  0
LINE
  5
2CE
100
AcDbEntity
  8
0
100
AcDbLine
 62
7
  6
BYLAYER
 10
51.8232091206
 20
46.3296944033
 11
52.1868115036
 21
46.9594757003
  0
LINE
  5
2CF
100
AcDbEntity
  8
0
100
AcDbLine
 62
7
  6
BYLAYER
 10
54.873806085
 20
44.8161300475
 11
54.0252814803
 21
44.2445868212
  0
LINE
  5
2D0
100
AcDbEntity
  8
0
100
AcDbLine
 62
7
  6
BYLAYER
 10
52.8232049571
 20
43.57098432
 11
52.7524945734
 21
43.5301599046
  0
LINE
  5
2D1
100
AcDbEntity
  8
0
100
AcDbLine
 62
7
  6
BYLAYER
 10
17.591710341
 20
22.2769185397
 11
15.788595557
 21
21.2358959479
  0
LINE
  5
2D2
100
AcDbEntity
  8
0
100
AcDbLine
 62
7
  6
BYLAYER
 10
18.3951638851
 20
22.6411261714
 11
18.1220390251
 21
22.4834384012
  0
LINE
  5
2D3
100
AcDbEntity
  8
0
100
AcDbLine
 62
7
  6
BYLAYER
 10
11.1915887288
 20
71.9789935207
 11
11.5756470881
 21
71.8286066626
  0
LINE
  5
2D4
100
AcDbEntity
  8
0
100
AcDbLine
 62
7
  6
BYLAYER
 10
52.8656525057
 20
53.2506323599
 11
53.4278010758
 21
52.926083074
  0
LINE
  5
2D5
100
AcDbEntity
  8
0
100
AcDbLine
 62
7
  6
BYLAYER
 10
53.0706885841
 20
53.3690061521
 11
53.2828224513
 21
53.2465333774
  0
LINE
  5
2D6
100
AcDbEntity
  8
0
100
AcDbLine
 62
7
  6
BYLAYER
 10
20.1432205399
 20
72.7989715862
 11
27.4432393721
 21
68.5843965075
  0
LINE
  5
2D7
100
AcDbEntity
  8
0
100
AcDbLine
 62
7
  6
BYLAYER
 10
27.743238123
 20
69.1040124709
 11
20.4432192909
 21
73.3185875496
  0
LINE
  5
2D8
100
AcDbEntity
  8
0
100
AcDbLine
 62
7
  6
BYLAYER
 10
21.0432167928
 20
74.3578194763
 11
28.343235625
 21
70.1432443976
  0
LINE
  5
2D9
100
AcDbEntity
  8
0
100
AcDbLine
 62
7
  6
BYLAYER
 10
51.055445364
 20
66.7800831636
 11
51.055445364
 21
66.3718319551
  0
LINE
  5
2DA
100
AcDbEntity
  8
0
100
AcDbLine
 62
7
  6
BYLAYER
 10
51.055445364
 20
51.7972638093
 11
51.055445364
 21
51.705311105
  0
LINE
  5
2DB
100
AcDbEntity
  8
0
100
AcDbLine
 62
7
  6
BYLAYER
 10
51.4089972827
 20
44.3058506048
 11
51.4089972827
 21
44.9358417224
  0
LINE
  5
2DC
100
AcDbEntity
  8
0
100
AcDbLine
 62
7
  6
BYLAYER
 10
51.4797073769
 20
79.0254481191
 11
51.4797073769
 21
74.1772572937
  0
LINE
  5
2DD
100
AcDbEntity
  8
0
100
AcDbLine
 62
7
  6
BYLAYER
 10
52.1868115036
 20
51.6951897197
 11
52.1868115036
 21
46.9594757003
  0
LINE
  5
2DE
100
AcDbEntity
  8
0
100
AcDbLine
 62
7
  6
BYLAYER
 10
53.3888880269
 20
44.7140820602
 11
53.3888880269
 21
44.5507815768
  0
LINE
  5
2DF
100
AcDbEntity
  8
0
100
AcDbLine
 62
7
  6
BYLAYER
 10
28.2439013397
 20
11.025800382
 11
33.0635500305
 21
16.9758654324
  0
LINE
  5
2E0
100
AcDbEntity
  8
0
100
AcDbLine
 62
7
  6
BYLAYER
 10
22.3764469198
 20
10.0567161573
 11
21.4791844181
 21
9.0833734001
  0
LINE
  5
2E1
100
AcDbEntity
  8
0
100
AcDbLine
 62
7
  6
BYLAYER
 10
51.4089972827
 20
66.1677028235
 11
51.1590069475
 21
66.1429482745
  0
LINE
  5
2E2
100
AcDbEntity
  8
0
100
AcDbLine
 62
7
  6
BYLAYER
 10
26.1981747834
 20
67.5421641648
 11
26.1568648813
 21
67.5495878764
  0
LINE
  5
2E3
100
AcDbEntity
  8
0
100
AcDbLine
 62
7
  6
BYLAYER
 10
54.2609995691
 20
55.8276103783
 11
55.2314456756
 21
55.2673357326
  0
LINE
  5
2E4
100
AcDbEntity
  8
0
100
AcDbLine
 62
7
  6
BYLAYER
 10
28.643234376
 20
70.662860361
 11
21.3432155438
 21
74.8774354397
  0
LINE
  5
2E5
100
AcDbEntity
  8
0
100
AcDbLine
 62
7
  6
BYLAYER
 10
54.240011733
 20
56.0167558365
 11
55.4655382174
 21
55.3092137976
  0
LINE
  5
2E6
100
AcDbEntity
  8
0
100
AcDbLine
 62
7
  6
BYLAYER
 10
21.7107151021
 20
76.4261843121
 11
28.9232342986
 21
72.262128616
  0
LINE
  5
2E7
100
AcDbEntity
  8
0
100
AcDbLine
 62
7
  6
BYLAYER
 10
21.6835677857
 20
76.4586843152
 11
28.8960869815
 21
72.2946286208
  0
LINE
  5
2E8
100
AcDbEntity
  8
0
100
AcDbLine
 62
7
  6
BYLAYER
 10
29.2269819457
 20
72.5919399126
 11
29.6244802907
 21
72.3624375744
  0
LINE
  5
2E9
100
AcDbEntity
  8
0
100
AcDbLine
 62
7
  6
BYLAYER
 10
21.3280558907
 20
77.3076137795
 11
28.5405750872
 21
73.1435580834
  0
LINE
  5
2EA
100
AcDbEntity
  8
0
100
AcDbLine
 62
7
  6
BYLAYER
 10
53.2206855012
 20
53.3838635858
 11
53.2828224513
 21
53.2465333774
  0
LINE
  5
2EB
100
AcDbEntity
  8
0
100
AcDbLine
 62
7
  6
BYLAYER
 10
54.0252814803
 20
44.2445868212
 11
53.8835694553
 21
44.9996848113
  0
LINE
  5
2EC
100
AcDbEntity
  8
0
100
AcDbLine
 62
7
  6
BYLAYER
 10
54.0252814803
 20
72.6588709373
 11
54.0252814803
 21
69.9869360588
  0
LINE
  5
2ED
100
AcDbEntity
  8
0
100
AcDbLine
 62
7
  6
BYLAYER
 10
56.0051722245
 20
75.1900086772
 11
56.0051722245
 21
74.431739493
  0
LINE
  5
2EE
100
AcDbEntity
  8
0
100
AcDbLine
 62
7
  6
BYLAYER
 10
56.4294345269
 20
70.0664517769
 11
56.4294345269
 21
69.3724247224
  0
LINE
  5
2EF
100
AcDbEntity
  8
0
100
AcDbLine
 62
7
  6
BYLAYER
 10
57.5784782623
 20
70.9747992521
 11
57.4900902827
 21
69.9847909532
  0
LINE
  5
2F0
100
AcDbEntity
  8
0
100
AcDbLine
 62
7
  6
BYLAYER
 10
55.0152268524
 20
45.7346938558
 11
54.873806085
 21
44.8161300475
  0
LINE
  5
2F1
100
AcDbEntity
  8
0
100
AcDbLine
 62
7
  6
BYLAYER
 10
17.7508091461
 20
15.154517003
 11
18.0690058725
 21
15.3382268721
  0
LINE
  5
2F2
100
AcDbEntity
  8
0
100
AcDbLine
 62
7
  6
BYLAYER
 10
15.8274768402
 20
13.9726083246
 11
16.2577950936
 21
14.2210512011
  0
LINE
  5
2F3
100
AcDbEntity
  8
0
100
AcDbLine
 62
7
  6
BYLAYER
 10
16.5742996035
 20
14.2690672779
 11
15.9356045666
 21
13.9003187275
  0
LINE
  5
2F4
100
AcDbEntity
  8
0
100
AcDbLine
 62
7
  6
BYLAYER
 10
16.313911538
 20
13.6819080369
 11
16.7700567281
 21
13.9452620131
  0
LINE
  5
2F5
100
AcDbEntity
  8
0
100
AcDbLine
 62
7
  6
BYLAYER
 10
26.1568648813
 20
67.5495878764
 11
25.2435876682
 21
67.4329766619
  0
LINE
  5
2F6
100
AcDbEntity
  8
0
100
AcDbLine
 62
7
  6
BYLAYER
 10
58.3764740713
 20
71.3159430203
 11
58.1264837362
 21
71.2911884714
  0
LINE
  5
2F7
100
AcDbEntity
  8
0
100
AcDbLine
 62
7
  6
BYLAYER
 10
20.1575001414
 20
67.974498592
 11
19.9075132367
 21
67.9497499486
  0
LINE
  5
2F8
100
AcDbEntity
  8
0
100
AcDbLine
 62
7
  6
BYLAYER
 10
18.8847132351
 20
68.4728874935
 11
18.6347263303
 21
68.4481388501
  0
LINE
  5
2F9
100
AcDbEntity
  8
0
100
AcDbLine
 62
7
  6
BYLAYER
 10
17.6119263287
 20
68.971276395
 11
17.361939424
 21
68.9465277516
  0
LINE
  5
2FA
100
AcDbEntity
  8
0
100
AcDbLine
 62
7
  6
BYLAYER
 10
18.9443456848
 20
71.7136435725
 11
18.9856555869
 21
71.7062198609
  0
LINE
  5
2FB
100
AcDbEntity
  8
0
100
AcDbLine
 62
7
  6
BYLAYER
 10
28.6994841418
 20
74.1089438509
 11
21.4869649453
 21
78.272999547
  0
LINE
  5
2FC
100
AcDbEntity
  8
0
100
AcDbLine
 62
7
  6
BYLAYER
 10
22.0087420917
 20
79.1767490915
 11
29.2212612882
 21
75.0126933954
  0
LINE
  5
2FD
100
AcDbEntity
  8
0
100
AcDbLine
 62
7
  6
BYLAYER
 10
30.0710213234
 20
75.6355656633
 11
22.8585021269
 21
79.7996213594
  0
LINE
  5
2FE
100
AcDbEntity
  8
0
100
AcDbLine
 62
7
  6
BYLAYER
 10
57.3133143234
 20
68.0047743553
 11
57.3133143234
 21
67.8904640169
  0
LINE
  5
2FF
100
AcDbEntity
  8
0
100
AcDbLine
 62
7
  6
BYLAYER
 10
58.4800356548
 20
71.0870593397
 11
58.4800356548
 21
69.4948796263
  0
LINE
  5
300
100
AcDbEntity
  8
0
100
AcDbLine
 62
7
  6
BYLAYER
 10
58.4800356548
 20
45.8777942374
 11
58.4800356548
 21
29.1800728449
  0
LINE
  5
301
100
AcDbEntity
  8
0
100
AcDbLine
 62
7
  6
BYLAYER
 10
23.2228258829
 20
15.3642575569
 11
22.5450165834
 21
14.9729265113
  0
LINE
  5
302
100
AcDbEntity
  8
0
100
AcDbLine
 62
7
  6
BYLAYER
 10
21.533843524
 20
14.317650076
 11
21.2156467974
 21
14.1339402068
  0
LINE
  5
303
100
AcDbEntity
  8
0
100
AcDbLine
 62
7
  6
BYLAYER
 10
21.2156467974
 20
13.1541373068
 11
21.533843524
 21
13.3378471759
  0
LINE
  5
304
100
AcDbEntity
  8
0
100
AcDbLine
 62
7
  6
BYLAYER
 10
21.533843524
 20
12.8479457259
 11
21.2156467974
 21
12.6642358567
  0
LINE
  5
305
100
AcDbEntity
  8
0
100
AcDbLine
 62
7
  6
BYLAYER
 10
18.0310684715
 20
71.5970323579
 11
18.9443456848
 21
71.7136435725
  0
LINE
  5
306
100
AcDbEntity
  8
0
100
AcDbLine
 62
7
  6
BYLAYER
 10
14.3920573833
 20
71.1340278322
 11
14.6420441922
 21
71.1587763104
  0
LINE
  5
307
100
AcDbEntity
  8
0
100
AcDbLine
 62
7
  6
BYLAYER
 10
13.1192704769
 20
71.6324167338
 11
13.3692572859
 21
71.6571652119
  0
LINE
  5
308
100
AcDbEntity
  8
0
100
AcDbLine
 62
7
  6
BYLAYER
 10
25.819970679
 20
79.5631490884
 11
33.0324898755
 21
75.3990933923
  0
LINE
  5
309
100
AcDbEntity
  8
0
100
AcDbLine
 62
7
  6
BYLAYER
 10
51.4089972827
 20
66.1677028235
 11
51.0554408374
 21
66.3718241145
  0
LINE
  5
30A
100
AcDbEntity
  8
0
100
AcDbLine
 62
7
  6
BYLAYER
 10
51.1290369371
 20
67.0277089159
 11
52.0138160464
 21
66.5168930151
  0
LINE
  5
30B
100
AcDbEntity
  8
0
100
AcDbLine
 62
7
  6
BYLAYER
 10
52.3199066095
 20
66.7323221642
 11
51.3267982626
 21
67.3056805645
  0
LINE
  5
30C
100
AcDbEntity
  8
0
100
AcDbLine
 62
7
  6
BYLAYER
 10
34.1002931059
 20
77.7710360565
 11
33.4639554494
 21
78.1384174625
  0
LINE
  5
30D
100
AcDbEntity
  8
0
100
AcDbLine
 62
7
  6
BYLAYER
 10
51.1590069475
 20
66.1429482745
 11
51.055445364
 21
66.3718319551
  0
LINE
  5
30E
100
AcDbEntity
  8
0
100
AcDbLine
 62
7
  6
BYLAYER
 10
56.0370630341
 20
28.8456933625
 11
55.484463425
 21
27.88855745
  0
LINE
  5
30F
100
AcDbEntity
  8
0
100
AcDbLine
 62
7
  6
BYLAYER
 10
55.5370651159
 20
29.9508779662
 11
33.0635500305
 21
16.9758654324
  0
LINE
  5
310
100
AcDbEntity
  8
0
100
AcDbLine
 62
7
  6
BYLAYER
 10
22.5450165834
 20
9.8085487255
 11
23.2839400929
 21
10.2351638661
  0
LINE
  5
311
100
AcDbEntity
  8
0
100
AcDbLine
 62
7
  6
BYLAYER
 10
23.2839400929
 20
8.9413538023
 11
24.6464501278
 21
9.7279946422
  0
LINE
  5
312
100
AcDbEntity
  8
0
100
AcDbLine
 62
7
  6
BYLAYER
 10
11.8464835706
 20
72.1308056353
 11
12.0964703795
 21
72.1555541135
  0
LINE
  5
313
100
AcDbEntity
  8
0
100
AcDbLine
 62
7
  6
BYLAYER
 10
33.0324898755
 20
75.3990933923
 11
30.0710213235
 21
75.6355656633
  0
LINE
  5
314
100
AcDbEntity
  8
0
100
AcDbLine
 62
7
  6
BYLAYER
 10
51.3944202184
 20
79.5347283967
 11
49.6307886497
 21
84.111709837
  0
LINE
  5
315
100
AcDbEntity
  8
0
100
AcDbLine
 62
7
  6
BYLAYER
 10
54.873806085
 20
73.1487639219
 11
55.0152268524
 21
72.577210819
  0
LINE
  5
316
100
AcDbEntity
  8
0
100
AcDbLine
 62
7
  6
BYLAYER
 10
23.2839400929
 20
8.3674145879
 11
21.7636668436
 21
7.4896896574
  0
LINE
  5
317
100
AcDbEntity
  8
0
100
AcDbLine
 62
7
  6
BYLAYER
 10
57.7729318176
 20
27.9553262739
 11
55.9344615513
 21
26.8938913067
  0
LINE
  5
318
100
AcDbEntity
  8
0
100
AcDbLine
 62
7
  6
BYLAYER
 10
26.5896525964
 20
9.9517590238
 11
27.8763603098
 21
10.6946356341
  0
LINE
  5
319
100
AcDbEntity
  8
0
100
AcDbLine
 62
7
  6
BYLAYER
 10
22.8585021268
 20
79.7996213594
 11
25.8199706789
 21
79.5631490884
  0
LINE
  5
31A
100
AcDbEntity
  8
0
100
AcDbLine
 62
7
  6
BYLAYER
 10
27.340256588
 20
78.6854314662
 11
33.4639554495
 21
78.1384174625
  0
LINE
  5
31B
100
AcDbEntity
  8
0
100
AcDbLine
 62
7
  6
BYLAYER
 10
56.0758826083
 20
69.8623297
 11
54.0252814803
 21
71.04621803
  0
LINE
  5
31C
100
AcDbEntity
  8
0
100
AcDbLine
 62
7
  6
BYLAYER
 10
56.4294345269
 20
70.0664517769
 11
54.0252814803
 21
71.4544587846
  0
LINE
  5
31D
100
AcDbEntity
  8
0
100
AcDbLine
 62
7
  6
BYLAYER
 10
39.0058954701
 20
80.6032699959
 11
38.3695578136
 21
80.9706514018
  0
LINE
  5
31E
100
AcDbEntity
  8
0
100
AcDbLine
 62
7
  6
BYLAYER
 10
54.0252814803
 20
71.9851539936
 11
57.4900902827
 21
69.9847909532
  0
LINE
  5
31F
100
AcDbEntity
  8
0
100
AcDbLine
 62
7
  6
BYLAYER
 10
57.5784782623
 20
70.9747992521
 11
54.3433953668
 21
72.8425329789
  0
LINE
  5
320
100
AcDbEntity
  8
0
100
AcDbLine
 62
7
  6
BYLAYER
 10
51.7625492013
 20
74.3735485883
 11
51.4797073769
 21
74.5368436975
  0
LINE
  5
321
100
AcDbEntity
  8
0
100
AcDbLine
 62
7
  6
BYLAYER
 10
55.0152268524
 20
72.577210819
 11
54.4495292969
 21
72.9038090663
  0
LINE
  5
322
100
AcDbEntity
  8
0
100
AcDbLine
 62
7
  6
BYLAYER
 10
58.4800356548
 20
71.0870593397
 11
58.3764740713
 21
71.3159430203
  0
LINE
  5
323
100
AcDbEntity
  8
0
100
AcDbLine
 62
7
  6
BYLAYER
 10
55.3952594042
 20
72.8680259018
 11
58.1264837362
 21
71.2911884714
  0
LINE
  5
324
100
AcDbEntity
  8
0
100
AcDbLine
 62
7
  6
BYLAYER
 10
55.4684792032
 20
72.9948491829
 11
58.3764794944
 21
71.3159524136
  0
LINE
  5
325
100
AcDbEntity
  8
0
100
AcDbLine
 62
7
  6
BYLAYER
 10
51.4797073769
 20
77.8027697337
 11
54.5909645501
 21
76.0065252037
  0
LINE
  5
326
100
AcDbEntity
  8
0
100
AcDbLine
 62
7
  6
BYLAYER
 10
55.5909475831
 20
76.1055809729
 11
51.4797073769
 21
78.4791529152
  0
LINE
  5
327
100
AcDbEntity
  8
0
100
AcDbLine
 62
7
  6
BYLAYER
 10
46.0807919284
 20
84.6879389884
 11
41.90884455
 21
87.0965594401
  0
LINE
  5
328
100
AcDbEntity
  8
0
100
AcDbLine
 62
7
  6
BYLAYER
 10
49.3018439868
 20
84.5179894131
 11
49.1272181633
 21
84.588506509
  0
LINE
  5
329
100
AcDbEntity
  8
0
100
AcDbLine
 62
7
  6
BYLAYER
 10
41.9146989668
 20
88.7525622051
 11
42.0893247903
 21
88.6820451092
  0
LINE
  5
32A
100
AcDbEntity
  8
0
100
AcDbLine
 62
7
  6
BYLAYER
 10
41.1408221766
 20
88.4085940246
 11
48.3533413731
 21
84.2445383285
  0
LINE
  5
32B
100
AcDbEntity
  8
0
100
AcDbLine
 62
7
  6
BYLAYER
 10
49.1272181633
 20
84.4251400561
 11
41.9146989668
 21
88.5891957522
  0
LINE
  5
32C
100
AcDbEntity
  8
0
100
AcDbLine
 62
7
  6
BYLAYER
 10
41.9146989668
 20
88.7525622051
 11
49.1272181633
 21
84.588506509
  0
LINE
  5
32D
100
AcDbEntity
  8
0
100
AcDbLine
 62
7
  6
BYLAYER
 10
49.3018511668
 20
84.518001855
 11
42.0893319703
 21
88.6820575512
  0
ARC
  5
32E
100
AcDbEntity
  8
0
100
AcDbCircle
 62
7
  6
BYLAYER
 10
21.9919579422
 20
23.373490641
 40
3.8939673344
100
AcDbArc
 50
223.2685902146
 51
227.1819152491
  0
ARC
  5
32F
100
AcDbEntity
  8
0
100
AcDbCircle
 62
7
  6
BYLAYER
 10
20.7098843953
 20
22.197657086
 40
2.6646291864
100
AcDbArc
 50
238.6079091589
 51
239.5503166244
  0
ARC
  5
330
100
AcDbEntity
  8
0
100
AcDbCircle
 62
7
  6
BYLAYER
 10
18.2471178947
 20
69.217446839
 40
1.7219637601
100
AcDbArc
 50
150.0019674519
 51
154.0725732649
  0
ARC
  5
331
100
AcDbEntity
  8
0
100
AcDbCircle
 62
7
  6
BYLAYER
 10
53.4372575157
 20
53.5503316251
 40
0.6808592414
100
AcDbArc
 50
300.0104950667
 51
302.0589947037
  0
ARC
  5
332
100
AcDbEntity
  8
0
100
AcDbCircle
 62
7
  6
BYLAYER
 10
21.4489478062
 20
14.2596285228
 40
0.4337154255
100
AcDbArc
 50
132.5116767565
 51
138.8641110954
  0
ARC
  5
333
100
AcDbEntity
  8
0
100
AcDbCircle
 62
7
  6
BYLAYER
 10
22.5548001646
 20
9.8925931936
 40
0.2423762099
100
AcDbArc
 50
132.1820397839
 51
137.3793369793
  0
SPLINE
  5
334
100
AcDbEntity
  8
0
100
AcDbSpline
 62
7
  6
BYLAYER
 70
0
 71
3
 72
11
 73
7
 74
0
 42
0.0000001
 43
0.0000001
 44
0.0000000001
 40
0.0
 40
0.0
 40
0.0
 40
0.0
 40
0.2894454514
 40
0.5491202674
 40
0.7822914205
 40
1.0
 40
1.0
 40
1.0
 40
1.0
 10
55.5370651159
 20
29.9508779662
 30
0.0
 10
55.5809033435
 20
29.9761878276
 30
0.0
 10
55.6682235421
 20
30.0176383298
 30
0.0
 10
55.8023635824
 20
30.0501585042
 30
0.0
 10
55.9283039404
 20
30.0469681798
 30
0.0
 10
56.0040715528
 20
30.0194227963
 30
0.0
 10
56.0370350726
 20
30.0003689436
 30
0.0
  0
SPLINE
  5
335
100
AcDbEntity
  8
0
100
AcDbSpline
 62
7
  6
BYLAYER
 70
0
 71
3
 72
9
 73
5
 74
0
 42
0.0000001
 43
0.0000001
 44
0.0000000001
 40
0.0
 40
0.0
 40
0.0
 40
0.0
 40
0.4768953953
 40
1.0
 40
1.0
 40
1.0
 40
1.0
 10
27.8763603098
 20
10.6946356341
 30
0.0
 10
27.944772897
 20
10.734133424
 30
0.0
 10
28.0781457513
 20
10.8347265759
 30
0.0
 10
28.1905533512
 20
10.9575195697
 30
0.0
 10
28.2439013397
 20
11.025800382
 30
0.0
  0
SPLINE
  5
336
100
AcDbEntity
  8
0
100
AcDbSpline
 62
7
  6
BYLAYER
 70
0
 71
3
 72
13
 73
9
 74
0
 42
0.0000001
 43
0.0000001
 44
0.0000000001
 40
0.0
 40
0.0
 40
0.0
 40
0.0
 40
0.3060856286
 40
0.5828829574
 40
0.7036678648
 40
0.8116871349
 40
0.9089886522
 40
1.0
 40
1.0
 40
1.0
 40
1.0
 10
26.1982445554
 20
67.345983749
 30
0.0
 10
26.2091499594
 20
67.3648725677
 30
0.0
 10
26.2260211968
 20
67.4032269381
 30
0.0
 10
26.2349843744
 20
67.4533224638
 30
0.0
 10
26.2321543189
 20
67.4894417241
 30
0.0
 10
26.2254946593
 20
67.5119242015
 30
0.0
 10
26.214372108
 20
67.5302079546
 30
0.0
 10
26.2038554556
 20
67.5390332474
 30
0.0
 10
26.1982269733
 20
67.5422548227
 30
0.0
  0
SPLINE
  5
337
100
AcDbEntity
  8
0
100
AcDbSpline
 62
7
  6
BYLAYER
 70
0
 71
3
 72
9
 73
5
 74
0
 42
0.0000001
 43
0.0000001
 44
0.0000000001
 40
0.0
 40
0.0
 40
0.0
 40
0.0
 40
0.4744336386
 40
1.0
 40
1.0
 40
1.0
 40
1.0
 10
29.0082328564
 20
72.2705483564
 30
0.0
 10
29.0252973608
 20
72.2804004938
 30
0.0
 10
29.0575869371
 20
72.3075664145
 30
0.0
 10
29.0823185343
 20
72.3413741433
 30
0.0
 10
29.0932325025
 20
72.3602777956
 30
0.0
  0
SPLINE
  5
338
100
AcDbEntity
  8
0
100
AcDbSpline
 62
7
  6
BYLAYER
 70
0
 71
3
 72
10
 73
6
 74
0
 42
0.0000001
 43
0.0000001
 44
0.0000000001
 40
0.0
 40
0.0
 40
0.0
 40
0.0
 40
0.5194724121
 40
0.7624559572
 40
1.0
 40
1.0
 40
1.0
 40
1.0
 10
49.6307886497
 20
84.111709837
 30
0.0
 10
49.5976877117
 20
84.1976134813
 30
0.0
 10
49.5315451748
 20
84.3188857828
 30
0.0
 10
49.4081728458
 20
84.4471824875
 30
0.0
 10
49.338307581
 20
84.4969516068
 30
0.0
 10
49.3018444508
 20
84.517990217
 30
0.0
  0
SPLINE
  5
339
100
AcDbEntity
  8
0
100
AcDbSpline
 62
7
  6
BYLAYER
 70
0
 71
3
 72
9
 73
5
 74
0
 42
0.0000001
 43
0.0000001
 44
0.0000000001
 40
0.0
 40
0.0
 40
0.0
 40
0.0
 40
0.2689917863
 40
1.0
 40
1.0
 40
1.0
 40
1.0
 10
51.4797073769
 20
79.025448118
 30
0.0
 10
51.4797073769
 20
79.0718861859
 30
0.0
 10
51.4733645789
 20
79.2442946051
 30
0.0
 10
51.4397960978
 20
79.416968791
 30
0.0
 10
51.3944202184
 20
79.5347283967
 30
0.0
  0
SPLINE
  5
33A
100
AcDbEntity
  8
0
100
AcDbSpline
 62
7
  6
BYLAYER
 70
0
 71
3
 72
11
 73
7
 74
0
 42
0.0000001
 43
0.0000001
 44
0.0000000001
 40
0.0
 40
0.0
 40
0.0
 40
0.0
 40
0.2897042895
 40
0.5490907647
 40
0.7822174449
 40
1.0
 40
1.0
 40
1.0
 40
1.0
 10
56.0051722245
 20
75.1900086772
 30
0.0
 10
56.0051722245
 20
75.2913454235
 30
0.0
 10
55.9898081681
 20
75.4840662344
 30
0.0
 10
55.9117587463
 20
75.7488542576
 30
0.0
 10
55.7803493661
 20
75.9637141351
 30
0.0
 10
55.6569159075
 20
76.0674835144
 30
0.0
 10
55.5909425933
 20
76.1055723301
 30
0.0
  0
SPLINE
  5
33B
100
AcDbEntity
  8
0
100
AcDbSpline
 62
7
  6
BYLAYER
 70
0
 71
3
 72
11
 73
7
 74
0
 42
0.0000001
 43
0.0000001
 44
0.0000000001
 40
0.0
 40
0.0
 40
0.0
 40
0.0
 40
0.2659703972
 40
0.5253506999
 40
0.7717458151
 40
1.0
 40
1.0
 40
1.0
 40
1.0
 10
55.6945133463
 20
73.3863499828
 30
0.0
 10
55.7433500442
 20
73.4709380943
 30
0.0
 10
55.8304798397
 20
73.6436100396
 30
0.0
 10
55.9286273118
 20
73.9101875151
 30
0.0
 10
55.9897698109
 20
74.1734535578
 30
0.0
 10
56.0051722245
 20
74.347916427
 30
0.0
 10
56.0051722245
 20
74.431739493
 30
0.0
  0
SPLINE
  5
33C
100
AcDbEntity
  8
0
100
AcDbSpline
 62
7
  6
BYLAYER
 70
0
 71
3
 72
11
 73
7
 74
0
 42
0.0000001
 43
0.0000001
 44
0.0000000001
 40
0.0
 40
0.0
 40
0.0
 40
0.0
 40
0.2494167041
 40
0.5119870523
 40
0.7681852206
 40
1.0
 40
1.0
 40
1.0
 40
1.0
 10
53.4712229242
 20
68.8699040619
 30
0.0
 10
53.5529795942
 20
68.9380352196
 30
0.0
 10
53.7036881411
 20
69.0989838117
 30
0.0
 10
53.8778466459
 20
69.3788682621
 30
0.0
 10
53.9933919586
 20
69.6795807706
 30
0.0
 10
54.0252814803
 20
69.8880229136
 30
0.0
 10
54.0252814803
 20
69.9869360588
 30
0.0
  0
SPLINE
  5
33D
100
AcDbEntity
  8
0
100
AcDbSpline
 62
7
  6
BYLAYER
 70
0
 71
3
 72
9
 73
5
 74
0
 42
0.0000001
 43
0.0000001
 44
0.0000000001
 40
0.0
 40
0.0
 40
0.0
 40
0.0
 40
0.2409691721
 40
1.0
 40
1.0
 40
1.0
 40
1.0
 10
52.1958924225
 20
67.8467678581
 30
0.0
 10
52.2219477196
 20
67.8618108011
 30
0.0
 10
52.3285742416
 20
67.9268238433
 30
0.0
 10
52.4291802935
 20
68.0015275633
 30
0.0
 10
52.5019829868
 20
68.0621970082
 30
0.0
  0
SPLINE
  5
33E
100
AcDbEntity
  8
0
100
AcDbSpline
 62
7
  6
BYLAYER
 70
0
 71
3
 72
11
 73
7
 74
0
 42
0.0000001
 43
0.0000001
 44
0.0000000001
 40
0.0
 40
0.0
 40
0.0
 40
0.0
 40
0.2372446848
 40
0.5000016179
 40
0.7627576706
 40
1.0
 40
1.0
 40
1.0
 40
1.0
 10
51.055445364
 20
66.7800831636
 30
0.0
 10
51.055445364
 20
66.8380437734
 30
0.0
 10
51.0771906155
 20
66.9602758404
 30
0.0
 10
51.1529593856
 20
67.1320326461
 30
0.0
 10
51.2638196248
 20
67.2835288409
 30
0.0
 10
51.3588023456
 20
67.3634765617
 30
0.0
 10
51.4089972827
 20
67.3924564491
 30
0.0
  0
SPLINE
  5
33F
100
AcDbEntity
  8
0
100
AcDbSpline
 62
7
  6
BYLAYER
 70
0
 71
3
 72
11
 73
7
 74
0
 42
0.0000001
 43
0.0000001
 44
0.0000000001
 40
0.0
 40
0.0
 40
0.0
 40
0.0
 40
0.2372423294
 40
0.4999983821
 40
0.7627553152
 40
1.0
 40
1.0
 40
1.0
 40
1.0
 10
58.1264837362
 20
68.8825063408
 30
0.0
 10
58.1766786733
 20
68.9114862283
 30
0.0
 10
58.2716613941
 20
68.9914339491
 30
0.0
 10
58.3825216333
 20
69.1429301439
 30
0.0
 10
58.4582904033
 20
69.3146869496
 30
0.0
 10
58.4800356548
 20
69.4369190165
 30
0.0
 10
58.4800356548
 20
69.4948796263
 30
0.0
  0
SPLINE
  5
340
100
AcDbEntity
  8
0
100
AcDbSpline
 62
7
  6
BYLAYER
 70
0
 71
3
 72
11
 73
7
 74
0
 42
0.0000001
 43
0.0000001
 44
0.0000000001
 40
0.0
 40
0.0
 40
0.0
 40
0.0
 40
0.2372446848
 40
0.5000016179
 40
0.7627576706
 40
1.0
 40
1.0
 40
1.0
 40
1.0
 10
57.3133143234
 20
68.0047743553
 30
0.0
 10
57.3133143234
 20
68.0627349651
 30
0.0
 10
57.3350595749
 20
68.184967032
 30
0.0
 10
57.4108283449
 20
68.3567238377
 30
0.0
 10
57.5216885841
 20
68.5082200325
 30
0.0
 10
57.6166713049
 20
68.5881677534
 30
0.0
 10
57.666866242
 20
68.6171476408
 30
0.0
  0
SPLINE
  5
341
100
AcDbEntity
  8
0
100
AcDbSpline
 62
7
  6
BYLAYER
 70
0
 71
3
 72
11
 73
7
 74
0
 42
0.0000001
 43
0.0000001
 44
0.0000000001
 40
0.0
 40
0.0
 40
0.0
 40
0.0
 40
0.2631374365
 40
0.5238722611
 40
0.7722755344
 40
1.0
 40
1.0
 40
1.0
 40
1.0
 10
56.6966210625
 20
66.1858460562
 30
0.0
 10
56.7919178279
 20
66.316008786
 30
0.0
 10
56.9632701157
 20
66.5890988518
 30
0.0
 10
57.1578123047
 20
67.0224233166
 30
0.0
 10
57.2813539761
 20
67.4586434172
 30
0.0
 10
57.3133143234
 20
67.7508553148
 30
0.0
 10
57.3133143234
 20
67.8904640169
 30
0.0
  0
SPLINE
  5
342
100
AcDbEntity
  8
0
100
AcDbSpline
 62
7
  6
BYLAYER
 70
0
 71
3
 72
11
 73
7
 74
0
 42
0.0000001
 43
0.0000001
 44
0.0000000001
 40
0.0
 40
0.0
 40
0.0
 40
0.0
 40
0.238153128
 40
0.4879941794
 40
0.7439515949
 40
1.0
 40
1.0
 40
1.0
 40
1.0
 10
54.3604393822
 20
60.8382135107
 30
0.0
 10
54.4390249885
 20
61.298547515
 30
0.0
 10
54.6656456789
 20
62.2313798551
 30
0.0
 10
55.1768027439
 20
63.6008820526
 30
0.0
 10
55.8518555857
 20
64.9367742689
 30
0.0
 10
56.4000221827
 20
65.7807313633
 30
0.0
 10
56.6966210625
 20
66.1858460562
 30
0.0
  0
SPLINE
  5
343
100
AcDbEntity
  8
0
100
AcDbSpline
 62
7
  6
BYLAYER
 70
0
 71
3
 72
11
 73
7
 74
0
 42
0.0000001
 43
0.0000001
 44
0.0000000001
 40
0.0
 40
0.0
 40
0.0
 40
0.0
 40
0.2312648129
 40
0.4754193883
 40
0.7319716051
 40
1.0
 40
1.0
 40
1.0
 40
1.0
 10
54.2954045775
 20
55.5175473947
 30
0.0
 10
54.2220729613
 20
55.9230721114
 30
0.0
 10
54.1168400715
 20
56.7654045641
 30
0.0
 10
54.0783218988
 20
58.0708165715
 30
0.0
 10
54.155180642
 20
59.4399993574
 30
0.0
 10
54.2800668456
 20
60.3674121346
 30
0.0
 10
54.3604393822
 20
60.8382135107
 30
0.0
  0
SPLINE
  5
344
100
AcDbEntity
  8
0
100
AcDbSpline
 62
7
  6
BYLAYER
 70
0
 71
3
 72
13
 73
9
 74
0
 42
0.0000001
 43
0.0000001
 44
0.0000000001
 40
0.0
 40
0.0
 40
0.0
 40
0.0
 40
0.3070789312
 40
0.5821660858
 40
0.7024324137
 40
0.8105102971
 40
0.9082537985
 40
1.0
 40
1.0
 40
1.0
 40
1.0
 10
55.4779762736
 20
54.869821966
 30
0.0
 10
55.5008233236
 20
54.9130248867
 30
0.0
 10
55.535707943
 20
54.9996836802
 30
0.0
 10
55.5523852455
 20
55.1119181153
 30
0.0
 10
55.5437469023
 20
55.1920013775
 30
0.0
 10
55.527722034
 20
55.241851845
 30
0.0
 10
55.5018639112
 20
55.282251536
 30
0.0
 10
55.4781727915
 20
55.3018944496
 30
0.0
 10
55.4655330692
 20
55.3092048944
 30
0.0
  0
SPLINE
  5
345
100
AcDbEntity
  8
0
100
AcDbSpline
 62
7
  6
BYLAYER
 70
0
 71
3
 72
11
 73
7
 74
0
 42
0.0000001
 43
0.0000001
 44
0.0000000001
 40
0.0
 40
0.0
 40
0.0
 40
0.0
 40
0.230109424
 40
0.4774315166
 40
0.7362964852
 40
1.0
 40
1.0
 40
1.0
 40
1.0
 10
53.7986522749
 20
52.9733020465
 30
0.0
 10
53.965032332
 20
53.0774638403
 30
0.0
 10
54.2918006645
 20
53.3237427039
 30
0.0
 10
54.7370750515
 20
53.7690698345
 30
0.0
 10
55.1413139401
 20
54.2886335796
 30
0.0
 10
55.372813598
 20
54.6709632629
 30
0.0
 10
55.4779762736
 20
54.869821966
 30
0.0
  0
SPLINE
  5
346
100
AcDbEntity
  8
0
100
AcDbSpline
 62
7
  6
BYLAYER
 70
0
 71
3
 72
11
 73
7
 74
0
 42
0.0000001
 43
0.0000001
 44
0.0000000001
 40
0.0
 40
0.0
 40
0.0
 40
0.0
 40
0.2372446848
 40
0.5000016179
 40
0.7627576706
 40
1.0
 40
1.0
 40
1.0
 40
1.0
 10
51.055445364
 20
51.7972638093
 30
0.0
 10
51.055445364
 20
51.8552244191
 30
0.0
 10
51.0771906155
 20
51.977456486
 30
0.0
 10
51.1529593856
 20
52.1492132917
 30
0.0
 10
51.2638196248
 20
52.3007094865
 30
0.0
 10
51.3588023456
 20
52.3806572074
 30
0.0
 10
51.4089972827
 20
52.4096370948
 30
0.0
  0
SPLINE
  5
347
100
AcDbEntity
  8
0
100
AcDbSpline
 62
7
  6
BYLAYER
 70
0
 71
3
 72
11
 73
7
 74
0
 42
0.0000001
 43
0.0000001
 44
0.0000000001
 40
0.0
 40
0.0
 40
0.0
 40
0.0
 40
0.2282541849
 40
0.4746493001
 40
0.7340296028
 40
1.0
 40
1.0
 40
1.0
 40
1.0
 10
51.4089972827
 20
44.9358417224
 30
0.0
 10
51.4089972827
 20
45.0476058104
 30
0.0
 10
51.4295338342
 20
45.2802229694
 30
0.0
 10
51.5110571664
 20
45.6312443598
 30
0.0
 10
51.6419204626
 20
45.9866809939
 30
0.0
 10
51.7580935234
 20
46.2169102545
 30
0.0
 10
51.8232091206
 20
46.3296944033
 30
0.0
  0
SPLINE
  5
348
100
AcDbEntity
  8
0
100
AcDbSpline
 62
7
  6
BYLAYER
 70
0
 71
3
 72
11
 73
7
 74
0
 42
0.0000001
 43
0.0000001
 44
0.0000000001
 40
0.0
 40
0.0
 40
0.0
 40
0.0
 40
0.2894567071
 40
0.5489677961
 40
0.7820607912
 40
1.0
 40
1.0
 40
1.0
 40
1.0
 10
58.4800356548
 20
45.8777942374
 30
0.0
 10
58.4800356548
 20
45.9284184216
 30
0.0
 10
58.4722882107
 20
46.024746704
 30
0.0
 10
58.4333880334
 20
46.157131998
 30
0.0
 10
58.3677074215
 20
46.2646553829
 30
0.0
 10
58.3058956272
 20
46.3164571112
 30
0.0
 10
58.2728874001
 20
46.3355176186
 30
0.0
  0
SPLINE
  5
349
100
AcDbEntity
  8
0
100
AcDbSpline
 62
7
  6
BYLAYER
 70
0
 71
3
 72
13
 73
9
 74
0
 42
0.0000001
 43
0.0000001
 44
0.0000000001
 40
0.0
 40
0.0
 40
0.0
 40
0.0
 40
0.114175582
 40
0.23756922
 40
0.49999856
 40
0.7624286893
 40
0.8858231943
 40
1.0
 40
1.0
 40
1.0
 40
1.0
 10
57.7729318176
 20
27.9553262739
 30
0.0
 10
57.8213040405
 20
27.9832538231
 30
0.0
 10
57.9169015634
 20
28.0503342644
 30
0.0
 10
58.0959939627
 20
28.2177960018
 30
0.0
 10
58.2849919669
 20
28.4761831686
 30
0.0
 10
58.4142613276
 20
28.7690548652
 30
0.0
 10
58.4697409885
 20
29.0078857933
 30
0.0
 10
58.4800356548
 20
29.1242168978
 30
0.0
 10
58.4800356548
 20
29.1800728449
 30
0.0
  0
SPLINE
  5
34A
100
AcDbEntity
  8
0
100
AcDbSpline
 62
7
  6
BYLAYER
 70
0
 71
3
 72
13
 73
9
 74
0
 42
0.0000001
 43
0.0000001
 44
0.0000000001
 40
0.0
 40
0.0
 40
0.0
 40
0.0
 40
0.1080947724
 40
0.2182340858
 40
0.3322580584
 40
0.4516863355
 40
0.7106233083
 40
1.0
 40
1.0
 40
1.0
 40
1.0
 10
15.9740665371
 20
58.5264093897
 30
0.0
 10
16.0265299634
 20
58.5566989841
 30
0.0
 10
16.1379106641
 20
58.6088931329
 30
0.0
 10
16.3181629008
 20
58.6586751232
 30
0.0
 10
16.5102873315
 20
58.6801376012
 30
0.0
 10
16.7869145273
 20
58.6705314808
 30
0.0
 10
17.1544546419
 20
58.5819681713
 30
0.0
 10
17.4335990425
 20
58.4490382531
 30
0.0
 10
17.5740476121
 20
58.3679520681
 30
0.0
  0
SPLINE
  5
34B
100
AcDbEntity
  8
0
100
AcDbSpline
 62
7
  6
BYLAYER
 70
0
 71
3
 72
12
 73
8
 74
0
 42
0.0000001
 43
0.0000001
 44
0.0000000001
 40
0.0
 40
0.0
 40
0.0
 40
0.0
 40
0.1081475721
 40
0.2183561783
 40
0.4513376573
 40
0.7104536642
 40
1.0
 40
1.0
 40
1.0
 40
1.0
 10
16.1990555188
 20
23.4761871976
 30
0.0
 10
16.2441352403
 20
23.5022140875
 30
0.0
 10
16.339870363
 20
23.5470351888
 30
0.0
 10
16.5500845197
 20
23.6051586565
 30
0.0
 10
16.8445338302
 20
23.6130926653
 30
0.0
 10
17.2132622718
 20
23.5238629543
 30
0.0
 10
17.4533536903
 20
23.4096794825
 30
0.0
 10
17.5740476121
 20
23.3399983906
 30
0.0
  0
SPLINE
  5
34C
100
AcDbEntity
  8
0
100
AcDbSpline
 62
7
  6
BYLAYER
 70
0
 71
3
 72
11
 73
7
 74
0
 42
0.0000001
 43
0.0000001
 44
0.0000000001
 40
0.0
 40
0.0
 40
0.0
 40
0.0
 40
0.2809102062
 40
0.5401463385
 40
0.7787200298
 40
1.0
 40
1.0
 40
1.0
 40
1.0
 10
41.1408221766
 20
88.4085940246
 30
0.0
 10
41.2064856241
 20
88.4465046074
 30
0.0
 10
41.3373353078
 20
88.5119286887
 30
0.0
 10
41.5377496434
 20
88.5780827088
 30
0.0
 10
41.7307917799
 20
88.606659131
 30
0.0
 10
41.8558926245
 20
88.599639296
 30
0.0
 10
41.9146989668
 20
88.5891957522
 30
0.0
  0
SPLINE
  5
34D
100
AcDbEntity
  8
0
100
AcDbSpline
 62
7
  6
BYLAYER
 70
0
 71
3
 72
9
 73
5
 74
0
 42
0.0000001
 43
0.0000001
 44
0.0000000001
 40
0.0
 40
0.0
 40
0.0
 40
0.0
 40
0.2794322491
 40
1.0
 40
1.0
 40
1.0
 40
1.0
 10
22.50874001
 20
79.7045693222
 30
0.0
 10
22.5382048901
 20
79.7215807771
 30
0.0
 10
22.6463636696
 20
79.7766603476
 30
0.0
 10
22.7710457332
 20
79.8066047231
 30
0.0
 10
22.8585021268
 20
79.7996213594
 30
0.0
  0
SPLINE
  5
34E
100
AcDbEntity
  8
0
100
AcDbSpline
 62
7
  6
BYLAYER
 70
0
 71
3
 72
10
 73
6
 74
0
 42
0.0000001
 43
0.0000001
 44
0.0000000001
 40
0.0
 40
0.0
 40
0.0
 40
0.0
 40
0.5249298085
 40
0.7715437808
 40
1.0
 40
1.0
 40
1.0
 40
1.0
 10
22.0087420916
 20
79.1767490914
 30
0.0
 10
22.0729419043
 20
79.2879470461
 30
0.0
 10
22.1857401679
 20
79.4421587491
 30
0.0
 10
22.3647308839
 20
79.6095699749
 30
0.0
 10
22.4603452216
 20
79.6766287449
 30
0.0
 10
22.50874001
 20
79.7045693222
 30
0.0
  0
SPLINE
  5
34F
100
AcDbEntity
  8
0
100
AcDbSpline
 62
7
  6
BYLAYER
 70
0
 71
3
 72
11
 73
7
 74
0
 42
0.0000001
 43
0.0000001
 44
0.0000000001
 40
0.0
 40
0.0
 40
0.0
 40
0.0
 40
0.2064346531
 40
0.4471839838
 40
0.715891126
 40
1.0
 40
1.0
 40
1.0
 40
1.0
 10
21.3280558906
 20
77.3076137796
 30
0.0
 10
21.3012815904
 20
77.3715483277
 30
0.0
 10
21.271351124
 20
77.5218599978
 30
0.0
 10
21.2880328446
 20
77.7634137071
 30
0.0
 10
21.3594042505
 20
78.0217132279
 30
0.0
 10
21.4392676203
 20
78.1903848981
 30
0.0
 10
21.4869649451
 20
78.2729995467
 30
0.0
  0
SPLINE
  5
350
100
AcDbEntity
  8
0
100
AcDbSpline
 62
7
  6
BYLAYER
 70
0
 71
3
 72
12
 73
8
 74
0
 42
0.0000001
 43
0.0000001
 44
0.0000000001
 40
0.0
 40
0.0
 40
0.0
 40
0.0
 40
0.1081475721
 40
0.2183561783
 40
0.4513376573
 40
0.7104536642
 40
1.0
 40
1.0
 40
1.0
 40
1.0
 10
16.1990555188
 20
64.6279090005
 30
0.0
 10
16.2441352403
 20
64.6539358904
 30
0.0
 10
16.339870363
 20
64.6987569917
 30
0.0
 10
16.5500845197
 20
64.7568804594
 30
0.0
 10
16.8445338302
 20
64.7648144682
 30
0.0
 10
17.2132622718
 20
64.6755847572
 30
0.0
 10
17.4533536903
 20
64.5614012854
 30
0.0
 10
17.5740476121
 20
64.4917201936
 30
0.0
  0
SPLINE
  5
351
100
AcDbEntity
  8
0
100
AcDbSpline
 62
7
  6
BYLAYER
 70
0
 71
3
 72
13
 73
9
 74
0
 42
0.0000001
 43
0.0000001
 44
0.0000000001
 40
0.0
 40
0.0
 40
0.0
 40
0.0
 40
0.1080945663
 40
0.2182336992
 40
0.3322575376
 40
0.4516857461
 40
0.7106228288
 40
1.0
 40
1.0
 40
1.0
 40
1.0
 10
24.5897012318
 20
9.7536729496
 30
0.0
 10
24.6552798961
 20
9.7158119432
 30
0.0
 10
24.7945043918
 20
9.6505711739
 30
0.0
 10
25.0198172031
 20
9.5883463063
 30
0.0
 10
25.2599698923
 20
9.5615205356
 30
0.0
 10
25.6057496829
 20
9.5735309584
 30
0.0
 10
26.0651688769
 20
9.6842377323
 30
0.0
 10
26.4140943753
 20
9.8504010426
 30
0.0
 10
26.5896525964
 20
9.9517590238
 30
0.0
  0
SPLINE
  5
352
100
AcDbEntity
  8
0
100
AcDbSpline
 62
7
  6
BYLAYER
 70
0
 71
3
 72
11
 73
7
 74
0
 42
0.0000001
 43
0.0000001
 44
0.0000000001
 40
0.0
 40
0.0
 40
0.0
 40
0.0
 40
0.2897043219
 40
0.5490567864
 40
0.7822817783
 40
1.0
 40
1.0
 40
1.0
 40
1.0
 10
21.1932161683
 20
74.8625781831
 30
0.0
 10
21.2063798705
 20
74.8701782047
 30
0.0
 10
21.2325660512
 20
74.8826310498
 30
0.0
 10
21.2728173199
 20
74.8923636001
 30
0.0
 10
21.3105827369
 20
74.8913919428
 30
0.0
 10
21.3333228606
 20
74.8831471463
 30
0.0
 10
21.3432155438
 20
74.8774354397
 30
0.0
  0
SPLINE
  5
353
100
AcDbEntity
  8
0
100
AcDbSpline
 62
7
  6
BYLAYER
 70
0
 71
3
 72
15
 73
11
 74
0
 42
0.0000001
 43
0.0000001
 44
0.0000000001
 40
0.0
 40
0.0
 40
0.0
 40
0.0
 40
0.0868885748
 40
0.1864388449
 40
0.303796685
 40
0.4376076502
 40
0.5821178928
 40
0.7293722791
 40
0.8712447033
 40
1.0
 40
1.0
 40
1.0
 40
1.0
 10
21.0432167928
 20
74.3578194763
 30
0.0
 10
21.0282397795
 20
74.3664667063
 30
0.0
 10
21.0010696044
 20
74.3942685589
 30
0.0
 10
20.9812242958
 20
74.4527909816
 30
0.0
 10
20.9796012727
 20
74.5233296599
 30
0.0
 10
20.9954094044
 20
74.6010194372
 30
0.0
 10
21.0273322526
 20
74.6799295881
 30
0.0
 10
21.0727234831
 20
74.7538283414
 30
0.0
 10
21.1279302265
 20
74.8165617418
 30
0.0
 10
21.171022382
 20
74.8497646711
 30
0.0
 10
21.1932161683
 20
74.8625781831
 30
0.0
  0
SPLINE
  5
354
100
AcDbEntity
  8
0
100
AcDbSpline
 62
7
  6
BYLAYER
 70
0
 71
3
 72
11
 73
7
 74
0
 42
0.0000001
 43
0.0000001
 44
0.0000000001
 40
0.0
 40
0.0
 40
0.0
 40
0.0
 40
0.2897043218
 40
0.5490567864
 40
0.7822817783
 40
1.0
 40
1.0
 40
1.0
 40
1.0
 10
20.2932199154
 20
73.3037302931
 30
0.0
 10
20.3063836176
 20
73.3113303147
 30
0.0
 10
20.3325697982
 20
73.3237831597
 30
0.0
 10
20.3728210669
 20
73.3335157101
 30
0.0
 10
20.4105864838
 20
73.3325440528
 30
0.0
 10
20.4333266075
 20
73.3242992563
 30
0.0
 10
20.4432192906
 20
73.3185875498
 30
0.0
  0
SPLINE
  5
355
100
AcDbEntity
  8
0
100
AcDbSpline
 62
7
  6
BYLAYER
 70
0
 71
3
 72
15
 73
11
 74
0
 42
0.0000001
 43
0.0000001
 44
0.0000000001
 40
0.0
 40
0.0
 40
0.0
 40
0.0
 40
0.0868885748
 40
0.1864388448
 40
0.3037966849
 40
0.4376076501
 40
0.5821178928
 40
0.7293722791
 40
0.8712447032
 40
1.0
 40
1.0
 40
1.0
 40
1.0
 10
20.1432205401
 20
72.7989715862
 30
0.0
 10
20.1282435267
 20
72.8076188161
 30
0.0
 10
20.1010733516
 20
72.8354206687
 30
0.0
 10
20.081228043
 20
72.8939430914
 30
0.0
 10
20.0796050198
 20
72.9644817697
 30
0.0
 10
20.0954131514
 20
73.042171547
 30
0.0
 10
20.1273359996
 20
73.121081698
 30
0.0
 10
20.1727272301
 20
73.1949804513
 30
0.0
 10
20.2279339736
 20
73.2577138517
 30
0.0
 10
20.2710261291
 20
73.2909167811
 30
0.0
 10
20.2932199154
 20
73.3037302931
 30
0.0
  0
SPLINE
  5
356
100
AcDbEntity
  8
0
100
AcDbSpline
 62
7
  6
BYLAYER
 70
0
 71
3
 72
15
 73
11
 74
0
 42
0.0000001
 43
0.0000001
 44
0.0000000001
 40
0.0
 40
0.0
 40
0.0
 40
0.0
 40
0.1141467384
 40
0.2373158985
 40
0.3669611519
 40
0.499984014
 40
0.6330094606
 40
0.76263894
 40
0.8858964341
 40
1.0
 40
1.0
 40
1.0
 40
1.0
 10
19.9252148132
 20
64.7469265329
 30
0.0
 10
19.9252134594
 20
64.8237769802
 30
0.0
 10
19.9392795285
 20
64.9837020281
 30
0.0
 10
19.9953863113
 20
65.2249702277
 30
0.0
 10
20.0852922907
 20
65.4693546909
 30
0.0
 10
20.2056067486
 20
65.7076745801
 30
0.0
 10
20.3518171019
 20
65.9310312061
 30
0.0
 10
20.5185273048
 20
66.1311382049
 30
0.0
 10
20.6994744821
 20
66.3003270314
 30
0.0
 10
20.8309292415
 20
66.3925380418
 30
0.0
 10
20.8974586083
 20
66.4309485603
 30
0.0
  0
SPLINE
  5
357
100
AcDbEntity
  8
0
100
AcDbSpline
 62
7
  6
BYLAYER
 70
0
 71
3
 72
10
 73
6
 74
0
 42
0.0000001
 43
0.0000001
 44
0.0000000001
 40
0.0
 40
0.0
 40
0.0
 40
0.0
 40
0.2357410736
 40
0.477812905
 40
1.0
 40
1.0
 40
1.0
 40
1.0
 10
20.1530326906
 20
64.4679251257
 30
0.0
 10
20.1313704027
 20
64.480430197
 30
0.0
 10
20.0899394556
 20
64.5103850077
 30
0.0
 10
20.0177619179
 20
64.5888954506
 30
0.0
 10
19.9809019805
 20
64.6633691945
 30
0.0
 10
19.9632581511
 20
64.7158899209
 30
0.0
  0
SPLINE
  5
358
100
AcDbEntity
  8
0
100
AcDbSpline
 62
7
  6
BYLAYER
 70
0
 71
3
 72
9
 73
5
 74
0
 42
0.0000001
 43
0.0000001
 44
0.0000000001
 40
0.0
 40
0.0
 40
0.0
 40
0.0
 40
0.2377192035
 40
1.0
 40
1.0
 40
1.0
 40
1.0
 10
19.9632581511
 20
64.7158899209
 30
0.0
 10
19.9584448165
 20
64.7302178664
 30
0.0
 10
19.9404378827
 20
64.7912394118
 30
0.0
 10
19.9309675532
 20
64.8546188733
 30
0.0
 10
19.9275568629
 20
64.9029666074
 30
0.0
  0
SPLINE
  5
359
100
AcDbEntity
  8
0
100
AcDbSpline
 62
7
  6
BYLAYER
 70
0
 71
3
 72
9
 73
5
 74
0
 42
0.0000001
 43
0.0000001
 44
0.0000000001
 40
0.0
 40
0.0
 40
0.0
 40
0.0
 40
0.2703477507
 40
1.0
 40
1.0
 40
1.0
 40
1.0
 10
17.774480402
 20
71.5045456257
 30
0.0
 10
17.795839886
 20
71.5168774559
 30
0.0
 10
17.8764975657
 20
71.5593408845
 30
0.0
 10
17.9650385204
 20
71.588601366
 30
0.0
 10
18.0310684715
 20
71.5970323579
 30
0.0
  0
SPLINE
  5
35A
100
AcDbEntity
  8
0
100
AcDbSpline
 62
7
  6
BYLAYER
 70
0
 71
3
 72
10
 73
6
 74
0
 42
0.0000001
 43
0.0000001
 44
0.0000000001
 40
0.0
 40
0.0
 40
0.0
 40
0.0
 40
0.5249298085
 40
0.7715437808
 40
1.0
 40
1.0
 40
1.0
 40
1.0
 10
17.2744824839
 20
70.9767253953
 30
0.0
 10
17.3386822965
 20
71.0879233499
 30
0.0
 10
17.4514805601
 20
71.2421350528
 30
0.0
 10
17.630471276
 20
71.4095462784
 30
0.0
 10
17.7260856137
 20
71.4766050484
 30
0.0
 10
17.774480402
 20
71.5045456257
 30
0.0
  0
SPLINE
  5
35B
100
AcDbEntity
  8
0
100
AcDbSpline
 62
7
  6
BYLAYER
 70
0
 71
3
 72
11
 73
7
 74
0
 42
0.0000001
 43
0.0000001
 44
0.0000000001
 40
0.0
 40
0.0
 40
0.0
 40
0.0
 40
0.2177382977
 40
0.4508602761
 40
0.7103539614
 40
1.0
 40
1.0
 40
1.0
 40
1.0
 10
14.2986473788
 20
18.5342902557
 30
0.0
 10
14.2656721622
 20
18.5533387963
 30
0.0
 10
14.2039430562
 20
18.6051909225
 30
0.0
 10
14.1382460976
 20
18.7126451386
 30
0.0
 10
14.0992327456
 20
18.8450461797
 30
0.0
 10
14.0915322175
 20
18.9414134831
 30
0.0
 10
14.0915322175
 20
18.9920715354
 30
0.0
  0
SPLINE
  5
35C
100
AcDbEntity
  8
0
100
AcDbSpline
 62
7
  6
BYLAYER
 70
0
 71
3
 72
11
 73
7
 74
0
 42
0.0000001
 43
0.0000001
 44
0.0000000001
 40
0.0
 40
0.0
 40
0.0
 40
0.0
 40
0.2178296126
 40
0.4509505347
 40
0.7103305623
 40
1.0
 40
1.0
 40
1.0
 40
1.0
 10
23.0667559838
 20
17.4227335707
 30
0.0
 10
23.0337924332
 20
17.4418106724
 30
0.0
 10
22.9721213475
 20
17.4937136639
 30
0.0
 10
22.9064666647
 20
17.601129519
 30
0.0
 10
22.8674010823
 20
17.7334512544
 30
0.0
 10
22.8596777908
 20
17.8297749227
 30
0.0
 10
22.8596777908
 20
17.8804214109
 30
0.0
  0
SPLINE
  5
35D
100
AcDbEntity
  8
0
100
AcDbSpline
 62
7
  6
BYLAYER
 70
0
 71
3
 72
15
 73
11
 74
0
 42
0.0000001
 43
0.0000001
 44
0.0000000001
 40
0.0
 40
0.0
 40
0.0
 40
0.0
 40
0.0868938905
 40
0.1863237687
 40
0.3037356389
 40
0.4375350775
 40
0.5819878787
 40
0.7292652304
 40
0.8712854275
 40
1.0
 40
1.0
 40
1.0
 40
1.0
 10
17.600815481
 20
14.6497643247
 30
0.0
 10
17.5858357697
 20
14.6584078902
 30
0.0
 10
17.5586997399
 20
14.6862098581
 30
0.0
 10
17.5388242422
 20
14.7446960152
 30
0.0
 10
17.5371891908
 20
14.8152260867
 30
0.0
 10
17.5530302846
 20
14.892899251
 30
0.0
 10
17.5848801841
 20
14.9718226473
 30
0.0
 10
17.6302823876
 20
15.0457471812
 30
0.0
 10
17.6855456325
 20
15.1084554056
 30
0.0
 10
17.7286230891
 20
15.1417079535
 30
0.0
 10
17.7508091461
 20
15.154517003
 30
0.0
  0
SPLINE
  5
35E
100
AcDbEntity
  8
0
100
AcDbSpline
 62
7
  6
BYLAYER
 70
0
 71
3
 72
11
 73
7
 74
0
 42
0.0000001
 43
0.0000001
 44
0.0000000001
 40
0.0
 40
0.0
 40
0.0
 40
0.0
 40
0.2176755142
 40
0.4512240965
 40
0.7112879308
 40
1.0
 40
1.0
 40
1.0
 40
1.0
 10
21.0656543344
 20
12.6493871998
 30
0.0
 10
21.075545441
 20
12.6436803649
 30
0.0
 10
21.0982834529
 20
12.6353928373
 30
0.0
 10
21.1361101704
 20
12.6344894731
 30
0.0
 10
21.1763315875
 20
12.6442836166
 30
0.0
 10
21.2025299733
 20
12.6566629
 30
0.0
 10
21.2156467973
 20
12.6642358566
 30
0.0
  0
SPLINE
  5
35F
100
AcDbEntity
  8
0
100
AcDbSpline
 62
7
  6
BYLAYER
 70
0
 71
3
 72
14
 73
10
 74
0
 42
0.0000001
 43
0.0000001
 44
0.0000000001
 40
0.0
 40
0.0
 40
0.0
 40
0.0
 40
0.0869031045
 40
0.1838928881
 40
0.2963014069
 40
0.4242510364
 40
0.5644877527
 40
0.7114858269
 40
1.0
 40
1.0
 40
1.0
 40
1.0
 10
17.600815481
 20
16.1194686748
 30
0.0
 10
17.5877049762
 20
16.1270336742
 30
0.0
 10
17.5636474055
 20
16.1499662755
 30
0.0
 10
17.5429016121
 20
16.1983013362
 30
0.0
 10
17.5364081726
 20
16.2573283085
 30
0.0
 10
17.543635457
 20
16.3236304286
 30
0.0
 10
17.5641775735
 20
16.3933414167
 30
0.0
 10
17.6069098746
 20
16.4842655307
 30
0.0
 10
17.6540109593
 20
16.5458270351
 30
0.0
 10
17.6910780614
 20
16.5797585814
 30
0.0
  0
SPLINE
  5
360
100
AcDbEntity
  8
0
100
AcDbSpline
 62
7
  6
BYLAYER
 70
0
 71
3
 72
11
 73
7
 74
0
 42
0.0000001
 43
0.0000001
 44
0.0000000001
 40
0.0
 40
0.0
 40
0.0
 40
0.0
 40
0.2176755142
 40
0.4512240965
 40
0.7112879308
 40
1.0
 40
1.0
 40
1.0
 40
1.0
 10
21.0656543344
 20
14.1190915499
 30
0.0
 10
21.075545441
 20
14.1133847149
 30
0.0
 10
21.0982834529
 20
14.1050971874
 30
0.0
 10
21.1361101704
 20
14.1041938232
 30
0.0
 10
21.1763315875
 20
14.1139879667
 30
0.0
 10
21.2025299733
 20
14.1263672501
 30
0.0
 10
21.2156467973
 20
14.1339402067
 30
0.0
  0
SPLINE
  5
361
100
AcDbEntity
  8
0
100
AcDbSpline
 62
7
  6
BYLAYER
 70
0
 71
3
 72
11
 73
7
 74
0
 42
0.0000001
 43
0.0000001
 44
0.0000000001
 40
0.0
 40
0.0
 40
0.0
 40
0.0
 40
0.2177442246
 40
0.4508817658
 40
0.7104588047
 40
1.0
 40
1.0
 40
1.0
 40
1.0
 10
14.2986725145
 20
11.4613816597
 30
0.0
 10
14.2656923225
 20
11.4804223693
 30
0.0
 10
14.2039238783
 20
11.5322313714
 30
0.0
 10
14.1382173685
 20
11.6397125389
 30
0.0
 10
14.0992641986
 20
11.7721236562
 30
0.0
 10
14.0915322175
 20
11.8684804916
 30
0.0
 10
14.0915322175
 20
11.9191193505
 30
0.0
  0
SPLINE
  5
362
100
AcDbEntity
  8
0
100
AcDbSpline
 62
7
  6
BYLAYER
 70
0
 71
3
 72
11
 73
7
 74
0
 42
0.0000001
 43
0.0000001
 44
0.0000000001
 40
0.0
 40
0.0
 40
0.0
 40
0.0
 40
0.2177456295
 40
0.4508837762
 40
0.7104602913
 40
1.0
 40
1.0
 40
1.0
 40
1.0
 10
21.2637033031
 20
7.44021023
 30
0.0
 10
21.2966824115
 20
7.4211701694
 30
0.0
 10
21.3724321571
 20
7.3935836716
 30
0.0
 10
21.4983620404
 20
7.3904213914
 30
0.0
 10
21.6325044395
 20
7.4228911428
 30
0.0
 10
21.7198142023
 20
7.4643714743
 30
0.0
 10
21.7636668436
 20
7.4896896574
 30
0.0
  0
SPLINE
  5
363
100
AcDbEntity
  8
0
100
AcDbSpline
 62
7
  6
BYLAYER
 70
0
 71
3
 72
11
 73
7
 74
0
 42
0.0000001
 43
0.0000001
 44
0.0000000001
 40
0.0
 40
0.0
 40
0.0
 40
0.0
 40
0.2230894801
 40
0.4627987398
 40
0.7216991698
 40
1.0
 40
1.0
 40
1.0
 40
1.0
 10
16.9375119026
 20
14.3208237899
 30
0.0
 10
16.8722973663
 20
14.4115238287
 30
0.0
 10
16.7566592755
 20
14.6143157132
 30
0.0
 10
16.6358642516
 20
14.9565526754
 30
0.0
 10
16.5636413123
 20
15.3401323514
 30
0.0
 10
16.5487180511
 20
15.609489475
 30
0.0
 10
16.5487180511
 20
15.748847773
 30
0.0
  0
SPLINE
  5
364
100
AcDbEntity
  8
0
100
AcDbSpline
 62
7
  6
BYLAYER
 70
0
 71
3
 72
11
 73
7
 74
0
 42
0.0000001
 43
0.0000001
 44
0.0000000001
 40
0.0
 40
0.0
 40
0.0
 40
0.0
 40
0.2176973419
 40
0.4508597307
 40
0.71054858
 40
1.0
 40
1.0
 40
1.0
 40
1.0
 10
55.4844926648
 20
26.8493565205
 30
0.0
 10
55.5141579612
 20
26.8322086368
 30
0.0
 10
55.5823437347
 20
26.8074169075
 30
0.0
 10
55.6956889183
 20
26.8045319038
 30
0.0
 10
55.8164155155
 20
26.8338074167
 30
0.0
 10
55.895006498
 20
26.871112057
 30
0.0
 10
55.9344615511
 20
26.8938913066
 30
0.0
  0
SPLINE
  5
365
100
AcDbEntity
  8
0
100
AcDbSpline
 62
7
  6
BYLAYER
 70
0
 71
3
 72
11
 73
7
 74
0
 42
0.0000001
 43
0.0000001
 44
0.0000000001
 40
0.0
 40
0.0
 40
0.0
 40
0.0
 40
0.2177825102
 40
0.4509091639
 40
0.7102957096
 40
1.0
 40
1.0
 40
1.0
 40
1.0
 10
51.8025154323
 20
43.4360651346
 30
0.0
 10
51.7398408138
 20
43.4722495311
 30
0.0
 10
51.6225790164
 20
43.5708303724
 30
0.0
 10
51.497740101
 20
43.7749472682
 30
0.0
 10
51.4235931691
 20
44.026495905
 30
0.0
 10
51.4089972827
 20
44.2095806959
 30
0.0
 10
51.4089972827
 20
44.3058506048
 30
0.0
  0
SPLINE
  5
366
100
AcDbEntity
  8
0
100
AcDbSpline
 62
7
  6
BYLAYER
 70
0
 71
3
 72
11
 73
7
 74
0
 42
0.0000001
 43
0.0000001
 44
0.0000000001
 40
0.0
 40
0.0
 40
0.0
 40
0.0
 40
0.2176732262
 40
0.4508319884
 40
0.7104838574
 40
1.0
 40
1.0
 40
1.0
 40
1.0
 10
51.1590072526
 20
51.4764279918
 30
0.0
 10
51.1425225733
 20
51.4859452028
 30
0.0
 10
51.111663478
 20
51.5118711005
 30
0.0
 10
51.0787886326
 20
51.5655960609
 30
0.0
 10
51.0593184236
 20
51.6318132181
 30
0.0
 10
51.055445364
 20
51.6799939386
 30
0.0
 10
51.055445364
 20
51.705311105
 30
0.0
  0
SPLINE
  5
367
100
AcDbEntity
  8
0
100
AcDbSpline
 62
7
  6
BYLAYER
 70
0
 71
3
 72
11
 73
7
 74
0
 42
0.0000001
 43
0.0000001
 44
0.0000000001
 40
0.0
 40
0.0
 40
0.0
 40
0.0
 40
0.2177456295
 40
0.4508837762
 40
0.7104602913
 40
1.0
 40
1.0
 40
1.0
 40
1.0
 10
53.4278206588
 20
52.926116994
 30
0.0
 10
53.4509060347
 20
52.9127889515
 30
0.0
 10
53.5039308566
 20
52.893478403
 30
0.0
 10
53.592081775
 20
52.8912648069
 30
0.0
 10
53.6859814544
 20
52.9139936329
 30
0.0
 10
53.7470982884
 20
52.943029865
 30
0.0
 10
53.7777951373
 20
52.9607525932
 30
0.0
  0
SPLINE
  5
368
100
AcDbEntity
  8
0
100
AcDbSpline
 62
7
  6
BYLAYER
 70
0
 71
3
 72
11
 73
7
 74
0
 42
0.0000001
 43
0.0000001
 44
0.0000000001
 40
0.0
 40
0.0
 40
0.0
 40
0.0
 40
0.2282597165
 40
0.4663057206
 40
0.7221714343
 40
1.0
 40
1.0
 40
1.0
 40
1.0
 10
54.529178076
 20
55.1417189625
 30
0.0
 10
54.4991101993
 20
55.1590578758
 30
0.0
 10
54.4421596012
 20
55.2028478809
 30
0.0
 10
54.3739178955
 20
55.290148128
 30
0.0
 10
54.3234946512
 20
55.3970031048
 30
0.0
 10
54.3029221329
 20
55.4759752228
 30
0.0
 10
54.2954045775
 20
55.5175473947
 30
0.0
  0
SPLINE
  5
369
100
AcDbEntity
  8
0
100
AcDbSpline
 62
7
  6
BYLAYER
 70
0
 71
3
 72
11
 73
7
 74
0
 42
0.0000001
 43
0.0000001
 44
0.0000000001
 40
0.0
 40
0.0
 40
0.0
 40
0.0
 40
0.2177319434
 40
0.450926396
 40
0.7108589338
 40
1.0
 40
1.0
 40
1.0
 40
1.0
 10
28.9232390408
 20
72.2621368153
 30
0.0
 10
28.9288395218
 20
72.2588907834
 30
0.0
 10
28.9417224588
 20
72.2542053057
 30
0.0
 10
28.9631424639
 20
72.2536711869
 30
0.0
 10
28.9859380272
 20
72.2592226373
 30
0.0
 10
29.0007883337
 20
72.2662502849
 30
0.0
 10
29.0082328564
 20
72.2705483564
 30
0.0
  0
SPLINE
  5
36A
100
AcDbEntity
  8
0
100
AcDbSpline
 62
7
  6
BYLAYER
 70
0
 71
3
 72
11
 73
7
 74
0
 42
0.0000001
 43
0.0000001
 44
0.0000000001
 40
0.0
 40
0.0
 40
0.0
 40
0.0
 40
0.2288337186
 40
0.4804303557
 40
0.7422653266
 40
1.0
 40
1.0
 40
1.0
 40
1.0
 10
14.0915322175
 20
12.1130386745
 30
0.0
 10
14.0915322175
 20
12.1968798273
 30
0.0
 10
14.1145505599
 20
12.3730995288
 30
0.0
 10
14.2007682188
 20
12.6323641526
 30
0.0
 10
14.3339097186
 20
12.8829633932
 30
0.0
 10
14.4501501567
 20
13.035114406
 30
0.0
 10
14.5141536289
 20
13.1045448302
 30
0.0
  0
SPLINE
  5
36B
100
AcDbEntity
  8
0
100
AcDbSpline
 62
7
  6
BYLAYER
 70
0
 71
3
 72
9
 73
5
 74
0
 42
0.0000001
 43
0.0000001
 44
0.0000000001
 40
0.0
 40
0.0
 40
0.0
 40
0.0
 40
0.2644203964
 40
1.0
 40
1.0
 40
1.0
 40
1.0
 10
15.4114161312
 20
14.077887588
 30
0.0
 10
15.4151597653
 20
14.0819486505
 30
0.0
 10
15.4298030922
 20
14.0968361162
 30
0.0
 10
15.4464715775
 20
14.1098559541
 30
0.0
 10
15.4597781419
 20
14.1175384567
 30
0.0
  0
SPLINE
  5
36C
100
AcDbEntity
  8
0
100
AcDbSpline
 62
7
  6
BYLAYER
 70
0
 71
3
 72
11
 73
7
 74
0
 42
0.0000001
 43
0.0000001
 44
0.0000000001
 40
0.0
 40
0.0
 40
0.0
 40
0.0
 40
0.2279527803
 40
0.4747386667
 40
0.734497103
 40
1.0
 40
1.0
 40
1.0
 40
1.0
 10
22.8596777908
 20
24.4525164302
 30
0.0
 10
22.8596777908
 20
24.5708705467
 30
0.0
 10
22.8827253552
 20
24.8175855251
 30
0.0
 10
22.9735108335
 20
25.1891013313
 30
0.0
 10
23.118725865
 20
25.5638142796
 30
0.0
 10
23.2473295114
 20
25.8051610922
 30
0.0
 10
23.3192952847
 20
25.9227350463
 30
0.0
  0
SPLINE
  5
36D
100
AcDbEntity
  8
0
100
AcDbSpline
 62
7
  6
BYLAYER
 70
0
 71
3
 72
11
 73
7
 74
0
 42
0.0000001
 43
0.0000001
 44
0.0000000001
 40
0.0
 40
0.0
 40
0.0
 40
0.0
 40
0.2372423294
 40
0.499998382
 40
0.7627553151
 40
1.0
 40
1.0
 40
1.0
 40
1.0
 10
22.4248089311
 20
14.5463051978
 30
0.0
 10
22.4418752097
 20
14.5561583596
 30
0.0
 10
22.4741693347
 20
14.5833405846
 30
0.0
 10
22.511861816
 20
14.6348492908
 30
0.0
 10
22.5376231978
 20
14.6932466047
 30
0.0
 10
22.5450165834
 20
14.7348055074
 30
0.0
 10
22.5450165834
 20
14.7545121147
 30
0.0
  0
SPLINE
  5
36E
100
AcDbEntity
  8
0
100
AcDbSpline
 62
7
  6
BYLAYER
 70
0
 71
3
 72
9
 73
5
 74
0
 42
0.0000001
 43
0.0000001
 44
0.0000000001
 40
0.0
 40
0.0
 40
0.0
 40
0.0
 40
0.2290783529
 40
1.0
 40
1.0
 40
1.0
 40
1.0
 10
22.3764469195
 20
14.5301127601
 30
0.0
 10
22.3803514413
 20
14.5303856944
 30
0.0
 10
22.3973114553
 20
14.5328258639
 30
0.0
 10
22.4134016068
 20
14.5397192154
 30
0.0
 10
22.4248089311
 20
14.5463051978
 30
0.0
  0
SPLINE
  5
36F
100
AcDbEntity
  8
0
100
AcDbSpline
 62
7
  6
BYLAYER
 70
0
 71
3
 72
12
 73
8
 74
0
 42
0.0000001
 43
0.0000001
 44
0.0000000001
 40
0.0
 40
0.0
 40
0.0
 40
0.0
 40
0.2564273701
 40
0.5174310583
 40
0.7692534301
 40
0.8879797246
 40
1.0
 40
1.0
 40
1.0
 40
1.0
 10
17.591710341
 20
22.2769185397
 30
0.0
 10
17.6664750224
 20
22.033663804
 30
0.0
 10
17.8624484809
 20
21.5558053648
 30
0.0
 10
18.26332546
 20
20.902711335
 30
0.0
 10
18.6761698853
 20
20.4262460413
 30
0.0
 10
19.0387346334
 20
20.1123663077
 30
0.0
 10
19.2270001517
 20
19.980974267
 30
0.0
 10
19.3219008971
 20
19.9230690992
 30
0.0
  0
SPLINE
  5
370
100
AcDbEntity
  8
0
100
AcDbSpline
 62
7
  6
BYLAYER
 70
0
 71
3
 72
9
 73
5
 74
0
 42
0.0000001
 43
0.0000001
 44
0.0000000001
 40
0.0
 40
0.0
 40
0.0
 40
0.0
 40
0.2392602038
 40
1.0
 40
1.0
 40
1.0
 40
1.0
 10
14.0995184651
 20
66.7472773939
 30
0.0
 10
14.0981723088
 20
66.740865851
 30
0.0
 10
14.0933370756
 20
66.7139039033
 30
0.0
 10
14.0915322175
 20
66.6864366964
 30
0.0
 10
14.0915322175
 20
66.6656063919
 30
0.0
  0
SPLINE
  5
371
100
AcDbEntity
  8
0
100
AcDbSpline
 62
7
  6
BYLAYER
 70
0
 71
3
 72
12
 73
8
 74
0
 42
0.0000001
 43
0.0000001
 44
0.0000000001
 40
0.0
 40
0.0
 40
0.0
 40
0.0
 40
0.1110512185
 40
0.2291817352
 40
0.4808191221
 40
0.7425835491
 40
1.0
 40
1.0
 40
1.0
 40
1.0
 10
17.5740476121
 20
64.4917201936
 30
0.0
 10
17.6715447816
 20
64.4354314499
 30
0.0
 10
17.8653410606
 20
64.3061021321
 30
0.0
 10
18.2394946296
 20
63.9925779181
 30
0.0
 10
18.6664284161
 20
63.5101147366
 30
0.0
 10
19.0808127663
 20
62.8439694226
 30
0.0
 10
19.2828330753
 20
62.3545021457
 30
0.0
 10
19.3594996672
 20
62.1050593444
 30
0.0
  0
SPLINE
  5
372
100
AcDbEntity
  8
0
100
AcDbSpline
 62
7
  6
BYLAYER
 70
0
 71
3
 72
12
 73
8
 74
0
 42
0.0000001
 43
0.0000001
 44
0.0000000001
 40
0.0
 40
0.0
 40
0.0
 40
0.0
 40
0.1110512185
 40
0.2291817352
 40
0.4808191221
 40
0.7425835491
 40
1.0
 40
1.0
 40
1.0
 40
1.0
 10
17.5740476121
 20
23.3399983906
 30
0.0
 10
17.6715447816
 20
23.283709647
 30
0.0
 10
17.8653410606
 20
23.1543803291
 30
0.0
 10
18.2394946296
 20
22.8408561152
 30
0.0
 10
18.6664284161
 20
22.3583929337
 30
0.0
 10
19.0808127663
 20
21.6922476196
 30
0.0
 10
19.2828330753
 20
21.2027803428
 30
0.0
 10
19.3594996672
 20
20.9533375415
 30
0.0
  0
SPLINE
  5
373
100
AcDbEntity
  8
0
100
AcDbSpline
 62
7
  6
BYLAYER
 70
0
 71
3
 72
15
 73
11
 74
0
 42
0.0000001
 43
0.0000001
 44
0.0000000001
 40
0.0
 40
0.0
 40
0.0
 40
0.0
 40
0.1141465952
 40
0.2373352439
 40
0.366975646
 40
0.4999989181
 40
0.6330223406
 40
0.7626631822
 40
0.8858525235
 40
1.0
 40
1.0
 40
1.0
 40
1.0
 10
17.5740476121
 20
58.3679520681
 30
0.0
 10
17.7289397941
 20
58.2785270482
 30
0.0
 10
18.0349005061
 20
58.0640293911
 30
0.0
 10
18.4559113032
 20
57.6701915484
 30
0.0
 10
18.8438470288
 20
57.2045785014
 30
0.0
 10
19.1841876636
 20
56.684785297
 30
0.0
 10
19.4641744049
 20
56.1301457755
 30
0.0
 10
19.6734429454
 20
55.5613762862
 30
0.0
 10
19.8040153975
 20
54.9998490972
 30
0.0
 10
19.8367987315
 20
54.6276283761
 30
0.0
 10
19.8367987315
 20
54.4487739207
 30
0.0
  0
SPLINE
  5
374
100
AcDbEntity
  8
0
100
AcDbSpline
 62
7
  6
BYLAYER
 70
0
 71
3
 72
13
 73
9
 74
0
 42
0.0000001
 43
0.0000001
 44
0.0000000001
 40
0.0
 40
0.0
 40
0.0
 40
0.0
 40
0.2893776722
 40
0.5483149914
 40
0.6677431632
 40
0.7817668512
 40
0.8919057346
 40
1.0
 40
1.0
 40
1.0
 40
1.0
 10
19.8367987315
 20
26.3610907855
 30
0.0
 10
19.8367987315
 20
26.1989107711
 30
0.0
 10
19.8123494372
 20
25.8906904248
 30
0.0
 10
19.7052773522
 20
25.5280983641
 30
0.0
 10
19.5752807944
 20
25.2837218484
 30
0.0
 10
19.4606292531
 20
25.1280642354
 30
0.0
 10
19.327387604
 20
24.9968491195
 30
0.0
 10
19.2264932722
 20
24.9264864075
 30
0.0
 10
19.1740286871
 20
24.8961961441
 30
0.0
  0
SPLINE
  5
375
100
AcDbEntity
  8
0
100
AcDbSpline
 62
7
  6
BYLAYER
 70
0
 71
3
 72
11
 73
7
 74
0
 42
0.0000001
 43
0.0000001
 44
0.0000000001
 40
0.0
 40
0.0
 40
0.0
 40
0.0
 40
0.2372428333
 40
0.4999989082
 40
0.7627555772
 40
1.0
 40
1.0
 40
1.0
 40
1.0
 10
22.54147812
 20
64.318241347
 30
0.0
 10
22.5916734012
 20
64.2892617435
 30
0.0
 10
22.6866568657
 20
64.2093145777
 30
0.0
 10
22.7975180994
 20
64.0578188666
 30
0.0
 10
22.8732875521
 20
63.8860623523
 30
0.0
 10
22.8950329826
 20
63.7638303401
 30
0.0
 10
22.8950329826
 20
63.7058697614
 30
0.0
  0
SPLINE
  5
376
100
AcDbEntity
  8
0
100
AcDbSpline
 62
7
  6
BYLAYER
 70
0
 71
3
 72
11
 73
7
 74
0
 42
0.0000001
 43
0.0000001
 44
0.0000000001
 40
0.0
 40
0.0
 40
0.0
 40
0.0
 40
0.2565324797
 40
0.5176337293
 40
0.7695196557
 40
1.0
 40
1.0
 40
1.0
 40
1.0
 10
17.6270655328
 20
63.4490525503
 30
0.0
 10
17.7018929428
 20
63.2055937206
 30
0.0
 10
17.8980206984
 20
62.727403588
 30
0.0
 10
18.2995349428
 20
62.073650428
 30
0.0
 10
18.7852799054
 20
61.5134660801
 30
0.0
 10
19.1637508015
 20
61.213098067
 30
0.0
 10
19.3591728309
 20
61.0940408975
 30
0.0
  0
SPLINE
  5
377
100
AcDbEntity
  8
0
100
AcDbSpline
 62
7
  6
BYLAYER
 70
0
 71
3
 72
13
 73
9
 74
0
 42
0.0000001
 43
0.0000001
 44
0.0000000001
 40
0.0
 40
0.0
 40
0.0
 40
0.0
 40
0.3072578402
 40
0.5818344637
 40
0.7019079297
 40
0.8099714855
 40
0.9079109707
 40
1.0
 40
1.0
 40
1.0
 40
1.0
 10
20.1783497191
 20
67.4354465045
 30
0.0
 10
20.2056704589
 20
67.4888170479
 30
0.0
 10
20.2471594439
 20
67.5954877763
 30
0.0
 10
20.2661051448
 20
67.7331963457
 30
0.0
 10
20.2545369937
 20
67.8311315484
 30
0.0
 10
20.2343303191
 20
67.8920601762
 30
0.0
 10
20.2022391417
 20
67.9414494909
 30
0.0
 10
20.1730568812
 20
67.9655039564
 30
0.0
 10
20.157501902
 20
67.9745016396
 30
0.0
  0
SPLINE
  5
378
100
AcDbEntity
  8
0
100
AcDbSpline
 62
7
  6
BYLAYER
 70
0
 71
3
 72
12
 73
8
 74
0
 42
0.0000001
 43
0.0000001
 44
0.0000000001
 40
0.0
 40
0.0
 40
0.0
 40
0.0
 40
0.2895344687
 40
0.5486012059
 40
0.781552131
 40
0.8917903001
 40
1.0
 40
1.0
 40
1.0
 40
1.0
 10
22.1702455146
 20
65.8939913668
 30
0.0
 10
22.1702455146
 20
65.9953466064
 30
0.0
 10
22.1548814694
 20
66.1880781126
 30
0.0
 10
22.0769682407
 20
66.4527200133
 30
0.0
 10
21.964992358
 20
66.6353378897
 30
0.0
 10
21.8518919529
 20
66.7465969803
 30
0.0
 10
21.7888112004
 20
66.790597724
 30
0.0
 10
21.7560093086
 20
66.8095435554
 30
0.0
  0
SPLINE
  5
379
100
AcDbEntity
  8
0
100
AcDbSpline
 62
7
  6
BYLAYER
 70
0
 71
3
 72
13
 73
9
 74
0
 42
0.0000001
 43
0.0000001
 44
0.0000000001
 40
0.0
 40
0.0
 40
0.0
 40
0.0
 40
0.3072578402
 40
0.5818344637
 40
0.7019079297
 40
0.8099714855
 40
0.9079109707
 40
1.0
 40
1.0
 40
1.0
 40
1.0
 10
17.6327759065
 20
68.4322243075
 30
0.0
 10
17.6600966462
 20
68.485594851
 30
0.0
 10
17.7015856312
 20
68.5922655793
 30
0.0
 10
17.7205313321
 20
68.7299741488
 30
0.0
 10
17.708963181
 20
68.8279093515
 30
0.0
 10
17.6887565064
 20
68.8888379793
 30
0.0
 10
17.656665329
 20
68.938227294
 30
0.0
 10
17.6274830685
 20
68.9622817594
 30
0.0
 10
17.6119280893
 20
68.9712794427
 30
0.0
  0
SPLINE
  5
37A
100
AcDbEntity
  8
0
100
AcDbSpline
 62
7
  6
BYLAYER
 70
0
 71
3
 72
13
 73
9
 74
0
 42
0.0000001
 43
0.0000001
 44
0.0000000001
 40
0.0
 40
0.0
 40
0.0
 40
0.0
 40
0.3072578402
 40
0.5818344637
 40
0.7019079297
 40
0.8099714855
 40
0.9079109707
 40
1.0
 40
1.0
 40
1.0
 40
1.0
 10
18.9055628128
 20
67.9338354061
 30
0.0
 10
18.9328835526
 20
67.9872059495
 30
0.0
 10
18.9743725376
 20
68.0938766779
 30
0.0
 10
18.9933182385
 20
68.2315852473
 30
0.0
 10
18.9817500874
 20
68.32952045
 30
0.0
 10
18.9615434128
 20
68.3904490777
 30
0.0
 10
18.9294522354
 20
68.4398383925
 30
0.0
 10
18.9002699749
 20
68.4638928579
 30
0.0
 10
18.8847149957
 20
68.4728905411
 30
0.0
  0
SPLINE
  5
37B
100
AcDbEntity
  8
0
100
AcDbSpline
 62
7
  6
BYLAYER
 70
0
 71
3
 72
9
 73
5
 74
0
 42
0.0000001
 43
0.0000001
 44
0.0000000001
 40
0.0
 40
0.0
 40
0.0
 40
0.0
 40
0.2566593217
 40
1.0
 40
1.0
 40
1.0
 40
1.0
 10
14.3406471315
 20
71.0999866617
 30
0.0
 10
14.3448742392
 20
71.1031451563
 30
0.0
 10
14.3615102897
 20
71.1152257809
 30
0.0
 10
14.378822136
 20
71.1263865043
 30
0.0
 10
14.3920573833
 20
71.1340278322
 30
0.0
  0
SPLINE
  5
37C
100
AcDbEntity
  8
0
100
AcDbSpline
 62
7
  6
BYLAYER
 70
0
 71
3
 72
9
 73
5
 74
0
 42
0.0000001
 43
0.0000001
 44
0.0000000001
 40
0.0
 40
0.0
 40
0.0
 40
0.0
 40
0.2566593217
 40
1.0
 40
1.0
 40
1.0
 40
1.0
 10
13.0678602251
 20
71.5983755633
 30
0.0
 10
13.0720873328
 20
71.6015340578
 30
0.0
 10
13.0887233834
 20
71.6136146824
 30
0.0
 10
13.1060352296
 20
71.6247754058
 30
0.0
 10
13.1192704769
 20
71.6324167338
 30
0.0
  0
SPLINE
  5
37D
100
AcDbEntity
  8
0
100
AcDbSpline
 62
7
  6
BYLAYER
 70
0
 71
3
 72
9
 73
5
 74
0
 42
0.0000001
 43
0.0000001
 44
0.0000000001
 40
0.0
 40
0.0
 40
0.0
 40
0.0
 40
0.5252746908
 40
1.0
 40
1.0
 40
1.0
 40
1.0
 10
11.5756470881
 20
71.8286066626
 30
0.0
 10
11.608335264
 20
71.89246239
 30
0.0
 10
11.6855575615
 20
72.0067797904
 30
0.0
 10
11.7903367632
 20
72.0983894545
 30
0.0
 10
11.8464835706
 20
72.1308056353
 30
0.0
  0
SPLINE
  5
37E
100
AcDbEntity
  8
0
100
AcDbSpline
 62
7
  6
BYLAYER
 70
0
 71
3
 72
11
 73
7
 74
0
 42
0.0000001
 43
0.0000001
 44
0.0000000001
 40
0.0
 40
0.0
 40
0.0
 40
0.0
 40
0.2864445687
 40
0.5461838901
 40
0.7817307243
 40
1.0
 40
1.0
 40
1.0
 40
1.0
 10
10.9643299368
 20
71.9432990177
 30
0.0
 10
10.9839553669
 20
71.9546296975
 30
0.0
 10
11.0230220126
 20
71.9736038542
 30
0.0
 10
11.0829798784
 20
71.9903466054
 30
0.0
 10
11.1398931448
 20
71.9932126381
 30
0.0
 10
11.1755095729
 20
71.9852896829
 30
0.0
 10
11.1915887288
 20
71.9789935207
 30
0.0
  0
SPLINE
  5
37F
100
AcDbEntity
  8
0
100
AcDbSpline
 62
7
  6
BYLAYER
 70
0
 71
3
 72
11
 73
7
 74
0
 42
0.0000001
 43
0.0000001
 44
0.0000000001
 40
0.0
 40
0.0
 40
0.0
 40
0.0
 40
0.2372542274
 40
0.5000017851
 40
0.7627483734
 40
1.0
 40
1.0
 40
1.0
 40
1.0
 10
10.396920705
 20
71.0441554086
 30
0.0
 10
10.396920705
 20
71.1253035702
 30
0.0
 10
10.4273454404
 20
71.2964347638
 30
0.0
 10
10.5334685131
 20
71.5368685809
 30
0.0
 10
10.6886271875
 20
71.7489908171
 30
0.0
 10
10.8216176867
 20
71.8609045536
 30
0.0
 10
10.8918933906
 20
71.901478008
 30
0.0
  0
SPLINE
  5
380
100
AcDbEntity
  8
0
100
AcDbSpline
 62
7
  6
BYLAYER
 70
0
 71
3
 72
11
 73
7
 74
0
 42
0.0000001
 43
0.0000001
 44
0.0000000001
 40
0.0
 40
0.0
 40
0.0
 40
0.0
 40
0.2190024526
 40
0.455495478
 40
0.7151370315
 40
1.0
 40
1.0
 40
1.0
 40
1.0
 10
10.5468191144
 20
70.4597798371
 30
0.0
 10
10.5222466707
 20
70.4819102513
 30
0.0
 10
10.4776541887
 20
70.5355363313
 30
0.0
 10
10.4308240166
 20
70.6338026774
 30
0.0
 10
10.4027112727
 20
70.749021154
 30
0.0
 10
10.396920705
 20
70.8314238696
 30
0.0
 10
10.396920705
 20
70.8744377247
 30
0.0
  0
SPLINE
  5
381
100
AcDbEntity
  8
0
100
AcDbSpline
 62
7
  6
BYLAYER
 70
0
 71
3
 72
9
 73
5
 74
0
 42
0.0000001
 43
0.0000001
 44
0.0000000001
 40
0.0
 40
0.0
 40
0.0
 40
0.0
 40
0.2615634963
 40
1.0
 40
1.0
 40
1.0
 40
1.0
 10
14.7590230124
 20
66.622330775
 30
0.0
 10
14.7531335662
 20
66.6347791931
 30
0.0
 10
14.7286224174
 20
66.681371275
 30
0.0
 10
14.6953106368
 20
66.7235687772
 30
0.0
 10
14.6664212754
 20
66.7495870904
 30
0.0
  0
SPLINE
  5
382
100
AcDbEntity
  8
0
100
AcDbSpline
 62
7
  6
BYLAYER
 70
0
 71
3
 72
9
 73
5
 74
0
 42
0.0000001
 43
0.0000001
 44
0.0000000001
 40
0.0
 40
0.0
 40
0.0
 40
0.0
 40
0.2608480544
 40
1.0
 40
1.0
 40
1.0
 40
1.0
 10
20.7643335626
 20
66.3512618012
 30
0.0
 10
20.7774955287
 20
66.3576505783
 30
0.0
 10
20.8285217655
 20
66.3809276795
 30
0.0
 10
20.8819299171
 20
66.3992004559
 30
0.0
 10
20.9222544768
 20
66.4088280135
 30
0.0
  0
SPLINE
  5
383
100
AcDbEntity
  8
0
100
AcDbSpline
 62
7
  6
BYLAYER
 70
0
 71
3
 72
10
 73
6
 74
0
 42
0.0000001
 43
0.0000001
 44
0.0000000001
 40
0.0
 40
0.0
 40
0.0
 40
0.0
 40
0.5245783328
 40
0.7657809598
 40
1.0
 40
1.0
 40
1.0
 40
1.0
 10
20.9222544768
 20
66.4088280135
 30
0.0
 10
20.9800377383
 20
66.4226238659
 30
0.0
 10
21.068680639
 20
66.43114454
 30
0.0
 10
21.1802612651
 20
66.4082851739
 30
0.0
 10
21.2300022786
 20
66.3863838391
 30
0.0
 10
21.2529741773
 20
66.3731227638
 30
0.0
  0
SPLINE
  5
384
100
AcDbEntity
  8
0
100
AcDbSpline
 62
7
  6
BYLAYER
 70
0
 71
3
 72
11
 73
7
 74
0
 42
0.0000001
 43
0.0000001
 44
0.0000000001
 40
0.0
 40
0.0
 40
0.0
 40
0.0
 40
0.2206890576
 40
0.4582277796
 40
0.7173659872
 40
1.0
 40
1.0
 40
1.0
 40
1.0
 10
58.1808097087
 20
46.3720093616
 30
0.0
 10
57.9576199035
 20
46.4334126661
 30
0.0
 10
57.4758909546
 20
46.4997400067
 30
0.0
 10
56.7214434008
 20
46.4310788315
 30
0.0
 10
55.9321941309
 20
46.2031413519
 30
0.0
 10
55.416080198
 20
45.9598047722
 30
0.0
 10
55.1566476199
 20
45.8163426866
 30
0.0
  0
SPLINE
  5
385
100
AcDbEntity
  8
0
100
AcDbSpline
 62
7
  6
BYLAYER
 70
0
 71
3
 72
11
 73
7
 74
0
 42
0.0000001
 43
0.0000001
 44
0.0000000001
 40
0.0
 40
0.0
 40
0.0
 40
0.0
 40
0.2177182217
 40
0.4509432136
 40
0.7102956782
 40
1.0
 40
1.0
 40
1.0
 40
1.0
 10
27.6557384871
 20
69.1545318536
 30
0.0
 10
27.645845804
 20
69.1602435602
 30
0.0
 10
27.6231056803
 20
69.1684883567
 30
0.0
 10
27.5853402634
 20
69.169460014
 30
0.0
 10
27.5450889947
 20
69.1597274636
 30
0.0
 10
27.5189028141
 20
69.1472746186
 30
0.0
 10
27.5057391119
 20
69.139674597
 30
0.0
  0
SPLINE
  5
386
100
AcDbEntity
  8
0
100
AcDbSpline
 62
7
  6
BYLAYER
 70
0
 71
3
 72
14
 73
10
 74
0
 42
0.0000001
 43
0.0000001
 44
0.0000000001
 40
0.0
 40
0.0
 40
0.0
 40
0.0
 40
0.3061459132
 40
0.4499055051
 40
0.5830925546
 40
0.7039257431
 40
0.8119959355
 40
0.9092086131
 40
1.0
 40
1.0
 40
1.0
 40
1.0
 10
55.484463425
 20
27.88855745
 30
0.0
 10
55.426671612
 20
27.7884585381
 30
0.0
 10
55.3572612934
 20
27.631153086
 30
0.0
 10
55.3072689407
 20
27.4162580307
 30
0.0
 10
55.2941069597
 20
27.2660519825
 30
0.0
 10
55.3049556056
 20
27.1290043877
 30
0.0
 10
55.3401605191
 20
27.0098552669
 30
0.0
 10
55.3992094951
 20
26.9131400064
 30
0.0
 10
55.4548160606
 20
26.8665109406
 30
0.0
 10
55.4844926648
 20
26.8493565205
 30
0.0
  0
SPLINE
  5
387
100
AcDbEntity
  8
0
100
AcDbSpline
 62
7
  6
BYLAYER
 70
0
 71
3
 72
15
 73
11
 74
0
 42
0.0000001
 43
0.0000001
 44
0.0000000001
 40
0.0
 40
0.0
 40
0.0
 40
0.0
 40
0.0907472429
 40
0.1879146185
 40
0.2959335738
 40
0.4167092318
 40
0.5498319601
 40
0.6935173028
 40
0.8449833874
 40
1.0
 40
1.0
 40
1.0
 40
1.0
 10
56.0370350726
 20
30.0003689436
 30
0.0
 10
56.0700105196
 20
29.9813081965
 30
0.0
 10
56.1317983106
 20
29.9294947216
 30
0.0
 10
56.1974061158
 20
29.8220248408
 30
0.0
 10
56.2365258898
 20
29.6896327401
 30
0.0
 10
56.2485776453
 20
29.5373425403
 30
0.0
 10
56.2339433912
 20
29.3704750084
 30
0.0
 10
56.1931283229
 20
29.1948744372
 30
0.0
 10
56.1276437542
 20
29.0171942349
 30
0.0
 10
56.0695942755
 20
28.9020394381
 30
0.0
 10
56.0370630341
 20
28.8456933625
 30
0.0
  0
SPLINE
  5
388
100
AcDbEntity
  8
0
100
AcDbSpline
 62
7
  6
BYLAYER
 70
0
 71
3
 72
17
 73
13
 74
0
 42
0.0000001
 43
0.0000001
 44
0.0000000001
 40
0.0
 40
0.0
 40
0.0
 40
0.0
 40
0.0428610889
 40
0.0874933219
 40
0.1353242067
 40
0.1872920259
 40
0.3045550376
 40
0.4382235112
 40
0.5825716791
 40
0.7297207861
 40
0.8713288786
 40
1.0
 40
1.0
 40
1.0
 40
1.0
 10
21.2529741773
 20
66.3731227638
 30
0.0
 10
21.2800949086
 20
66.3574666762
 30
0.0
 10
21.3315467285
 20
66.3181664937
 30
0.0
 10
21.3933558225
 20
66.2398912793
 30
0.0
 10
21.4396427953
 20
66.1442467611
 30
0.0
 10
21.4810934429
 20
65.9903975631
 30
0.0
 10
21.4863406105
 20
65.7661338229
 30
0.0
 10
21.4282749616
 20
65.4814944068
 30
0.0
 10
21.3112963487
 20
65.1920049775
 30
0.0
 10
21.1447905218
 20
64.9211484767
 30
0.0
 10
20.9424693104
 20
64.691013078
 30
0.0
 10
20.7844186444
 20
64.5693760994
 30
0.0
 10
20.703003434
 20
64.5223712864
 30
0.0
  0
SPLINE
  5
389
100
AcDbEntity
  8
0
100
AcDbSpline
 62
7
  6
BYLAYER
 70
0
 71
3
 72
15
 73
11
 74
0
 42
0.0000001
 43
0.0000001
 44
0.0000000001
 40
0.0
 40
0.0
 40
0.0
 40
0.0
 40
0.12875508
 40
0.2706271576
 40
0.4178814204
 40
0.5623916513
 40
0.6962027403
 40
0.8135607516
 40
0.9131112831
 40
1.0
 40
1.0
 40
1.0
 40
1.0
 10
28.4057353648
 20
70.698522487
 30
0.0
 10
28.3835416164
 20
70.6857089968
 30
0.0
 10
28.3404495176
 20
70.6525061829
 30
0.0
 10
28.2852428704
 20
70.5897728798
 30
0.0
 10
28.239851637
 20
70.5158742491
 30
0.0
 10
28.2079287194
 20
70.4369641292
 30
0.0
 10
28.1921204978
 20
70.3592743193
 30
0.0
 10
28.1937434321
 20
70.2887355183
 30
0.0
 10
28.2135887775
 20
70.2302129974
 30
0.0
 10
28.2407589518
 20
70.2024110241
 30
0.0
 10
28.2557359893
 20
70.1937637802
 30
0.0
  0
SPLINE
  5
38A
100
AcDbEntity
  8
0
100
AcDbSpline
 62
7
  6
BYLAYER
 70
0
 71
3
 72
11
 73
7
 74
0
 42
0.0000001
 43
0.0000001
 44
0.0000000001
 40
0.0
 40
0.0
 40
0.0
 40
0.0
 40
0.2177182218
 40
0.4509432136
 40
0.7102956781
 40
1.0
 40
1.0
 40
1.0
 40
1.0
 10
28.5557347406
 20
70.7133797435
 30
0.0
 10
28.5458420574
 20
70.7190914501
 30
0.0
 10
28.5231019337
 20
70.7273362466
 30
0.0
 10
28.4853365166
 20
70.728307904
 30
0.0
 10
28.4450852478
 20
70.7185753537
 30
0.0
 10
28.418899067
 20
70.7061225087
 30
0.0
 10
28.4057353648
 20
70.698522487
 30
0.0
  0
SPLINE
  5
38B
100
AcDbEntity
  8
0
100
AcDbSpline
 62
7
  6
BYLAYER
 70
0
 71
3
 72
15
 73
11
 74
0
 42
0.0000001
 43
0.0000001
 44
0.0000000001
 40
0.0
 40
0.0
 40
0.0
 40
0.0
 40
0.1287128824
 40
0.2707127248
 40
0.4179693211
 40
0.5624277056
 40
0.6962354356
 40
0.8136568935
 40
0.9130960858
 40
1.0
 40
1.0
 40
1.0
 40
1.0
 10
21.2156467976
 20
13.1541373068
 30
0.0
 10
21.193461046
 20
13.1413284337
 30
0.0
 10
21.1503860798
 20
13.108080046
 30
0.0
 10
21.0951279188
 20
13.0453786608
 30
0.0
 10
21.0497276836
 20
12.9714617417
 30
0.0
 10
21.0178723548
 20
12.8925418507
 30
0.0
 10
21.0020301185
 20
12.8148641359
 30
0.0
 10
21.0036593792
 20
12.744329127
 30
0.0
 10
21.0235317741
 20
12.6858348276
 30
0.0
 10
21.050672568
 20
12.6580311737
 30
0.0
 10
21.0656543344
 20
12.6493871998
 30
0.0
  0
SPLINE
  5
38C
100
AcDbEntity
  8
0
100
AcDbSpline
 62
7
  6
BYLAYER
 70
0
 71
3
 72
13
 73
9
 74
0
 42
0.0000001
 43
0.0000001
 44
0.0000000001
 40
0.0
 40
0.0
 40
0.0
 40
0.0
 40
0.2968141749
 40
0.5802688286
 40
0.7054493042
 40
0.8158041342
 40
0.912293645
 40
1.0
 40
1.0
 40
1.0
 40
1.0
 10
21.1222943924
 20
14.5449469722
 30
0.0
 10
21.0913730314
 20
14.5096409195
 30
0.0
 10
21.04099974
 20
14.4314959321
 30
0.0
 10
21.0060805132
 20
14.3236532916
 30
0.0
 10
21.0019271228
 20
14.2412167365
 30
0.0
 10
21.0107197609
 20
14.1889075572
 30
0.0
 10
21.0314433675
 20
14.1462968367
 30
0.0
 10
21.0536421553
 20
14.1260221721
 30
0.0
 10
21.0656543344
 20
14.1190915499
 30
0.0
  0
SPLINE
  5
38D
100
AcDbEntity
  8
0
100
AcDbSpline
 62
7
  6
BYLAYER
 70
0
 71
3
 72
11
 73
7
 74
0
 42
0.0000001
 43
0.0000001
 44
0.0000000001
 40
0.0
 40
0.0
 40
0.0
 40
0.0
 40
0.2895411595
 40
0.5491183966
 40
0.7822559144
 40
1.0
 40
1.0
 40
1.0
 40
1.0
 10
21.0565630067
 20
7.8979479205
 30
0.0
 10
21.0565630067
 20
7.8473090686
 30
0.0
 10
21.0642950482
 20
7.7509522163
 30
0.0
 10
21.1032481563
 20
7.6185410532
 30
0.0
 10
21.1689547208
 20
7.5110599163
 30
0.0
 10
21.2307231224
 20
7.4592509097
 30
0.0
 10
21.2637033031
 20
7.44021023
 30
0.0
  0
SPLINE
  5
38E
100
AcDbEntity
  8
0
100
AcDbSpline
 62
7
  6
BYLAYER
 70
0
 71
3
 72
11
 73
7
 74
0
 42
0.0000001
 43
0.0000001
 44
0.0000000001
 40
0.0
 40
0.0
 40
0.0
 40
0.0
 40
0.2577346734
 40
0.5195696443
 40
0.7711662814
 40
1.0
 40
1.0
 40
1.0
 40
1.0
 10
21.4791844181
 20
9.0833734001
 30
0.0
 10
21.4151809459
 20
9.0139429759
 30
0.0
 10
21.2989405077
 20
8.8617919631
 30
0.0
 10
21.165799008
 20
8.6111927225
 30
0.0
 10
21.0795813491
 20
8.3519280987
 30
0.0
 10
21.0565630067
 20
8.1757083972
 30
0.0
 10
21.0565630067
 20
8.0918672445
 30
0.0
  0
SPLINE
  5
38F
100
AcDbEntity
  8
0
100
AcDbSpline
 62
7
  6
BYLAYER
 70
0
 71
3
 72
9
 73
5
 74
0
 42
0.0000001
 43
0.0000001
 44
0.0000000001
 40
0.0
 40
0.0
 40
0.0
 40
0.0
 40
0.2389404513
 40
1.0
 40
1.0
 40
1.0
 40
1.0
 10
22.4248089311
 20
10.0963670267
 30
0.0
 10
22.4219977495
 20
10.094744
 30
0.0
 10
22.4104402333
 20
10.0875934995
 30
0.0
 10
22.3997152811
 20
10.0791331872
 30
0.0
 10
22.3920473657
 20
10.0721976301
 30
0.0
  0
SPLINE
  5
390
100
AcDbEntity
  8
0
100
AcDbSpline
 62
7
  6
BYLAYER
 70
0
 71
3
 72
11
 73
7
 74
0
 42
0.0000001
 43
0.0000001
 44
0.0000000001
 40
0.0
 40
0.0
 40
0.0
 40
0.0
 40
0.2466693315
 40
0.4996238592
 40
0.752835557
 40
1.0
 40
1.0
 40
1.0
 40
1.0
 10
19.1565710139
 20
20.7044903471
 30
0.0
 10
19.0395850861
 20
20.8285808794
 30
0.0
 10
18.8181033245
 20
21.0948741214
 30
0.0
 10
18.5316008874
 20
21.5306243442
 30
0.0
 10
18.2944019927
 20
21.9954442047
 30
0.0
 10
18.1722424589
 20
22.3200962614
 30
0.0
 10
18.1220390251
 20
22.4834384012
 30
0.0
  0
SPLINE
  5
391
100
AcDbEntity
  8
0
100
AcDbSpline
 62
7
  6
BYLAYER
 70
0
 71
3
 72
11
 73
7
 74
0
 42
0.0000001
 43
0.0000001
 44
0.0000000001
 40
0.0
 40
0.0
 40
0.0
 40
0.0
 40
0.284108874
 40
0.5528160162
 40
0.7935653469
 40
1.0
 40
1.0
 40
1.0
 40
1.0
 10
28.6994841417
 20
74.1089438506
 30
0.0
 10
28.6517868168
 20
74.026329202
 30
0.0
 10
28.571923447
 20
73.8576575318
 30
0.0
 10
28.5005520411
 20
73.5993580111
 30
0.0
 10
28.4838703204
 20
73.3578043017
 30
0.0
 10
28.5138007869
 20
73.2074926316
 30
0.0
 10
28.5405750871
 20
73.1435580835
 30
0.0
  0
SPLINE
  5
392
100
AcDbEntity
  8
0
100
AcDbSpline
 62
7
  6
BYLAYER
 70
0
 71
3
 72
10
 73
6
 74
0
 42
0.0000001
 43
0.0000001
 44
0.0000000001
 40
0.0
 40
0.0
 40
0.0
 40
0.0
 40
0.2284562192
 40
0.4750701915
 40
1.0
 40
1.0
 40
1.0
 40
1.0
 10
29.7212592065
 20
75.5405136261
 30
0.0
 10
29.6728644181
 20
75.5125730488
 30
0.0
 10
29.5772500804
 20
75.4455142788
 30
0.0
 10
29.3982593644
 20
75.278103053
 30
0.0
 10
29.2854611008
 20
75.12389135
 30
0.0
 10
29.2212612881
 20
75.0126933953
 30
0.0
  0
SPLINE
  5
393
100
AcDbEntity
  8
0
100
AcDbSpline
 62
7
  6
BYLAYER
 70
0
 71
3
 72
9
 73
5
 74
0
 42
0.0000001
 43
0.0000001
 44
0.0000000001
 40
0.0
 40
0.0
 40
0.0
 40
0.0
 40
0.2247481205
 40
1.0
 40
1.0
 40
1.0
 40
1.0
 10
30.0710213235
 20
75.6355656633
 30
0.0
 10
30.043709609
 20
75.6377464946
 30
0.0
 10
29.9211150707
 20
75.6350333039
 30
0.0
 10
29.8031070295
 20
75.5877682067
 30
0.0
 10
29.7212592065
 20
75.5405136261
 30
0.0
  0
SPLINE
  5
394
100
AcDbEntity
  8
0
100
AcDbSpline
 62
7
  6
BYLAYER
 70
0
 71
3
 72
12
 73
8
 74
0
 42
0.0000001
 43
0.0000001
 44
0.0000000001
 40
0.0
 40
0.0
 40
0.0
 40
0.0
 40
0.1081475721
 40
0.2183561783
 40
0.4513376573
 40
0.7104536642
 40
1.0
 40
1.0
 40
1.0
 40
1.0
 10
18.9490397054
 20
18.7130462917
 30
0.0
 10
18.9039599839
 20
18.6870194018
 30
0.0
 10
18.8082248612
 20
18.6421983005
 30
0.0
 10
18.5980107045
 20
18.5840748328
 30
0.0
 10
18.303561394
 20
18.576140824
 30
0.0
 10
17.9348329524
 20
18.665370535
 30
0.0
 10
17.694741534
 20
18.7795540068
 30
0.0
 10
17.5740476121
 20
18.8492350986
 30
0.0
  0
SPLINE
  5
395
100
AcDbEntity
  8
0
100
AcDbSpline
 62
7
  6
BYLAYER
 70
0
 71
3
 72
11
 73
7
 74
0
 42
0.0000001
 43
0.0000001
 44
0.0000000001
 40
0.0
 40
0.0
 40
0.0
 40
0.0
 40
0.2212799702
 40
0.4598536615
 40
0.7190897938
 40
1.0
 40
1.0
 40
1.0
 40
1.0
 10
49.1272181633
 20
84.4251400561
 30
0.0
 10
49.068411821
 20
84.4355835999
 30
0.0
 10
48.9433109764
 20
84.4426034349
 30
0.0
 10
48.7502688399
 20
84.4140270127
 30
0.0
 10
48.5498545043
 20
84.3478729926
 30
0.0
 10
48.4190048206
 20
84.2824489112
 30
0.0
 10
48.3533413731
 20
84.2445383285
 30
0.0
  0
SPLINE
  5
396
100
AcDbEntity
  8
0
100
AcDbSpline
 62
7
  6
BYLAYER
 70
0
 71
3
 72
11
 73
7
 74
0
 42
0.0000001
 43
0.0000001
 44
0.0000000001
 40
0.0
 40
0.0
 40
0.0
 40
0.0
 40
0.2896460386
 40
0.5491397239
 40
0.7822617023
 40
1.0
 40
1.0
 40
1.0
 40
1.0
 10
21.0565630067
 20
14.9709001054
 30
0.0
 10
21.0565630067
 20
14.920242053
 30
0.0
 10
21.0642635348
 20
14.8238747496
 30
0.0
 10
21.1032768869
 20
14.6914737085
 30
0.0
 10
21.1689738455
 20
14.5840194925
 30
0.0
 10
21.2307029515
 20
14.5321673663
 30
0.0
 10
21.263678168
 20
14.5131188257
 30
0.0
  0
SPLINE
  5
397
100
AcDbEntity
  8
0
100
AcDbSpline
 62
7
  6
BYLAYER
 70
0
 71
3
 72
9
 73
5
 74
0
 42
0.0000001
 43
0.0000001
 44
0.0000000001
 40
0.0
 40
0.0
 40
0.0
 40
0.0
 40
0.2415779785
 40
1.0
 40
1.0
 40
1.0
 40
1.0
 10
51.7625492013
 20
74.3735485883
 30
0.0
 10
51.7385253214
 20
74.3596784776
 30
0.0
 10
51.6403520456
 20
74.3000709013
 30
0.0
 10
51.5472804456
 20
74.2321977123
 30
0.0
 10
51.479707377
 20
74.1772572937
 30
0.0
  0
SPLINE
  5
398
100
AcDbEntity
  8
0
100
AcDbSpline
 62
7
  6
BYLAYER
 70
0
 71
3
 72
10
 73
6
 74
0
 42
0.0000001
 43
0.0000001
 44
0.0000000001
 40
0.0
 40
0.0
 40
0.0
 40
0.0
 40
0.501326006
 40
0.7536866916
 40
1.0
 40
1.0
 40
1.0
 40
1.0
 10
19.2289188976
 20
62.103820137
 30
0.0
 10
19.0223639164
 20
62.3429413489
 30
0.0
 10
18.7497326185
 20
62.7373528552
 30
0.0
 10
18.471434871
 20
63.3035223594
 30
0.0
 10
18.3621028579
 20
63.5990295242
 30
0.0
 10
18.3164925807
 20
63.7474273467
 30
0.0
  0
SPLINE
  5
399
100
AcDbEntity
  8
0
100
AcDbSpline
 62
7
  6
BYLAYER
 70
0
 71
3
 72
9
 73
5
 74
0
 42
0.0000001
 43
0.0000001
 44
0.0000000001
 40
0.0
 40
0.0
 40
0.0
 40
0.0
 40
0.2411568237
 40
1.0
 40
1.0
 40
1.0
 40
1.0
 10
21.0565630067
 20
62.6444349619
 30
0.0
 10
21.0565630067
 20
62.6517744689
 30
0.0
 10
21.0558518458
 20
62.6822075194
 30
0.0
 10
21.0524250236
 20
62.7125552736
 30
0.0
 10
21.0485767592
 20
62.7353274789
 30
0.0
  0
SPLINE
  5
39A
100
AcDbEntity
  8
0
100
AcDbSpline
 62
7
  6
BYLAYER
 70
0
 71
3
 72
11
 73
7
 74
0
 42
0.0000001
 43
0.0000001
 44
0.0000000001
 40
0.0
 40
0.0
 40
0.0
 40
0.0
 40
0.2277334887
 40
0.4753017382
 40
0.7355781001
 40
1.0
 40
1.0
 40
1.0
 40
1.0
 10
17.5740476121
 20
60.0009569016
 30
0.0
 10
17.4192910717
 20
60.0903036105
 30
0.0
 10
17.1150059342
 20
60.3099572231
 30
0.0
 10
16.7047353807
 20
60.7186269756
 30
0.0
 10
16.3375192158
 20
61.2028809016
 30
0.0
 10
16.1327169969
 20
61.5616210081
 30
0.0
 10
16.0419258954
 20
61.7481872158
 30
0.0
  0
SPLINE
  5
39B
100
AcDbEntity
  8
0
100
AcDbSpline
 62
7
  6
BYLAYER
 70
0
 71
3
 72
9
 73
5
 74
0
 42
0.0000001
 43
0.0000001
 44
0.0000000001
 40
0.0
 40
0.0
 40
0.0
 40
0.0
 40
0.2539030125
 40
1.0
 40
1.0
 40
1.0
 40
1.0
 10
16.0419258954
 20
61.7481872158
 30
0.0
 10
16.0164402831
 20
61.8005574807
 30
0.0
 10
15.9199499646
 20
62.0086759438
 30
0.0
 10
15.8388760972
 20
62.2240247374
 30
0.0
 10
15.788595557
 20
62.3876177507
 30
0.0
  0
SPLINE
  5
39C
100
AcDbEntity
  8
0
100
AcDbSpline
 62
7
  6
BYLAYER
 70
0
 71
3
 72
9
 73
5
 74
0
 42
0.0000001
 43
0.0000001
 44
0.0000000001
 40
0.0
 40
0.0
 40
0.0
 40
0.0
 40
0.258959238
 40
1.0
 40
1.0
 40
1.0
 40
1.0
 10
52.3199066097
 20
66.7323221644
 30
0.0
 10
52.2950692641
 20
66.7116241943
 30
0.0
 10
52.1976331757
 20
66.6335639765
 30
0.0
 10
52.093940002
 20
66.5631523264
 30
0.0
 10
52.0138160464
 20
66.5168930151
 30
0.0
  0
SPLINE
  5
39D
100
AcDbEntity
  8
0
100
AcDbSpline
 62
7
  6
BYLAYER
 70
0
 71
3
 72
12
 73
8
 74
0
 42
0.0000001
 43
0.0000001
 44
0.0000000001
 40
0.0
 40
0.0
 40
0.0
 40
0.0
 40
0.1110512185
 40
0.2291817352
 40
0.4808191221
 40
0.7425835491
 40
1.0
 40
1.0
 40
1.0
 40
1.0
 10
17.5740476121
 20
18.8492350986
 30
0.0
 10
17.4765504426
 20
18.9055238423
 30
0.0
 10
17.2827541636
 20
19.0348531601
 30
0.0
 10
16.9086005947
 20
19.3483773741
 30
0.0
 10
16.4816668081
 20
19.8308405555
 30
0.0
 10
16.0672824579
 20
20.4969858696
 30
0.0
 10
15.8652621489
 20
20.9864531465
 30
0.0
 10
15.788595557
 20
21.2358959478
 30
0.0
  0
SPLINE
  5
39E
100
AcDbEntity
  8
0
100
AcDbSpline
 62
7
  6
BYLAYER
 70
0
 71
3
 72
13
 73
9
 74
0
 42
0.0000001
 43
0.0000001
 44
0.0000000001
 40
0.0
 40
0.0
 40
0.0
 40
0.0
 40
0.2893776722
 40
0.5483149914
 40
0.6677431632
 40
0.7817668512
 40
0.8919057346
 40
1.0
 40
1.0
 40
1.0
 40
1.0
 10
15.3112964928
 20
57.0615147484
 30
0.0
 10
15.3112964928
 20
57.2236947627
 30
0.0
 10
15.335745787
 20
57.531915109
 30
0.0
 10
15.442817872
 20
57.8945071697
 30
0.0
 10
15.5728144298
 20
58.1388836854
 30
0.0
 10
15.6874659711
 20
58.2945412984
 30
0.0
 10
15.8207076202
 20
58.4257564143
 30
0.0
 10
15.921601952
 20
58.4961191263
 30
0.0
 10
15.9740665371
 20
58.5264093897
 30
0.0
  0
SPLINE
  5
39F
100
AcDbEntity
  8
0
100
AcDbSpline
 62
7
  6
BYLAYER
 70
0
 71
3
 72
15
 73
11
 74
0
 42
0.0000001
 43
0.0000001
 44
0.0000000001
 40
0.0
 40
0.0
 40
0.0
 40
0.0
 40
0.1141465952
 40
0.2373352439
 40
0.366975646
 40
0.4999989181
 40
0.6330223406
 40
0.7626631822
 40
0.8858525235
 40
1.0
 40
1.0
 40
1.0
 40
1.0
 10
17.5740476121
 20
25.0546534658
 30
0.0
 10
17.4191554301
 20
25.1440784857
 30
0.0
 10
17.1131947181
 20
25.3585761427
 30
0.0
 10
16.692183921
 20
25.7524139855
 30
0.0
 10
16.3042481954
 20
26.2180270324
 30
0.0
 10
15.9639075606
 20
26.7378202369
 30
0.0
 10
15.6839208193
 20
27.2924597583
 30
0.0
 10
15.4746522788
 20
27.8612292476
 30
0.0
 10
15.3440798267
 20
28.4227564366
 30
0.0
 10
15.3112964928
 20
28.7949771577
 30
0.0
 10
15.3112964928
 20
28.9738316131
 30
0.0
  0
SPLINE
  5
3A0
100
AcDbEntity
  8
0
100
AcDbSpline
 62
7
  6
BYLAYER
 70
0
 71
3
 72
9
 73
5
 74
0
 42
0.0000001
 43
0.0000001
 44
0.0000000001
 40
0.0
 40
0.0
 40
0.0
 40
0.0
 40
0.477823521
 40
1.0
 40
1.0
 40
1.0
 40
1.0
 10
16.8398687733
 20
58.6321169206
 30
0.0
 10
16.8003152956
 20
58.5168187921
 30
0.0
 10
16.7423043473
 20
58.2667464767
 30
0.0
 10
16.7255041665
 20
58.0112115583
 30
0.0
 10
16.7255041665
 20
57.8780030557
 30
0.0
  0
SPLINE
  5
3A1
100
AcDbEntity
  8
0
100
AcDbSpline
 62
7
  6
BYLAYER
 70
0
 71
3
 72
13
 73
9
 74
0
 42
0.0000001
 43
0.0000001
 44
0.0000000001
 40
0.0
 40
0.0
 40
0.0
 40
0.0
 40
0.1080947724
 40
0.2182340858
 40
0.3322580584
 40
0.4516863355
 40
0.7106233083
 40
1.0
 40
1.0
 40
1.0
 40
1.0
 10
19.1740286871
 20
24.8961961441
 30
0.0
 10
19.1215652608
 20
24.8659065498
 30
0.0
 10
19.0101845601
 20
24.813712401
 30
0.0
 10
18.8299323234
 20
24.7639304106
 30
0.0
 10
18.6378078927
 20
24.7424679326
 30
0.0
 10
18.3611806969
 20
24.752074053
 30
0.0
 10
17.9936405823
 20
24.8406373625
 30
0.0
 10
17.7144961817
 20
24.9735672807
 30
0.0
 10
17.5740476121
 20
25.0546534658
 30
0.0
  0
SPLINE
  5
3A2
100
AcDbEntity
  8
0
100
AcDbSpline
 62
7
  6
BYLAYER
 70
0
 71
3
 72
9
 73
5
 74
0
 42
0.0000001
 43
0.0000001
 44
0.0000000001
 40
0.0
 40
0.0
 40
0.0
 40
0.0
 40
0.2410776986
 40
1.0
 40
1.0
 40
1.0
 40
1.0
 10
20.1818771296
 20
63.5653092059
 30
0.0
 10
20.1913105592
 20
63.5568132782
 30
0.0
 10
20.2285193044
 20
63.519444534
 30
0.0
 10
20.2573872772
 20
63.4741790792
 30
0.0
 10
20.2744788659
 20
63.4380528913
 30
0.0
  0
SPLINE
  5
3A3
100
AcDbEntity
  8
0
100
AcDbSpline
 62
7
  6
BYLAYER
 70
0
 71
3
 72
11
 73
7
 74
0
 42
0.0000001
 43
0.0000001
 44
0.0000000001
 40
0.0
 40
0.0
 40
0.0
 40
0.0
 40
0.2848559113
 40
0.5445216648
 40
0.7810766925
 40
1.0
 40
1.0
 40
1.0
 40
1.0
 10
15.9123765584
 20
67.6916476652
 30
0.0
 10
15.9123765584
 20
67.6485944745
 30
0.0
 10
15.9179760307
 20
67.5661097557
 30
0.0
 10
15.9458671051
 20
67.4507002978
 30
0.0
 10
15.9924855171
 20
67.3522462288
 30
0.0
 10
16.0368950656
 20
67.2983595802
 30
0.0
 10
16.0614817012
 20
67.2762163845
 30
0.0
  0
SPLINE
  5
3A4
100
AcDbEntity
  8
0
100
AcDbSpline
 62
7
  6
BYLAYER
 70
0
 71
3
 72
11
 73
7
 74
0
 42
0.0000001
 43
0.0000001
 44
0.0000000001
 40
0.0
 40
0.0
 40
0.0
 40
0.0
 40
0.2372518718
 40
0.4999985497
 40
0.7627460178
 40
1.0
 40
1.0
 40
1.0
 40
1.0
 10
16.407349244
 20
68.7172001243
 30
0.0
 10
16.3370734675
 20
68.676626628
 30
0.0
 10
16.204082894
 20
68.5647127911
 30
0.0
 10
16.0489242229
 20
68.3525904486
 30
0.0
 10
15.9428012441
 20
68.1121566818
 30
0.0
 10
15.9123765584
 20
67.9410256026
 30
0.0
 10
15.9123765584
 20
67.8598775249
 30
0.0
  0
SPLINE
  5
3A5
100
AcDbEntity
  8
0
100
AcDbSpline
 62
7
  6
BYLAYER
 70
0
 71
3
 72
11
 73
7
 74
0
 42
0.0000001
 43
0.0000001
 44
0.0000000001
 40
0.0
 40
0.0
 40
0.0
 40
0.0
 40
0.2182692757
 40
0.4538161099
 40
0.7135554313
 40
1.0
 40
1.0
 40
1.0
 40
1.0
 10
16.7070445827
 20
68.7947156369
 30
0.0
 10
16.6909654268
 20
68.8010117991
 30
0.0
 10
16.6553489987
 20
68.8089347544
 30
0.0
 10
16.598435732
 20
68.8060687218
 30
0.0
 10
16.5384778662
 20
68.7893259706
 30
0.0
 10
16.4994112203
 20
68.7703518138
 30
0.0
 10
16.4797857902
 20
68.7590211341
 30
0.0
  0
SPLINE
  5
3A6
100
AcDbEntity
  8
0
100
AcDbSpline
 62
7
  6
BYLAYER
 70
0
 71
3
 72
9
 73
5
 74
0
 42
0.0000001
 43
0.0000001
 44
0.0000000001
 40
0.0
 40
0.0
 40
0.0
 40
0.0
 40
0.4747253092
 40
1.0
 40
1.0
 40
1.0
 40
1.0
 10
17.361939424
 20
68.9465277516
 30
0.0
 10
17.3057926166
 20
68.9141115708
 30
0.0
 10
17.201013415
 20
68.8225019067
 30
0.0
 10
17.1237911174
 20
68.7081845063
 30
0.0
 10
17.0911029416
 20
68.644328779
 30
0.0
  0
SPLINE
  5
3A7
100
AcDbEntity
  8
0
100
AcDbSpline
 62
7
  6
BYLAYER
 70
0
 71
3
 72
9
 73
5
 74
0
 42
0.0000001
 43
0.0000001
 44
0.0000000001
 40
0.0
 40
0.0
 40
0.0
 40
0.0
 40
0.4747253092
 40
1.0
 40
1.0
 40
1.0
 40
1.0
 10
18.6347263303
 20
68.4481388501
 30
0.0
 10
18.578579523
 20
68.4157226692
 30
0.0
 10
18.4738003213
 20
68.3241130052
 30
0.0
 10
18.3965780237
 20
68.2097956048
 30
0.0
 10
18.3638898479
 20
68.1459398774
 30
0.0
  0
SPLINE
  5
3A8
100
AcDbEntity
  8
0
100
AcDbSpline
 62
7
  6
BYLAYER
 70
0
 71
3
 72
9
 73
5
 74
0
 42
0.0000001
 43
0.0000001
 44
0.0000000001
 40
0.0
 40
0.0
 40
0.0
 40
0.0
 40
0.4747253092
 40
1.0
 40
1.0
 40
1.0
 40
1.0
 10
19.9075132367
 20
67.9497499486
 30
0.0
 10
19.8513664293
 20
67.9173337677
 30
0.0
 10
19.7465872276
 20
67.8257241036
 30
0.0
 10
19.6693649301
 20
67.7114067033
 30
0.0
 10
19.6366767543
 20
67.647550976
 30
0.0
  0
SPLINE
  5
3A9
100
AcDbEntity
  8
0
100
AcDbSpline
 62
7
  6
BYLAYER
 70
0
 71
3
 72
9
 73
5
 74
0
 42
0.0000001
 43
0.0000001
 44
0.0000000001
 40
0.0
 40
0.0
 40
0.0
 40
0.0
 40
0.2646904461
 40
1.0
 40
1.0
 40
1.0
 40
1.0
 10
20.8974586083
 20
66.4309485603
 30
0.0
 10
20.920205899
 20
66.4440816363
 30
0.0
 10
21.0076102443
 20
66.4910129451
 30
0.0
 10
21.1013264394
 20
66.5269915074
 30
0.0
 10
21.172321935
 20
66.5438413471
 30
0.0
  0
SPLINE
  5
3AA
100
AcDbEntity
  8
0
100
AcDbSpline
 62
7
  6
BYLAYER
 70
0
 71
3
 72
21
 73
17
 74
0
 42
0.0000001
 43
0.0000001
 44
0.0000000001
 40
0.0
 40
0.0
 40
0.0
 40
0.0
 40
0.0513130178
 40
0.0982899517
 40
0.1431173337
 40
0.1885170206
 40
0.2370613025
 40
0.2905345787
 40
0.3497355498
 40
0.4146354761
 40
0.4845871312
 40
0.5584785029
 40
0.7121369739
 40
0.863187638
 40
0.9340725512
 40
1.0
 40
1.0
 40
1.0
 40
1.0
 10
21.172321935
 20
66.5438413471
 30
0.0
 10
21.224985519
 20
66.5563403506
 30
0.0
 10
21.3288407094
 20
66.57023254
 30
0.0
 10
21.4805437601
 20
66.550974828
 30
0.0
 10
21.6143426735
 20
66.4897584359
 30
0.0
 10
21.7234973838
 20
66.3888246454
 30
0.0
 10
21.8040363235
 20
66.253716045
 30
0.0
 10
21.8544987768
 20
66.0899612024
 30
0.0
 10
21.8744591528
 20
65.9027762761
 30
0.0
 10
21.8638701341
 20
65.6976482425
 30
0.0
 10
21.8231461912
 20
65.4806647475
 30
0.0
 10
21.7293261792
 20
65.1805874928
 30
0.0
 10
21.5490705103
 20
64.8209361131
 30
0.0
 10
21.303090485
 20
64.5061964877
 30
0.0
 10
21.0769823858
 20
64.3025856427
 30
0.0
 10
20.9576840439
 20
64.2203378782
 30
0.0
 10
20.8974586083
 20
64.1855669143
 30
0.0
  0
SPLINE
  5
3AB
100
AcDbEntity
  8
0
100
AcDbSpline
 62
7
  6
BYLAYER
 70
0
 71
3
 72
15
 73
11
 74
0
 42
0.0000001
 43
0.0000001
 44
0.0000000001
 40
0.0
 40
0.0
 40
0.0
 40
0.0
 40
0.1514558601
 40
0.2911928829
 40
0.419407781
 40
0.5382203411
 40
0.6511371807
 40
0.7626548133
 40
0.8775693922
 40
1.0
 40
1.0
 40
1.0
 40
1.0
 10
20.8974586083
 20
64.1855669143
 30
0.0
 10
20.8512469699
 20
64.1588867717
 30
0.0
 10
20.7590595203
 20
64.1130262088
 30
0.0
 10
20.6179092044
 20
64.0672311228
 30
0.0
 10
20.4820390475
 20
64.0487595503
 30
0.0
 10
20.3544935388
 20
64.0583775929
 30
0.0
 10
20.238406206
 20
64.0966363696
 30
0.0
 10
20.1371451557
 20
64.162743314
 30
0.0
 10
20.0538446412
 20
64.2547327704
 30
0.0
 10
20.0129178347
 20
64.3284948531
 30
0.0
 10
19.9956567208
 20
64.3680250003
 30
0.0
  0
SPLINE
  5
3AC
100
AcDbEntity
  8
0
100
AcDbSpline
 62
7
  6
BYLAYER
 70
0
 71
3
 72
9
 73
5
 74
0
 42
0.0000001
 43
0.0000001
 44
0.0000000001
 40
0.0
 40
0.0
 40
0.0
 40
0.0
 40
0.2377292353
 40
1.0
 40
1.0
 40
1.0
 40
1.0
 10
19.9956567208
 20
64.3680250003
 30
0.0
 10
19.9883776147
 20
64.3846950795
 30
0.0
 10
19.9605565815
 20
64.4560336264
 30
0.0
 10
19.9435674964
 20
64.5313660155
 30
0.0
 10
19.9356006891
 20
64.5891450471
 30
0.0
  0
SPLINE
  5
3AD
100
AcDbEntity
  8
0
100
AcDbSpline
 62
7
  6
BYLAYER
 70
0
 71
3
 72
9
 73
5
 74
0
 42
0.0000001
 43
0.0000001
 44
0.0000000001
 40
0.0
 40
0.0
 40
0.0
 40
0.0
 40
0.2427289444
 40
1.0
 40
1.0
 40
1.0
 40
1.0
 10
19.9356006891
 20
64.5891450471
 30
0.0
 10
19.9338523968
 20
64.6018244848
 30
0.0
 10
19.9276344844
 20
64.6541952862
 30
0.0
 10
19.9252155166
 20
64.7069946823
 30
0.0
 10
19.9252148132
 20
64.7469265329
 30
0.0
  0
SPLINE
  5
3AE
100
AcDbEntity
  8
0
100
AcDbSpline
 62
7
  6
BYLAYER
 70
0
 71
3
 72
13
 73
9
 74
0
 42
0.0000001
 43
0.0000001
 44
0.0000000001
 40
0.0
 40
0.0
 40
0.0
 40
0.0
 40
0.2893786241
 40
0.5483162202
 40
0.6677442727
 40
0.7817676894
 40
0.8919061851
 40
1.0
 40
1.0
 40
1.0
 40
1.0
 10
23.7612372476
 20
11.5847920768
 30
0.0
 10
23.7612372476
 20
11.3820661442
 30
0.0
 10
23.7917988336
 20
10.9967893832
 30
0.0
 10
23.9256391514
 20
10.5435479137
 30
0.0
 10
24.0881352575
 20
10.2380770798
 30
0.0
 10
24.2314499361
 20
10.0435055391
 30
0.0
 10
24.3980022875
 20
9.8794876086
 30
0.0
 10
24.524120421
 20
9.7915351953
 30
0.0
 10
24.5897012318
 20
9.7536729496
 30
0.0
  0
SPLINE
  5
3AF
100
AcDbEntity
  8
0
100
AcDbSpline
 62
7
  6
BYLAYER
 70
0
 71
3
 72
10
 73
6
 74
0
 42
0.0000001
 43
0.0000001
 44
0.0000000001
 40
0.0
 40
0.0
 40
0.0
 40
0.0
 40
0.5249281934
 40
0.7715426358
 40
1.0
 40
1.0
 40
1.0
 40
1.0
 10
23.9683431666
 20
65.9143218146
 30
0.0
 10
23.9041431387
 20
65.8031234873
 30
0.0
 10
23.8269915682
 20
65.6283302385
 30
0.0
 10
23.7715048036
 20
65.3896124641
 30
0.0
 10
23.7612372476
 20
65.2732775182
 30
0.0
 10
23.7612372476
 20
65.2173954742
 30
0.0
  0
SPLINE
  5
3B0
100
AcDbEntity
  8
0
100
AcDbSpline
 62
7
  6
BYLAYER
 70
0
 71
3
 72
12
 73
8
 74
0
 42
0.0000001
 43
0.0000001
 44
0.0000000001
 40
0.0
 40
0.0
 40
0.0
 40
0.0
 40
0.1081475721
 40
0.2183561783
 40
0.4513376573
 40
0.7104536642
 40
1.0
 40
1.0
 40
1.0
 40
1.0
 10
18.9490397054
 20
59.8647680946
 30
0.0
 10
18.9039599839
 20
59.8387412047
 30
0.0
 10
18.8082248612
 20
59.7939201034
 30
0.0
 10
18.5980107045
 20
59.7357966357
 30
0.0
 10
18.303561394
 20
59.7278626269
 30
0.0
 10
17.9348329524
 20
59.8170923379
 30
0.0
 10
17.6947415339
 20
59.9312758097
 30
0.0
 10
17.5740476121
 20
60.0009569016
 30
0.0
  0
SPLINE
  5
3B1
100
AcDbEntity
  8
0
100
AcDbSpline
 62
7
  6
BYLAYER
 70
0
 71
3
 72
11
 73
7
 74
0
 42
0.0000001
 43
0.0000001
 44
0.0000000001
 40
0.0
 40
0.0
 40
0.0
 40
0.0
 40
0.2896620542
 40
0.5490949068
 40
0.7822190571
 40
1.0
 40
1.0
 40
1.0
 40
1.0
 10
55.12915787
 20
55.2011349994
 30
0.0
 10
55.0765117131
 20
55.1707399079
 30
0.0
 10
54.9717592143
 20
55.1209231155
 30
0.0
 10
54.810773379
 20
55.0820232075
 30
0.0
 10
54.6596917839
 20
55.0858336366
 30
0.0
 10
54.5687716076
 20
55.1188869941
 30
0.0
 10
54.529178076
 20
55.1417189625
 30
0.0
  0
SPLINE
  5
3B2
100
AcDbEntity
  8
0
100
AcDbSpline
 62
7
  6
BYLAYER
 70
0
 71
3
 72
9
 73
5
 74
0
 42
0.0000001
 43
0.0000001
 44
0.0000000001
 40
0.0
 40
0.0
 40
0.0
 40
0.0
 40
0.2552991338
 40
1.0
 40
1.0
 40
1.0
 40
1.0
 10
55.2314456756
 20
55.2673357326
 30
0.0
 10
55.2230195403
 20
55.2612894109
 30
0.0
 10
55.1897414514
 20
55.2379905195
 30
0.0
 10
55.1553568678
 20
55.2162609075
 30
0.0
 10
55.12915787
 20
55.2011349994
 30
0.0
  0
SPLINE
  5
3B3
100
AcDbEntity
  8
0
100
AcDbSpline
 62
7
  6
BYLAYER
 70
0
 71
3
 72
9
 73
5
 74
0
 42
0.0000001
 43
0.0000001
 44
0.0000000001
 40
0.0
 40
0.0
 40
0.0
 40
0.0
 40
0.2446978588
 40
1.0
 40
1.0
 40
1.0
 40
1.0
 10
55.2655416108
 20
55.2894026437
 30
0.0
 10
55.2626720559
 20
55.2877459153
 30
0.0
 10
55.2510346635
 20
55.2808209933
 30
0.0
 10
55.2397552993
 20
55.2732984494
 30
0.0
 10
55.2314456756
 20
55.2673357326
 30
0.0
  0
SPLINE
  5
3B4
100
AcDbEntity
  8
0
100
AcDbSpline
 62
7
  6
BYLAYER
 70
0
 71
3
 72
10
 73
6
 74
0
 42
0.0000001
 43
0.0000001
 44
0.0000000001
 40
0.0
 40
0.0
 40
0.0
 40
0.0
 40
0.2284562192
 40
0.4750701915
 40
1.0
 40
1.0
 40
1.0
 40
1.0
 10
24.9869995985
 20
67.3404899296
 30
0.0
 10
24.9386048102
 20
67.3125493523
 30
0.0
 10
24.8429904725
 20
67.2454905823
 30
0.0
 10
24.6639997565
 20
67.0780793567
 30
0.0
 10
24.551201493
 20
66.9238676538
 30
0.0
 10
24.4870016804
 20
66.8126696991
 30
0.0
  0
SPLINE
  5
3B5
100
AcDbEntity
  8
0
100
AcDbSpline
 62
7
  6
BYLAYER
 70
0
 71
3
 72
9
 73
5
 74
0
 42
0.0000001
 43
0.0000001
 44
0.0000000001
 40
0.0
 40
0.0
 40
0.0
 40
0.0
 40
0.2311150115
 40
1.0
 40
1.0
 40
1.0
 40
1.0
 10
25.2435876682
 20
67.4329766619
 30
0.0
 10
25.2226648838
 20
67.4303051496
 30
0.0
 10
25.132851979
 20
67.4130879735
 30
0.0
 10
25.0477704964
 20
67.3755758144
 30
0.0
 10
24.9869995985
 20
67.3404899296
 30
0.0
  0
SPLINE
  5
3B6
100
AcDbEntity
  8
0
100
AcDbSpline
 62
7
  6
BYLAYER
 70
0
 71
3
 72
11
 73
7
 74
0
 42
0.0000001
 43
0.0000001
 44
0.0000000001
 40
0.0
 40
0.0
 40
0.0
 40
0.0
 40
0.2895411595
 40
0.5491183966
 40
0.7822559144
 40
1.0
 40
1.0
 40
1.0
 40
1.0
 10
53.2828224513
 20
53.2465333774
 30
0.0
 10
53.2828224513
 20
53.2110861811
 30
0.0
 10
53.2882348803
 20
53.1436363845
 30
0.0
 10
53.315502056
 20
53.0509485702
 30
0.0
 10
53.3614966512
 20
52.9757117744
 30
0.0
 10
53.4047345323
 20
52.9394454697
 30
0.0
 10
53.4278206588
 20
52.926116994
 30
0.0
  0
SPLINE
  5
3B7
100
AcDbEntity
  8
0
100
AcDbSpline
 62
7
  6
BYLAYER
 70
0
 71
3
 72
11
 73
7
 74
0
 42
0.0000001
 43
0.0000001
 44
0.0000000001
 40
0.0
 40
0.0
 40
0.0
 40
0.0
 40
0.327115025
 40
0.5977973286
 40
0.8144446066
 40
1.0
 40
1.0
 40
1.0
 40
1.0
 10
14.3877904069
 20
66.836657171
 30
0.0
 10
14.3662508926
 20
66.8490927341
 30
0.0
 10
14.3258474453
 20
66.8701523873
 30
0.0
 10
14.2673464309
 20
66.891216992
 30
0.0
 10
14.2157977963
 20
66.8974919581
 30
0.0
 10
14.1852582848
 20
66.8887877289
 30
0.0
 10
14.173035063
 20
66.8817422979
 30
0.0
  0
SPLINE
  5
3B8
100
AcDbEntity
  8
0
100
AcDbSpline
 62
7
  6
BYLAYER
 70
0
 71
3
 72
11
 73
7
 74
0
 42
0.0000001
 43
0.0000001
 44
0.0000000001
 40
0.0
 40
0.0
 40
0.0
 40
0.0
 40
0.236464979
 40
0.4964617752
 40
0.7556601282
 40
1.0
 40
1.0
 40
1.0
 40
1.0
 10
20.6457114714
 20
63.2237264953
 30
0.0
 10
20.6900928918
 20
63.19810345
 30
0.0
 10
20.7787023514
 20
63.1363146713
 30
0.0
 10
20.8996869325
 20
63.0250315825
 30
0.0
 10
20.9997161498
 20
62.8917023951
 30
0.0
 10
21.0397532539
 20
62.7875408028
 30
0.0
 10
21.0485767592
 20
62.7353274789
 30
0.0
  0
SPLINE
  5
3B9
100
AcDbEntity
  8
0
100
AcDbSpline
 62
7
  6
BYLAYER
 70
0
 71
3
 72
13
 73
9
 74
0
 42
0.0000001
 43
0.0000001
 44
0.0000000001
 40
0.0
 40
0.0
 40
0.0
 40
0.0
 40
0.1080938149
 40
0.2182323106
 40
0.3322557273
 40
0.4516837798
 40
0.7106213759
 40
1.0
 40
1.0
 40
1.0
 40
1.0
 10
23.8118803166
 20
10.2027379052
 30
0.0
 10
23.7462995057
 20
10.2406001509
 30
0.0
 10
23.6201813722
 20
10.3285525642
 30
0.0
 10
23.4536290208
 20
10.4925704947
 30
0.0
 10
23.3103143422
 20
10.6871420354
 30
0.0
 10
23.1478182361
 20
10.9926128694
 30
0.0
 10
23.0139779183
 20
11.4458543388
 30
0.0
 10
22.9834163323
 20
11.8311310998
 30
0.0
 10
22.9834163323
 20
12.0338570325
 30
0.0
  0
SPLINE
  5
3BA
100
AcDbEntity
  8
0
100
AcDbSpline
 62
7
  6
BYLAYER
 70
0
 71
3
 72
11
 73
7
 74
0
 42
0.0000001
 43
0.0000001
 44
0.0000000001
 40
0.0
 40
0.0
 40
0.0
 40
0.0
 40
0.2895390692
 40
0.5491116463
 40
0.7822565816
 40
1.0
 40
1.0
 40
1.0
 40
1.0
 10
20.703003434
 20
64.5223712864
 30
0.0
 10
20.6547650202
 20
64.4945209914
 30
0.0
 10
20.5587261039
 20
64.4488879562
 30
0.0
 10
20.4111654999
 20
64.4131727279
 30
0.0
 10
20.2726431954
 20
64.4166528295
 30
0.0
 10
20.1893107973
 20
64.4469827253
 30
0.0
 10
20.1530326906
 20
64.4679251257
 30
0.0
  0
SPLINE
  5
3BB
100
AcDbEntity
  8
0
100
AcDbSpline
 62
7
  6
BYLAYER
 70
0
 71
3
 72
15
 73
11
 74
0
 42
0.0000001
 43
0.0000001
 44
0.0000000001
 40
0.0
 40
0.0
 40
0.0
 40
0.0
 40
0.1141474765
 40
0.2373368178
 40
0.3669776594
 40
0.5000010819
 40
0.633024354
 40
0.7626647561
 40
0.8858534048
 40
1.0
 40
1.0
 40
1.0
 40
1.0
 10
16.7255041665
 20
29.7903199204
 30
0.0
 10
16.7255041665
 20
29.6114654651
 30
0.0
 10
16.7582875004
 20
29.2392447439
 30
0.0
 10
16.8888599525
 20
28.6777175549
 30
0.0
 10
17.098128493
 20
28.1089480656
 30
0.0
 10
17.3781152343
 20
27.5543085442
 30
0.0
 10
17.7184558691
 20
27.0345153398
 30
0.0
 10
18.1063915947
 20
26.5689022928
 30
0.0
 10
18.5274023918
 20
26.17506445
 30
0.0
 10
18.8333631038
 20
25.960566793
 30
0.0
 10
18.9882552858
 20
25.8711417731
 30
0.0
  0
SPLINE
  5
3BC
100
AcDbEntity
  8
0
100
AcDbSpline
 62
7
  6
BYLAYER
 70
0
 71
3
 72
9
 73
5
 74
0
 42
0.0000001
 43
0.0000001
 44
0.0000000001
 40
0.0
 40
0.0
 40
0.0
 40
0.0
 40
0.5221748663
 40
1.0
 40
1.0
 40
1.0
 40
1.0
 10
18.9882552858
 20
25.8711417731
 30
0.0
 10
19.1036087428
 20
25.8045439303
 30
0.0
 10
19.3332917036
 20
25.6913360197
 30
0.0
 10
19.5788468968
 20
25.6165435137
 30
0.0
 10
19.6984657402
 20
25.5931489542
 30
0.0
  0
SPLINE
  5
3BD
100
AcDbEntity
  8
0
100
AcDbSpline
 62
7
  6
BYLAYER
 70
0
 71
3
 72
11
 73
7
 74
0
 42
0.0000001
 43
0.0000001
 44
0.0000000001
 40
0.0
 40
0.0
 40
0.0
 40
0.0
 40
0.289702809
 40
0.549088757
 40
0.7822160314
 40
1.0
 40
1.0
 40
1.0
 40
1.0
 10
52.7524945734
 20
43.5301599046
 30
0.0
 10
52.6691259908
 20
43.4820273184
 30
0.0
 10
52.50327902
 20
43.4031290981
 30
0.0
 10
52.2483686506
 20
43.3415705516
 30
0.0
 10
52.0091878796
 20
43.3476245211
 30
0.0
 10
51.8651879881
 20
43.399881929
 30
0.0
 10
51.8025154323
 20
43.4360651346
 30
0.0
  0
SPLINE
  5
3BE
100
AcDbEntity
  8
0
100
AcDbSpline
 62
7
  6
BYLAYER
 70
0
 71
3
 72
11
 73
7
 74
0
 42
0.0000001
 43
0.0000001
 44
0.0000000001
 40
0.0
 40
0.0
 40
0.0
 40
0.0
 40
0.2177839237
 40
0.4509111717
 40
0.7102971901
 40
1.0
 40
1.0
 40
1.0
 40
1.0
 10
55.5909425933
 20
76.1055723301
 30
0.0
 10
55.5249714781
 20
76.1436598763
 30
0.0
 10
55.3733927016
 20
76.1986677211
 30
0.0
 10
55.1216234557
 20
76.205040318
 30
0.0
 10
54.8532967475
 20
76.1402418231
 30
0.0
 10
54.6787209528
 20
76.057191084
 30
0.0
 10
54.5909645501
 20
76.0065252037
 30
0.0
  0
SPLINE
  5
3BF
100
AcDbEntity
  8
0
100
AcDbSpline
 62
7
  6
BYLAYER
 70
0
 71
3
 72
13
 73
9
 74
0
 42
0.0000001
 43
0.0000001
 44
0.0000000001
 40
0.0
 40
0.0
 40
0.0
 40
0.0
 40
0.114176888
 40
0.2375715548
 40
0.5000017735
 40
0.762431024
 40
0.8858245003
 40
1.0
 40
1.0
 40
1.0
 40
1.0
 10
53.3888880269
 20
44.5507815768
 30
0.0
 10
53.3888880269
 20
44.5060967869
 30
0.0
 10
53.380652242
 20
44.4130318116
 30
0.0
 10
53.3362685084
 20
44.2219669382
 30
0.0
 10
53.2328529095
 20
43.9876695463
 30
0.0
 10
53.0816544808
 20
43.7809599258
 30
0.0
 10
52.9383806722
 20
43.6469906056
 30
0.0
 10
52.8619027075
 20
43.5933263433
 30
0.0
 10
52.8232049571
 20
43.57098432
 30
0.0
  0
SPLINE
  5
3C0
100
AcDbEntity
  8
0
100
AcDbSpline
 62
7
  6
BYLAYER
 70
0
 71
3
 72
15
 73
11
 74
0
 42
0.0000001
 43
0.0000001
 44
0.0000000001
 40
0.0
 40
0.0
 40
0.0
 40
0.0
 40
0.1287550801
 40
0.2706271576
 40
0.4178814205
 40
0.5623916514
 40
0.6962027404
 40
0.8135607517
 40
0.9131112831
 40
1.0
 40
1.0
 40
1.0
 40
1.0
 10
27.5057391119
 20
69.139674597
 30
0.0
 10
27.4835453634
 20
69.1268611068
 30
0.0
 10
27.4404532646
 20
69.0936582928
 30
0.0
 10
27.3852466174
 20
69.0309249897
 30
0.0
 10
27.339855384
 20
68.957026359
 30
0.0
 10
27.3079324665
 20
68.878116239
 30
0.0
 10
27.2921242449
 20
68.8004264291
 30
0.0
 10
27.2937471792
 20
68.729887628
 30
0.0
 10
27.3135925247
 20
68.6713651072
 30
0.0
 10
27.340762699
 20
68.6435631339
 30
0.0
 10
27.3557397366
 20
68.63491589
 30
0.0
  0
ENDSEC
  0
SECTION
  2
OBJECTS
  0
DICTIONARY
  5
C
100
AcDbDictionary
280
0
281
1
  3
ACAD_GROUP
350
D
  3
ACAD_MLINESTYLE
350
17
  3
ACAD_LAYOUT
350
1A
  3
ACAD_PLOTSETTINGS
350
19
  3
ACAD_PLOTSTYLENAME
350
E
  0
DICTIONARY
  5
D
102
{ACAD_REACTORS
330
C
102
}
100
AcDbDictionary
280
0
281
1
  0
ACDBDICTIONARYWDFLT
  5
E
102
{ACAD_REACTORS
330
C
102
}
100
AcDbDictionary
281
1
  3
Normal
350
F
100
AcDbDictionaryWithDefault
340
F
  0
DICTIONARY
  5
17
102
{ACAD_REACTORS
330
C
102
}
100
AcDbDictionary
280
0
281
1
  3
Standard
350
18
  0
DICTIONARY
  5
19
102
{ACAD_REACTORS
330
C
102
}
100
AcDbDictionary
281
1
  0
DICTIONARY
  5
1A
102
{ACAD_REACTORS
330
C
102
}
100
AcDbDictionary
281
1
  3
Model
350
3C1
  3
Layout1
350
3C2
  0
ACDBPLACEHOLDER
  5
F
102
{ACAD_REACTORS
330
E
102
}
  0
MLINESTYLE
  5
18
102
{ACAD_REACTORS
330
17
102
}
100
AcDbMlineStyle
  2
STANDARD
 70
0
  3

 62
256
 51
90.0
 52
90.0
 71
2
 49
0.5
 62
256
  6
BYLAYER
 49
-0.5
 62
256
  6
BYLAYER
  0
LAYOUT
  5
3C1
102
{ACAD_REACTORS
330
1A
102
}
100
AcDbPlotSettings
  1

  2
none_device
  4

  6

 40
0.0
 41
0.0
 42
0.0
 43
0.0
 44
210.0
 45
297.0
 46
0.0
 47
0.0
 48
0.0
 49
0.0
140
0.0
141
0.0
142
1.0
143
1.0
 70
1024
 72
1
 73
0
 74
0
  7

 75
0
147
1.0
148
0.0
149
0.0
100
AcDbLayout
  1
Model
 70
0
 71
0
 10
0.0
 20
0.0
 11
210.0
 21
297.0
 12
0.0
 22
0.0
 32
0.0
 14
0.0
 24
0.0
 34
0.0
 15
0.0
 25
0.0
 35
0.0
146
0.0
 13
0.0
 23
0.0
 33
0.0
 16
1.0
 26
0.0
 36
0.0
 17
0.0
 27
1.0
 37
0.0
 76
0
330
210
345
0
346
0
  0
LAYOUT
  5
3C2
102
{ACAD_REACTORS
330
1A
102
}
100
AcDbPlotSettings
  1

  2
none_device
  4

  6

 40
0.0
 41
0.0
 42
0.0
 43
0.0
 44
210.0
 45
297.0
 46
0.0
 47
0.0
 48
0.0
 49
0.0
140
0.0
141
0.0
142
1.0
143
1.0
 70
0
 72
1
 73
0
 74
0
  7

 75
0
147
1.0
148
0.0
149
0.0
100
AcDbLayout
  1
Layout1
 70
0
 71
1
 10
0.0
 20
0.0
 11
210.0
 21
297.0
 12
0.0
 22
0.0
 32
0.0
 14
0.0
 24
0.0
 34
0.0
 15
0.0
 25
0.0
 35
0.0
146
0.0
 13
0.0
 23
0.0
 33
0.0
 16
1.0
 26
0.0
 36
0.0
 17
0.0
 27
1.0
 37
0.0
 76
0
330
211
345
0
346
0
  0
ENDSEC
  0
EOF
