999
DXF file: C:\Users\sesa63760\Dev\_Creo\CAD\MCADPD0004578_3D-CAD\drw0001_4.dxf
999
Pro/ENGINEER 2019471 by Parametric Technology Corporation
  0
SECTION
  2
HEADER
  9
$ACADVER
  1
AC1024
  9
$DWGCODEPAGE
  3
ANSI_1252
  9
$EXTMAX
 10
112.0493730408
 20
158.4698275862
 30
0.0
  9
$EXTMIN
 10
0.0
 20
0.0
 30
0.0
  9
$LIMMIN
 10
0.0
 20
0.0
  9
$LIMMAX
 10
112.0493730408
 20
158.4698275862
  9
$VIEWCTR
 10
56.0246865204
 20
79.2349137931
  9
$VIEWSIZE
 40
158.4698275862
  9
$CLAYER
  8
0
  9
$LTSCALE
 40
10.3298850575
  9
$CELTYPE
  6
BYLAYER
  9
$DIMSCALE
 40
1.0
  9
$DIMASZ
 40
1.3339211076
  9
$DIMEXO
 40
1.0
  9
$DIMDLI
 40
7.1370114943
  9
$DIMEXE
 40
1.0
  9
$DIMCEN
 40
1.6903448276
  9
$DIMLFAC
 40
1.0
  9
$DIMBLK
  1
_FILLED
  9
$DIMALT
 70
0
  9
$DIMALTF
 40
0.0393700787
  9
$DIMTXT
 40
1.8674895507
  9
$DIMTOL
 70
1
  9
$DIMLIM
 70
0
  9
$DIMTFAC
 40
1.0
  9
$DIMTP
 40
0.01
  9
$DIMTM
 40
0.01
  9
$DIMGAP
 40
0.625
  9
$DIMDSEP
 70
46
  9
$AUNITS
 70
0
  9
$PDMODE
 70
3
  9
$PDSIZE
 40
0.3125
  9
$HANDSEED
  5
3E3
  9
$TILEMODE
 70
1
  9
$MEASUREMENT
 70
1
  9
$INSUNITS
 70
4
  0
ENDSEC
  0
SECTION
  2
CLASSES
  0
CLASS
  1
ACDBDICTIONARYWDFLT
  2
AcDbDictionaryWithDefault
  3
AutoCAD 2000
 90
0
 91
1
280
0
281
0
  0
CLASS
  1
ACDBPLACEHOLDER
  2
AcDbPlaceHolder
  3
AutoCAD 2000
 90
0
 91
1
280
0
281
0
  0
CLASS
  1
LAYOUT
  2
AcDbLayout
  3
AutoCAD 2000
 90
0
 91
0
280
0
281
0
  0
ENDSEC
  0
SECTION
  2
TABLES
  0
TABLE
  2
VPORT
  5
8
100
AcDbSymbolTable
 70
2
  0
VPORT
  5
1F4
100
AcDbSymbolTableRecord
100
AcDbViewportTableRecord
  2
*ACTIVE
 70
0
 10
0.0
 20
0.0
 11
1.0
 21
1.0
 12
56.0246865204
 22
79.2349137931
 13
0.0
 23
0.0
 14
1.0
 24
1.0
 15
0.0
 25
0.0
 16
0.0
 26
0.0
 36
1.0
 17
0.0
 27
0.0
 37
0.0
 40
158.4698275862
 41
0.7070707071
 42
50.0
 43
0.0
 44
0.0
 50
0.0
 51
0.0
 71
0
 72
100
 73
1
 74
1
 75
0
 76
0
 77
0
 78
0
  0
ENDTAB
  0
TABLE
  2
LTYPE
  5
5
100
AcDbSymbolTable
 70
6
  0
LTYPE
  5
14
100
AcDbSymbolTableRecord
100
AcDbLinetypeTableRecord
  2
BYBLOCK
 70
0
  3

 72
65
 73
0
 40
0.0
  0
LTYPE
  5
15
100
AcDbSymbolTableRecord
100
AcDbLinetypeTableRecord
  2
BYLAYER
 70
0
  3

 72
65
 73
0
 40
0.0
  0
LTYPE
  5
16
100
AcDbSymbolTableRecord
100
AcDbLinetypeTableRecord
  2
CONTINUOUS
 70
64
  3
Solid line
 72
65
 73
0
 40
0.0
  0
LTYPE
  5
1F5
100
AcDbSymbolTableRecord
100
AcDbLinetypeTableRecord
  2
CENTER
 70
64
  3
____ _ ____ _ ____ _ ____ _ ____ _ ____ _ ____
 72
65
 73
4
 40
0.6
 49
0.375
 74
0
 49
-0.075
 74
0
 49
0.075
 74
0
 49
-0.075
 74
0
  0
LTYPE
  5
1F6
100
AcDbSymbolTableRecord
100
AcDbLinetypeTableRecord
  2
HIDDEN
 70
64
  3
- - - - - - - - - - - - - - - - - - - -
 72
65
 73
2
 40
0.2
 49
0.1
 74
0
 49
-0.1
 74
0
  0
LTYPE
  5
1F7
100
AcDbSymbolTableRecord
100
AcDbLinetypeTableRecord
  2
PHANTOM
 70
64
  3
_____ _ _ _____ _ _ _____ _ _ _____
 72
65
 73
6
 40
0.8
 49
0.45
 74
0
 49
-0.05
 74
0
 49
0.1
 74
0
 49
-0.05
 74
0
 49
0.1
 74
0
 49
-0.05
 74
0
  0
LTYPE
  5
1F8
100
AcDbSymbolTableRecord
100
AcDbLinetypeTableRecord
  2
DOT
 70
64
  3
. . . . . . . . . . . . . . . . . . . .
 72
65
 73
2
 40
0.2
 49
0.1
 74
0
 49
-0.1
 74
0
  0
LTYPE
  5
1F9
100
AcDbSymbolTableRecord
100
AcDbLinetypeTableRecord
  2
DASHED
 70
64
  3
- - - - - - - - - - - - - - - - - - - -
 72
65
 73
2
 40
0.2
 49
0.1
 74
0
 49
-0.1
 74
0
  0
ENDTAB
  0
TABLE
  2
LAYER
  5
2
100
AcDbSymbolTable
 70
36
  0
LAYER
  5
10
100
AcDbSymbolTableRecord
100
AcDbLayerTableRecord
  2
0
 70
0
 62
7
  6
CONTINUOUS
370
-3
390
F
  0
LAYER
  5
1FA
100
AcDbSymbolTableRecord
100
AcDbLayerTableRecord
  2
DEFAULT_1
 70
0
 62
7
  6
CENTER
370
-3
390
F
  0
LAYER
  5
1FB
100
AcDbSymbolTableRecord
100
AcDbLayerTableRecord
  2
DEFAULT_2
 70
0
 62
7
  6
HIDDEN
370
-3
390
F
  0
LAYER
  5
1FC
100
AcDbSymbolTableRecord
100
AcDbLayerTableRecord
  2
DEFAULT_3
 70
0
 62
7
  6
PHANTOM
370
-3
390
F
  0
LAYER
  5
1FD
100
AcDbSymbolTableRecord
100
AcDbLayerTableRecord
  2
00_COMPONENTS
 70
0
 62
7
  6
CONTINUOUS
370
-3
390
F
  0
LAYER
  5
1FE
100
AcDbSymbolTableRecord
100
AcDbLayerTableRecord
  2
01_1_DEFAULT_DATUMS
 70
0
 62
7
  6
CONTINUOUS
370
-3
390
F
  0
LAYER
  5
1FF
100
AcDbSymbolTableRecord
100
AcDbLayerTableRecord
  2
01_PLANES
 70
0
 62
7
  6
CONTINUOUS
370
-3
390
F
  0
LAYER
  5
200
100
AcDbSymbolTableRecord
100
AcDbLayerTableRecord
  2
02_COORD_SYS
 70
0
 62
7
  6
CONTINUOUS
370
-3
390
F
  0
LAYER
  5
201
100
AcDbSymbolTableRecord
100
AcDbLayerTableRecord
  2
03_AXES
 70
0
 62
7
  6
CONTINUOUS
370
-3
390
F
  0
LAYER
  5
202
100
AcDbSymbolTableRecord
100
AcDbLayerTableRecord
  2
04_POINTS
 70
0
 62
7
  6
CONTINUOUS
370
-3
390
F
  0
LAYER
  5
203
100
AcDbSymbolTableRecord
100
AcDbLayerTableRecord
  2
05_CURVES
 70
0
 62
7
  6
CONTINUOUS
370
-3
390
F
  0
LAYER
  5
204
100
AcDbSymbolTableRecord
100
AcDbLayerTableRecord
  2
06_SURFS
 70
0
 62
7
  6
CONTINUOUS
370
-3
390
F
  0
LAYER
  5
205
100
AcDbSymbolTableRecord
100
AcDbLayerTableRecord
  2
07_COSMETICS
 70
0
 62
7
  6
CONTINUOUS
370
-3
390
F
  0
LAYER
  5
206
100
AcDbSymbolTableRecord
100
AcDbLayerTableRecord
  2
10_NOTES
 70
0
 62
7
  6
CONTINUOUS
370
-3
390
F
  0
LAYER
  5
207
100
AcDbSymbolTableRecord
100
AcDbLayerTableRecord
  2
11_NOTES_PUB
 70
0
 62
7
  6
CONTINUOUS
370
-3
390
F
  0
LAYER
  5
208
100
AcDbSymbolTableRecord
100
AcDbLayerTableRecord
  2
13_REF_GTOL
 70
0
 62
7
  6
CONTINUOUS
370
-3
390
F
  0
LAYER
  5
209
100
AcDbSymbolTableRecord
100
AcDbLayerTableRecord
  2
16_MISC
 70
0
 62
7
  6
CONTINUOUS
370
-3
390
F
  0
LAYER
  5
20A
100
AcDbSymbolTableRecord
100
AcDbLayerTableRecord
  2
17_NO_PRINT
 70
0
 62
7
  6
CONTINUOUS
370
-3
390
F
  0
LAYER
  5
20B
100
AcDbSymbolTableRecord
100
AcDbLayerTableRecord
  2
18_DATUM_CAMS_JOINTS
 70
0
 62
7
  6
CONTINUOUS
370
-3
390
F
  0
LAYER
  5
20C
100
AcDbSymbolTableRecord
100
AcDbLayerTableRecord
  2
19_DATUM_FUNCTIONAL
 70
0
 62
7
  6
CONTINUOUS
370
-3
390
F
  0
LAYER
  5
20D
100
AcDbSymbolTableRecord
100
AcDbLayerTableRecord
  2
20_DATUM_KINEMATIC_SCHEME
 70
0
 62
7
  6
CONTINUOUS
370
-3
390
F
  0
ENDTAB
  0
TABLE
  2
STYLE
  5
3
100
AcDbSymbolTable
 70
1
  0
STYLE
  5
11
100
AcDbSymbolTableRecord
100
AcDbTextStyleTableRecord
  2
STANDARD
 70
0
 40
0.0
 41
1.0
 50
0.0
 71
0
 42
0.2
  3
ARIAL.TTF
  4

  0
STYLE
  5
20E
100
AcDbSymbolTableRecord
100
AcDbTextStyleTableRecord
  2
TEXTSTYLE_1
 70
0
 40
0.0
 41
0.8
 50
0.0
 71
0
 42
0.2
  3
gdt
  4

  0
ENDTAB
  0
TABLE
  2
VIEW
  5
6
100
AcDbSymbolTable
 70
0
  0
ENDTAB
  0
TABLE
  2
UCS
  5
7
100
AcDbSymbolTable
 70
0
  0
ENDTAB
  0
TABLE
  2
APPID
  5
9
100
AcDbSymbolTable
 70
1
  0
APPID
  5
20F
100
AcDbSymbolTableRecord
100
AcDbRegAppTableRecord
  2
ACAD
 70
0
  0
ENDTAB
  0
TABLE
  2
BLOCK_RECORD
  5
1
100
AcDbSymbolTable
 70
0
  0
BLOCK_RECORD
  5
210
100
AcDbSymbolTableRecord
100
AcDbBlockTableRecord
  2
*Model_Space
  0
BLOCK_RECORD
  5
211
100
AcDbSymbolTableRecord
100
AcDbBlockTableRecord
  2
*Paper_Space
  0
BLOCK_RECORD
  5
212
100
AcDbSymbolTableRecord
100
AcDbBlockTableRecord
  2
_FILLED
  0
ENDTAB
  0
TABLE
  2
DIMSTYLE
  5
A
100
AcDbSymbolTable
 70
1
100
AcDbDimStyleTable
 71
0
  0
DIMSTYLE
105
213
100
AcDbSymbolTableRecord
100
AcDbDimStyleTableRecord
  2
STANDARD
 70
0
  3

  4

 40
1.0
 41
1.3339211076
 42
1.0
 43
0.38
 44
1.0
 45
0.0
 46
0.0
 47
0.01
 48
0.01
140
1.8674895507
141
0.09
142
0.0
143
25.4
144
1.0
145
0.0
146
1.0
147
0.625
 71
1
 72
0
 73
0
 74
0
 75
0
 76
0
 77
1
 78
8
 79
2
170
0
171
1
172
0
173
0
174
0
175
0
176
0
177
0
178
0
270
2
179
2
271
2
272
2
273
2
274
2
275
0
280
0
281
0
282
0
283
1
284
8
285
0
286
0
287
3
288
0
340
11
278
46
341
212
342
212
343
212
344
212
  0
ENDTAB
  0
ENDSEC
  0
SECTION
  2
BLOCKS
  0
BLOCK
  5
20
100
AcDbEntity
  8
0
100
AcDbBlockBegin
  2
*Model_Space
 70
0
 10
0.0
 20
0.0
 30
0.0
  3
*Model_Space
  1

  0
ENDBLK
  5
21
100
AcDbEntity
  8
0
100
AcDbBlockEnd
  0
BLOCK
  5
1C
100
AcDbEntity
  8
0
100
AcDbBlockBegin
  2
*Paper_Space
 70
0
 10
0.0
 20
0.0
 30
0.0
  3
*Paper_Space
  1

  0
ENDBLK
  5
1D
100
AcDbEntity
  8
0
100
AcDbBlockEnd
  0
BLOCK
  5
214
100
AcDbEntity
  8
0
100
AcDbBlockBegin
  2
_FILLED
 70
64
 10
0.0
 20
0.0
  3
_FILLED
  1

  0
SOLID
  5
215
100
AcDbEntity
  8
0
  6
BYBLOCK
 62
0
100
AcDbTrace
 10
0.0
 20
0.0
 11
-1.0
 21
0.25
 12
-1.0
 22
-0.25
 13
-1.0
 23
-0.25
  0
ENDBLK
  5
216
100
AcDbEntity
  8
0
  6
BYBLOCK
 62
0
100
AcDbBlockEnd
  0
ENDSEC
  0
SECTION
  2
ENTITIES
  0
LINE
  5
217
100
AcDbEntity
  8
0
100
AcDbLine
 62
7
  6
BYLAYER
 10
12.4794278997
 20
49.7499314872
 11
12.4794278997
 21
107.7500456752
  0
LINE
  5
218
100
AcDbEntity
  8
0
100
AcDbLine
 62
7
  6
BYLAYER
 10
12.5794278997
 20
104.7500398302
 11
12.5794278997
 21
102.3478443977
  0
LINE
  5
219
100
AcDbEntity
  8
0
100
AcDbLine
 62
7
  6
BYLAYER
 10
12.5794278997
 20
55.1499275055
 11
12.5794278997
 21
52.7183025361
  0
LINE
  5
21A
100
AcDbEntity
  8
0
100
AcDbLine
 62
7
  6
BYLAYER
 10
13.8145663363
 20
102.3485397798
 11
13.8145663817
 21
104.7500480192
  0
LINE
  5
21B
100
AcDbEntity
  8
0
100
AcDbLine
 62
7
  6
BYLAYER
 10
13.8145421897
 20
55.3499303484
 11
13.8144964791
 21
52.7183035804
  0
LINE
  5
21C
100
AcDbEntity
  8
0
100
AcDbLine
 62
7
  6
BYLAYER
 10
15.5794278997
 20
95.8799314872
 11
15.5794278997
 21
94.8799314872
  0
LINE
  5
21D
100
AcDbEntity
  8
0
100
AcDbLine
 62
7
  6
BYLAYER
 10
15.5794278997
 20
62.6299314872
 11
15.5794278997
 21
61.6299314872
  0
LINE
  5
21E
100
AcDbEntity
  8
0
100
AcDbLine
 62
7
  6
BYLAYER
 10
15.8294278997
 20
87.8679314872
 11
15.8294278997
 21
84.3679314872
  0
LINE
  5
21F
100
AcDbEntity
  8
0
100
AcDbLine
 62
7
  6
BYLAYER
 10
17.0794278997
 20
97.3799314872
 11
17.0794278997
 21
95.8799314872
  0
LINE
  5
220
100
AcDbEntity
  8
0
100
AcDbLine
 62
7
  6
BYLAYER
 10
17.0794278997
 20
94.8799314872
 11
17.0794278997
 21
93.3799314872
  0
LINE
  5
221
100
AcDbEntity
  8
0
100
AcDbLine
 62
7
  6
BYLAYER
 10
17.0794278997
 20
64.1299314872
 11
17.0794278997
 21
62.6299314872
  0
LINE
  5
222
100
AcDbEntity
  8
0
100
AcDbLine
 62
7
  6
BYLAYER
 10
17.0794278997
 20
61.6299314872
 11
17.0794278997
 21
60.1299314872
  0
LINE
  5
223
100
AcDbEntity
  8
0
100
AcDbLine
 62
7
  6
BYLAYER
 10
18.0794278997
 20
60.1299314872
 11
18.0794278997
 21
61.6299314872
  0
LINE
  5
224
100
AcDbEntity
  8
0
100
AcDbLine
 62
7
  6
BYLAYER
 10
18.0794278997
 20
62.6299314872
 11
18.0794278997
 21
64.1299314872
  0
LINE
  5
225
100
AcDbEntity
  8
0
100
AcDbLine
 62
7
  6
BYLAYER
 10
18.0794278997
 20
93.3799314872
 11
18.0794278997
 21
94.8799314872
  0
LINE
  5
226
100
AcDbEntity
  8
0
100
AcDbLine
 62
7
  6
BYLAYER
 10
18.0794278997
 20
95.8799314872
 11
18.0794278997
 21
97.3799314872
  0
LINE
  5
227
100
AcDbEntity
  8
0
100
AcDbLine
 62
7
  6
BYLAYER
 10
19.3294278997
 20
84.3679314872
 11
19.3294278997
 21
87.8679314872
  0
LINE
  5
228
100
AcDbEntity
  8
0
100
AcDbLine
 62
7
  6
BYLAYER
 10
19.5794278997
 20
61.6299314872
 11
19.5794278997
 21
62.6299314872
  0
LINE
  5
229
100
AcDbEntity
  8
0
100
AcDbLine
 62
7
  6
BYLAYER
 10
19.5794278997
 20
94.8799314872
 11
19.5794278997
 21
95.8799314872
  0
LINE
  5
22A
100
AcDbEntity
  8
0
100
AcDbLine
 62
7
  6
BYLAYER
 10
21.7463663375
 20
55.3499218382
 11
21.7463663871
 21
52.7183035804
  0
LINE
  5
22B
100
AcDbEntity
  8
0
100
AcDbLine
 62
7
  6
BYLAYER
 10
21.7463421875
 20
102.3485434972
 11
21.7462964754
 21
104.7500480192
  0
LINE
  5
22C
100
AcDbEntity
  8
0
100
AcDbLine
 62
7
  6
BYLAYER
 10
22.7054663309
 20
102.3485437154
 11
22.7054663762
 21
104.7500480192
  0
LINE
  5
22D
100
AcDbEntity
  8
0
100
AcDbLine
 62
7
  6
BYLAYER
 10
22.7054421845
 20
55.3499211838
 11
22.7053964746
 21
52.7183035804
  0
LINE
  5
22E
100
AcDbEntity
  8
0
100
AcDbLine
 62
7
  6
BYLAYER
 10
24.2294278997
 20
95.8799314872
 11
24.2294278997
 21
94.8799314872
  0
LINE
  5
22F
100
AcDbEntity
  8
0
100
AcDbLine
 62
7
  6
BYLAYER
 10
24.2294278997
 20
62.6299314872
 11
24.2294278997
 21
61.6299314872
  0
LINE
  5
230
100
AcDbEntity
  8
0
100
AcDbLine
 62
7
  6
BYLAYER
 10
24.7294278997
 20
72.0499314872
 11
24.7294278997
 21
68.2499314872
  0
LINE
  5
231
100
AcDbEntity
  8
0
100
AcDbLine
 62
7
  6
BYLAYER
 10
25.7294278997
 20
97.3799314872
 11
25.7294278997
 21
95.8799314872
  0
LINE
  5
232
100
AcDbEntity
  8
0
100
AcDbLine
 62
7
  6
BYLAYER
 10
25.7294278997
 20
94.8799314872
 11
25.7294278997
 21
93.3799314872
  0
LINE
  5
233
100
AcDbEntity
  8
0
100
AcDbLine
 62
7
  6
BYLAYER
 10
25.7294278997
 20
64.1299314872
 11
25.7294278997
 21
62.6299314872
  0
LINE
  5
234
100
AcDbEntity
  8
0
100
AcDbLine
 62
7
  6
BYLAYER
 10
25.7294278997
 20
61.6299314872
 11
25.7294278997
 21
60.1299314872
  0
LINE
  5
235
100
AcDbEntity
  8
0
100
AcDbLine
 62
7
  6
BYLAYER
 10
26.7294278997
 20
60.1299314872
 11
26.7294278997
 21
61.6299314872
  0
LINE
  5
236
100
AcDbEntity
  8
0
100
AcDbLine
 62
7
  6
BYLAYER
 10
26.7294278997
 20
62.6299314872
 11
26.7294278997
 21
64.1299314872
  0
LINE
  5
237
100
AcDbEntity
  8
0
100
AcDbLine
 62
7
  6
BYLAYER
 10
26.7294278997
 20
93.3799314872
 11
26.7294278997
 21
94.8799314872
  0
LINE
  5
238
100
AcDbEntity
  8
0
100
AcDbLine
 62
7
  6
BYLAYER
 10
26.7294278997
 20
95.8799314872
 11
26.7294278997
 21
97.3799314872
  0
LINE
  5
239
100
AcDbEntity
  8
0
100
AcDbLine
 62
7
  6
BYLAYER
 10
27.7294278997
 20
68.2499314872
 11
27.7294278997
 21
72.0499314872
  0
LINE
  5
23A
100
AcDbEntity
  8
0
100
AcDbLine
 62
7
  6
BYLAYER
 10
28.2294278997
 20
61.6299314872
 11
28.2294278997
 21
62.6299314872
  0
LINE
  5
23B
100
AcDbEntity
  8
0
100
AcDbLine
 62
7
  6
BYLAYER
 10
28.2294278997
 20
94.8799314872
 11
28.2294278997
 21
95.8799314872
  0
LINE
  5
23C
100
AcDbEntity
  8
0
100
AcDbLine
 62
7
  6
BYLAYER
 10
12.4794278997
 20
49.7499314872
 11
102.4794278997
 21
49.7499314872
  0
LINE
  5
23D
100
AcDbEntity
  8
0
100
AcDbLine
 62
7
  6
BYLAYER
 10
30.396366332
 20
55.3499130255
 11
30.3963663817
 21
52.7183035804
  0
LINE
  5
23E
100
AcDbEntity
  8
0
100
AcDbLine
 62
7
  6
BYLAYER
 10
30.3963421823
 20
102.3485474048
 11
30.3962964709
 21
104.7500480192
  0
LINE
  5
23F
100
AcDbEntity
  8
0
100
AcDbLine
 62
7
  6
BYLAYER
 10
31.1140331675
 20
55.3499125358
 11
31.1140331675
 21
52.7183035804
  0
LINE
  5
240
100
AcDbEntity
  8
0
100
AcDbLine
 62
7
  6
BYLAYER
 10
31.1140331675
 20
102.3485475681
 11
31.1140331675
 21
104.7500480192
  0
LINE
  5
241
100
AcDbEntity
  8
0
100
AcDbLine
 62
7
  6
BYLAYER
 10
31.3794278997
 20
72.0499314872
 11
31.3794278997
 21
69.1499314872
  0
LINE
  5
242
100
AcDbEntity
  8
0
100
AcDbLine
 62
7
  6
BYLAYER
 10
32.7794278997
 20
87.4279314872
 11
32.7794278997
 21
84.0479314872
  0
LINE
  5
243
100
AcDbEntity
  8
0
100
AcDbLine
 62
7
  6
BYLAYER
 10
32.8794278997
 20
95.8799314872
 11
32.8794278997
 21
94.8799314872
  0
LINE
  5
244
100
AcDbEntity
  8
0
100
AcDbLine
 62
7
  6
BYLAYER
 10
32.8794278997
 20
62.6299314872
 11
32.8794278997
 21
61.6299314872
  0
LINE
  5
245
100
AcDbEntity
  8
0
100
AcDbLine
 62
7
  6
BYLAYER
 10
93.2125593203
 20
52.7183035803
 11
92.2534593248
 21
52.7183035803
  0
LINE
  5
246
100
AcDbEntity
  8
0
100
AcDbLine
 62
7
  6
BYLAYER
 10
84.5625593248
 20
52.7183035803
 11
83.8448226318
 21
52.7183035803
  0
LINE
  5
247
100
AcDbEntity
  8
0
100
AcDbLine
 62
7
  6
BYLAYER
 10
75.9130226318
 20
52.7183035803
 11
75.1948226318
 21
52.7183035803
  0
LINE
  5
248
100
AcDbEntity
  8
0
100
AcDbLine
 62
7
  6
BYLAYER
 10
67.2630226318
 20
52.7183035804
 11
66.5243226318
 21
52.7183035804
  0
LINE
  5
249
100
AcDbEntity
  8
0
100
AcDbLine
 62
7
  6
BYLAYER
 10
58.8334226318
 20
52.7183035804
 11
56.1254331675
 21
52.7183035804
  0
LINE
  5
24A
100
AcDbEntity
  8
0
100
AcDbLine
 62
7
  6
BYLAYER
 10
48.4345331675
 20
52.7183035804
 11
47.6958331675
 21
52.7183035804
  0
LINE
  5
24B
100
AcDbEntity
  8
0
100
AcDbLine
 62
7
  6
BYLAYER
 10
39.7640331675
 20
52.7183035804
 11
39.0458331675
 21
52.7183035804
  0
LINE
  5
24C
100
AcDbEntity
  8
0
100
AcDbLine
 62
7
  6
BYLAYER
 10
31.1140331675
 20
52.7183035804
 11
30.3962964746
 21
52.7183035804
  0
LINE
  5
24D
100
AcDbEntity
  8
0
100
AcDbLine
 62
7
  6
BYLAYER
 10
22.7053964746
 20
52.7183035804
 11
21.7462964791
 21
52.7183035804
  0
LINE
  5
24E
100
AcDbEntity
  8
0
100
AcDbLine
 62
7
  6
BYLAYER
 10
102.3794278997
 20
52.7183025361
 11
101.1443593203
 21
52.7183035803
  0
LINE
  5
24F
100
AcDbEntity
  8
0
100
AcDbLine
 62
7
  6
BYLAYER
 10
13.8144964791
 20
52.7183035804
 11
12.5794278997
 21
52.7183025361
  0
LINE
  5
250
100
AcDbEntity
  8
0
100
AcDbLine
 62
7
  6
BYLAYER
 10
34.3794278997
 20
97.3799314872
 11
34.3794278997
 21
95.8799314872
  0
LINE
  5
251
100
AcDbEntity
  8
0
100
AcDbLine
 62
7
  6
BYLAYER
 10
34.3794278997
 20
94.8799314872
 11
34.3794278997
 21
93.3799314872
  0
LINE
  5
252
100
AcDbEntity
  8
0
100
AcDbLine
 62
7
  6
BYLAYER
 10
34.3794278997
 20
64.1299314872
 11
34.3794278997
 21
62.6299314872
  0
LINE
  5
253
100
AcDbEntity
  8
0
100
AcDbLine
 62
7
  6
BYLAYER
 10
34.3794278997
 20
61.6299314872
 11
34.3794278997
 21
60.1299314872
  0
LINE
  5
254
100
AcDbEntity
  8
0
100
AcDbLine
 62
7
  6
BYLAYER
 10
35.2794278997
 20
69.1499314872
 11
35.2794278997
 21
72.0499314872
  0
LINE
  5
255
100
AcDbEntity
  8
0
100
AcDbLine
 62
7
  6
BYLAYER
 10
35.3794278997
 20
60.1299314872
 11
35.3794278997
 21
61.6299314872
  0
LINE
  5
256
100
AcDbEntity
  8
0
100
AcDbLine
 62
7
  6
BYLAYER
 10
35.3794278997
 20
62.6299314872
 11
35.3794278997
 21
64.1299314872
  0
LINE
  5
257
100
AcDbEntity
  8
0
100
AcDbLine
 62
7
  6
BYLAYER
 10
35.3794278997
 20
93.3799314872
 11
35.3794278997
 21
94.8799314872
  0
LINE
  5
258
100
AcDbEntity
  8
0
100
AcDbLine
 62
7
  6
BYLAYER
 10
35.3794278997
 20
95.8799314872
 11
35.3794278997
 21
97.3799314872
  0
LINE
  5
259
100
AcDbEntity
  8
0
100
AcDbLine
 62
7
  6
BYLAYER
 10
12.4794278997
 20
55.1499275055
 11
12.5794278997
 21
55.1499275055
  0
LINE
  5
25A
100
AcDbEntity
  8
0
100
AcDbLine
 62
7
  6
BYLAYER
 10
102.3794278997
 20
55.1499275055
 11
102.4794278997
 21
55.1499275055
  0
LINE
  5
25B
100
AcDbEntity
  8
0
100
AcDbLine
 62
7
  6
BYLAYER
 10
12.4794278997
 20
55.3499314872
 11
102.4794278997
 21
55.3498393658
  0
LINE
  5
25C
100
AcDbEntity
  8
0
100
AcDbLine
 62
7
  6
BYLAYER
 10
36.8794278997
 20
61.6299314872
 11
36.8794278997
 21
62.6299314872
  0
LINE
  5
25D
100
AcDbEntity
  8
0
100
AcDbLine
 62
7
  6
BYLAYER
 10
36.8794278997
 20
94.8799314872
 11
36.8794278997
 21
95.8799314872
  0
LINE
  5
25E
100
AcDbEntity
  8
0
100
AcDbLine
 62
7
  6
BYLAYER
 10
37.0294278997
 20
84.0479314872
 11
37.0294278997
 21
87.4279314872
  0
LINE
  5
25F
100
AcDbEntity
  8
0
100
AcDbLine
 62
7
  6
BYLAYER
 10
37.1694278997
 20
82.2879314872
 11
37.1694278997
 21
74.6099314872
  0
LINE
  5
260
100
AcDbEntity
  8
0
100
AcDbLine
 62
7
  6
BYLAYER
 10
39.0458331675
 20
55.3499041721
 11
39.0458331675
 21
52.7183035804
  0
LINE
  5
261
100
AcDbEntity
  8
0
100
AcDbLine
 62
7
  6
BYLAYER
 10
39.0458331675
 20
102.3485513397
 11
39.0458331675
 21
104.7500480192
  0
LINE
  5
262
100
AcDbEntity
  8
0
100
AcDbLine
 62
7
  6
BYLAYER
 10
39.4794280663
 20
75.9479314874
 11
39.479428733
 21
80.947931487
  0
LINE
  5
263
100
AcDbEntity
  8
0
100
AcDbLine
 62
7
  6
BYLAYER
 10
39.7640331675
 20
55.349903682
 11
39.7640331675
 21
52.7183035804
  0
LINE
  5
264
100
AcDbEntity
  8
0
100
AcDbLine
 62
7
  6
BYLAYER
 10
39.7640331675
 20
102.3485515031
 11
39.7640331675
 21
104.7500480192
  0
LINE
  5
265
100
AcDbEntity
  8
0
100
AcDbLine
 62
7
  6
BYLAYER
 10
55.7794278997
 20
58.9399314872
 11
59.1694278997
 21
58.9399314872
  0
LINE
  5
266
100
AcDbEntity
  8
0
100
AcDbLine
 62
7
  6
BYLAYER
 10
51.6794278997
 20
59.3299314872
 11
52.6794278997
 21
59.3299314872
  0
LINE
  5
267
100
AcDbEntity
  8
0
100
AcDbLine
 62
7
  6
BYLAYER
 10
96.8794278997
 20
59.3299314872
 11
97.8794278997
 21
59.3299314872
  0
LINE
  5
268
100
AcDbEntity
  8
0
100
AcDbLine
 62
7
  6
BYLAYER
 10
17.0794278997
 20
60.1299314872
 11
18.0794278997
 21
60.1299314872
  0
LINE
  5
269
100
AcDbEntity
  8
0
100
AcDbLine
 62
7
  6
BYLAYER
 10
25.7294278997
 20
60.1299314872
 11
26.7294278997
 21
60.1299314872
  0
LINE
  5
26A
100
AcDbEntity
  8
0
100
AcDbLine
 62
7
  6
BYLAYER
 10
34.3794278997
 20
60.1299314872
 11
35.3794278997
 21
60.1299314872
  0
LINE
  5
26B
100
AcDbEntity
  8
0
100
AcDbLine
 62
7
  6
BYLAYER
 10
43.0294278997
 20
60.1299314872
 11
44.0294278997
 21
60.1299314872
  0
LINE
  5
26C
100
AcDbEntity
  8
0
100
AcDbLine
 62
7
  6
BYLAYER
 10
62.2794278997
 20
60.1299314872
 11
63.2794278997
 21
60.1299314872
  0
LINE
  5
26D
100
AcDbEntity
  8
0
100
AcDbLine
 62
7
  6
BYLAYER
 10
70.9294278997
 20
60.1299314872
 11
71.9294278997
 21
60.1299314872
  0
LINE
  5
26E
100
AcDbEntity
  8
0
100
AcDbLine
 62
7
  6
BYLAYER
 10
79.5794278997
 20
60.1299314872
 11
80.5794278997
 21
60.1299314872
  0
LINE
  5
26F
100
AcDbEntity
  8
0
100
AcDbLine
 62
7
  6
BYLAYER
 10
88.2294278997
 20
60.1299314872
 11
89.2294278997
 21
60.1299314872
  0
LINE
  5
270
100
AcDbEntity
  8
0
100
AcDbLine
 62
7
  6
BYLAYER
 10
50.1794278997
 20
60.8299314872
 11
51.6794278997
 21
60.8299314872
  0
LINE
  5
271
100
AcDbEntity
  8
0
100
AcDbLine
 62
7
  6
BYLAYER
 10
52.6794278997
 20
60.8299314872
 11
54.1794278997
 21
60.8299314872
  0
LINE
  5
272
100
AcDbEntity
  8
0
100
AcDbLine
 62
7
  6
BYLAYER
 10
95.3794278997
 20
60.8299314872
 11
96.8794278997
 21
60.8299314872
  0
LINE
  5
273
100
AcDbEntity
  8
0
100
AcDbLine
 62
7
  6
BYLAYER
 10
97.8794278997
 20
60.8299314872
 11
99.3794278997
 21
60.8299314872
  0
LINE
  5
274
100
AcDbEntity
  8
0
100
AcDbLine
 62
7
  6
BYLAYER
 10
41.479427733
 20
80.949931487
 11
41.4794270664
 21
75.9499314874
  0
LINE
  5
275
100
AcDbEntity
  8
0
100
AcDbLine
 62
7
  6
BYLAYER
 10
41.5294278997
 20
95.8799314872
 11
41.5294278997
 21
94.8799314872
  0
LINE
  5
276
100
AcDbEntity
  8
0
100
AcDbLine
 62
7
  6
BYLAYER
 10
41.5294278997
 20
62.6299314872
 11
41.5294278997
 21
61.6299314872
  0
LINE
  5
277
100
AcDbEntity
  8
0
100
AcDbLine
 62
7
  6
BYLAYER
 10
41.7794278997
 20
87.8679314872
 11
41.7794278997
 21
84.3679314872
  0
LINE
  5
278
100
AcDbEntity
  8
0
100
AcDbLine
 62
7
  6
BYLAYER
 10
42.0294278997
 20
72.0499314872
 11
42.0294278997
 21
68.2499314872
  0
LINE
  5
279
100
AcDbEntity
  8
0
100
AcDbLine
 62
7
  6
BYLAYER
 10
43.0294278997
 20
97.3799314872
 11
43.0294278997
 21
95.8799314872
  0
LINE
  5
27A
100
AcDbEntity
  8
0
100
AcDbLine
 62
7
  6
BYLAYER
 10
43.0294278997
 20
94.8799314872
 11
43.0294278997
 21
93.3799314872
  0
LINE
  5
27B
100
AcDbEntity
  8
0
100
AcDbLine
 62
7
  6
BYLAYER
 10
43.0294278997
 20
64.1299314872
 11
43.0294278997
 21
62.6299314872
  0
LINE
  5
27C
100
AcDbEntity
  8
0
100
AcDbLine
 62
7
  6
BYLAYER
 10
43.0294278997
 20
61.6299314872
 11
43.0294278997
 21
60.1299314872
  0
LINE
  5
27D
100
AcDbEntity
  8
0
100
AcDbLine
 62
7
  6
BYLAYER
 10
15.5794278997
 20
61.6299314872
 11
17.0794278997
 21
61.6299314872
  0
LINE
  5
27E
100
AcDbEntity
  8
0
100
AcDbLine
 62
7
  6
BYLAYER
 10
18.0794278997
 20
61.6299314872
 11
19.5794278997
 21
61.6299314872
  0
LINE
  5
27F
100
AcDbEntity
  8
0
100
AcDbLine
 62
7
  6
BYLAYER
 10
24.2294278997
 20
61.6299314872
 11
25.7294278997
 21
61.6299314872
  0
LINE
  5
280
100
AcDbEntity
  8
0
100
AcDbLine
 62
7
  6
BYLAYER
 10
26.7294278997
 20
61.6299314872
 11
28.2294278997
 21
61.6299314872
  0
LINE
  5
281
100
AcDbEntity
  8
0
100
AcDbLine
 62
7
  6
BYLAYER
 10
32.8794278997
 20
61.6299314872
 11
34.3794278997
 21
61.6299314872
  0
LINE
  5
282
100
AcDbEntity
  8
0
100
AcDbLine
 62
7
  6
BYLAYER
 10
35.3794278997
 20
61.6299314872
 11
36.8794278997
 21
61.6299314872
  0
LINE
  5
283
100
AcDbEntity
  8
0
100
AcDbLine
 62
7
  6
BYLAYER
 10
41.5294278997
 20
61.6299314872
 11
43.0294278997
 21
61.6299314872
  0
LINE
  5
284
100
AcDbEntity
  8
0
100
AcDbLine
 62
7
  6
BYLAYER
 10
44.0294278997
 20
61.6299314872
 11
45.5294278997
 21
61.6299314872
  0
LINE
  5
285
100
AcDbEntity
  8
0
100
AcDbLine
 62
7
  6
BYLAYER
 10
60.7794278997
 20
61.6299314872
 11
62.2794278997
 21
61.6299314872
  0
LINE
  5
286
100
AcDbEntity
  8
0
100
AcDbLine
 62
7
  6
BYLAYER
 10
63.2794278997
 20
61.6299314872
 11
64.7794278997
 21
61.6299314872
  0
LINE
  5
287
100
AcDbEntity
  8
0
100
AcDbLine
 62
7
  6
BYLAYER
 10
69.4294278997
 20
61.6299314872
 11
70.9294278997
 21
61.6299314872
  0
LINE
  5
288
100
AcDbEntity
  8
0
100
AcDbLine
 62
7
  6
BYLAYER
 10
71.9294278997
 20
61.6299314872
 11
73.4294278997
 21
61.6299314872
  0
LINE
  5
289
100
AcDbEntity
  8
0
100
AcDbLine
 62
7
  6
BYLAYER
 10
78.0794278997
 20
61.6299314872
 11
79.5794278997
 21
61.6299314872
  0
LINE
  5
28A
100
AcDbEntity
  8
0
100
AcDbLine
 62
7
  6
BYLAYER
 10
80.5794278997
 20
61.6299314872
 11
82.0794278997
 21
61.6299314872
  0
LINE
  5
28B
100
AcDbEntity
  8
0
100
AcDbLine
 62
7
  6
BYLAYER
 10
86.7294278997
 20
61.6299314872
 11
88.2294278997
 21
61.6299314872
  0
LINE
  5
28C
100
AcDbEntity
  8
0
100
AcDbLine
 62
7
  6
BYLAYER
 10
89.2294278997
 20
61.6299314872
 11
90.7294278997
 21
61.6299314872
  0
LINE
  5
28D
100
AcDbEntity
  8
0
100
AcDbLine
 62
7
  6
BYLAYER
 10
99.3794278997
 20
61.8299314872
 11
97.8794278997
 21
61.8299314872
  0
LINE
  5
28E
100
AcDbEntity
  8
0
100
AcDbLine
 62
7
  6
BYLAYER
 10
96.8794278997
 20
61.8299314872
 11
95.3794278997
 21
61.8299314872
  0
LINE
  5
28F
100
AcDbEntity
  8
0
100
AcDbLine
 62
7
  6
BYLAYER
 10
54.1794278997
 20
61.8299314872
 11
52.6794278997
 21
61.8299314872
  0
LINE
  5
290
100
AcDbEntity
  8
0
100
AcDbLine
 62
7
  6
BYLAYER
 10
51.6794278997
 20
61.8299314872
 11
50.1794278997
 21
61.8299314872
  0
LINE
  5
291
100
AcDbEntity
  8
0
100
AcDbLine
 62
7
  6
BYLAYER
 10
59.1694278997
 20
62.1999314872
 11
55.7794278997
 21
62.1999314872
  0
LINE
  5
292
100
AcDbEntity
  8
0
100
AcDbLine
 62
7
  6
BYLAYER
 10
90.7294278997
 20
62.6299314872
 11
89.2294278997
 21
62.6299314872
  0
LINE
  5
293
100
AcDbEntity
  8
0
100
AcDbLine
 62
7
  6
BYLAYER
 10
88.2294278997
 20
62.6299314872
 11
86.7294278997
 21
62.6299314872
  0
LINE
  5
294
100
AcDbEntity
  8
0
100
AcDbLine
 62
7
  6
BYLAYER
 10
82.0794278997
 20
62.6299314872
 11
80.5794278997
 21
62.6299314872
  0
LINE
  5
295
100
AcDbEntity
  8
0
100
AcDbLine
 62
7
  6
BYLAYER
 10
79.5794278997
 20
62.6299314872
 11
78.0794278997
 21
62.6299314872
  0
LINE
  5
296
100
AcDbEntity
  8
0
100
AcDbLine
 62
7
  6
BYLAYER
 10
73.4294278997
 20
62.6299314872
 11
71.9294278997
 21
62.6299314872
  0
LINE
  5
297
100
AcDbEntity
  8
0
100
AcDbLine
 62
7
  6
BYLAYER
 10
70.9294278997
 20
62.6299314872
 11
69.4294278997
 21
62.6299314872
  0
LINE
  5
298
100
AcDbEntity
  8
0
100
AcDbLine
 62
7
  6
BYLAYER
 10
64.7794278997
 20
62.6299314872
 11
63.2794278997
 21
62.6299314872
  0
LINE
  5
299
100
AcDbEntity
  8
0
100
AcDbLine
 62
7
  6
BYLAYER
 10
62.2794278997
 20
62.6299314872
 11
60.7794278997
 21
62.6299314872
  0
LINE
  5
29A
100
AcDbEntity
  8
0
100
AcDbLine
 62
7
  6
BYLAYER
 10
45.5294278997
 20
62.6299314872
 11
44.0294278997
 21
62.6299314872
  0
LINE
  5
29B
100
AcDbEntity
  8
0
100
AcDbLine
 62
7
  6
BYLAYER
 10
43.0294278997
 20
62.6299314872
 11
41.5294278997
 21
62.6299314872
  0
LINE
  5
29C
100
AcDbEntity
  8
0
100
AcDbLine
 62
7
  6
BYLAYER
 10
36.8794278997
 20
62.6299314872
 11
35.3794278997
 21
62.6299314872
  0
LINE
  5
29D
100
AcDbEntity
  8
0
100
AcDbLine
 62
7
  6
BYLAYER
 10
34.3794278997
 20
62.6299314872
 11
32.8794278997
 21
62.6299314872
  0
LINE
  5
29E
100
AcDbEntity
  8
0
100
AcDbLine
 62
7
  6
BYLAYER
 10
28.2294278997
 20
62.6299314872
 11
26.7294278997
 21
62.6299314872
  0
LINE
  5
29F
100
AcDbEntity
  8
0
100
AcDbLine
 62
7
  6
BYLAYER
 10
25.7294278997
 20
62.6299314872
 11
24.2294278997
 21
62.6299314872
  0
LINE
  5
2A0
100
AcDbEntity
  8
0
100
AcDbLine
 62
7
  6
BYLAYER
 10
19.5794278997
 20
62.6299314872
 11
18.0794278997
 21
62.6299314872
  0
LINE
  5
2A1
100
AcDbEntity
  8
0
100
AcDbLine
 62
7
  6
BYLAYER
 10
17.0794278997
 20
62.6299314872
 11
15.5794278997
 21
62.6299314872
  0
LINE
  5
2A2
100
AcDbEntity
  8
0
100
AcDbLine
 62
7
  6
BYLAYER
 10
97.8794278997
 20
63.3299314872
 11
96.8794278997
 21
63.3299314872
  0
LINE
  5
2A3
100
AcDbEntity
  8
0
100
AcDbLine
 62
7
  6
BYLAYER
 10
52.6794278997
 20
63.3299314872
 11
51.6794278997
 21
63.3299314872
  0
LINE
  5
2A4
100
AcDbEntity
  8
0
100
AcDbLine
 62
7
  6
BYLAYER
 10
89.2294278997
 20
64.1299314872
 11
88.2294278997
 21
64.1299314872
  0
LINE
  5
2A5
100
AcDbEntity
  8
0
100
AcDbLine
 62
7
  6
BYLAYER
 10
80.5794278997
 20
64.1299314872
 11
79.5794278997
 21
64.1299314872
  0
LINE
  5
2A6
100
AcDbEntity
  8
0
100
AcDbLine
 62
7
  6
BYLAYER
 10
71.9294278997
 20
64.1299314872
 11
70.9294278997
 21
64.1299314872
  0
LINE
  5
2A7
100
AcDbEntity
  8
0
100
AcDbLine
 62
7
  6
BYLAYER
 10
63.2794278997
 20
64.1299314872
 11
62.2794278997
 21
64.1299314872
  0
LINE
  5
2A8
100
AcDbEntity
  8
0
100
AcDbLine
 62
7
  6
BYLAYER
 10
44.0294278997
 20
64.1299314872
 11
43.0294278997
 21
64.1299314872
  0
LINE
  5
2A9
100
AcDbEntity
  8
0
100
AcDbLine
 62
7
  6
BYLAYER
 10
35.3794278997
 20
64.1299314872
 11
34.3794278997
 21
64.1299314872
  0
LINE
  5
2AA
100
AcDbEntity
  8
0
100
AcDbLine
 62
7
  6
BYLAYER
 10
26.7294278997
 20
64.1299314872
 11
25.7294278997
 21
64.1299314872
  0
LINE
  5
2AB
100
AcDbEntity
  8
0
100
AcDbLine
 62
7
  6
BYLAYER
 10
18.0794278997
 20
64.1299314872
 11
17.0794278997
 21
64.1299314872
  0
LINE
  5
2AC
100
AcDbEntity
  8
0
100
AcDbLine
 62
7
  6
BYLAYER
 10
44.0294278997
 20
60.1299314872
 11
44.0294278997
 21
61.6299314872
  0
LINE
  5
2AD
100
AcDbEntity
  8
0
100
AcDbLine
 62
7
  6
BYLAYER
 10
44.0294278997
 20
62.6299314872
 11
44.0294278997
 21
64.1299314872
  0
LINE
  5
2AE
100
AcDbEntity
  8
0
100
AcDbLine
 62
7
  6
BYLAYER
 10
44.0294278997
 20
93.3799314872
 11
44.0294278997
 21
94.8799314872
  0
LINE
  5
2AF
100
AcDbEntity
  8
0
100
AcDbLine
 62
7
  6
BYLAYER
 10
44.0294278997
 20
95.8799314872
 11
44.0294278997
 21
97.3799314872
  0
LINE
  5
2B0
100
AcDbEntity
  8
0
100
AcDbLine
 62
7
  6
BYLAYER
 10
45.0294278997
 20
68.2499314872
 11
45.0294278997
 21
72.0499314872
  0
LINE
  5
2B1
100
AcDbEntity
  8
0
100
AcDbLine
 62
7
  6
BYLAYER
 10
45.2794278997
 20
84.3679314872
 11
45.2794278997
 21
87.8679314872
  0
LINE
  5
2B2
100
AcDbEntity
  8
0
100
AcDbLine
 62
7
  6
BYLAYER
 10
45.5294278997
 20
61.6299314872
 11
45.5294278997
 21
62.6299314872
  0
LINE
  5
2B3
100
AcDbEntity
  8
0
100
AcDbLine
 62
7
  6
BYLAYER
 10
45.5294278997
 20
94.8799314872
 11
45.5294278997
 21
95.8799314872
  0
LINE
  5
2B4
100
AcDbEntity
  8
0
100
AcDbLine
 62
7
  6
BYLAYER
 10
52.6794278997
 20
65.6499314872
 11
54.8794278997
 21
65.6499314872
  0
LINE
  5
2B5
100
AcDbEntity
  8
0
100
AcDbLine
 62
7
  6
BYLAYER
 10
97.8794278997
 20
65.6499314872
 11
100.0794278997
 21
65.6499314872
  0
LINE
  5
2B6
100
AcDbEntity
  8
0
100
AcDbLine
 62
7
  6
BYLAYER
 10
24.7294278997
 20
68.2499314872
 11
27.7294278997
 21
68.2499314872
  0
LINE
  5
2B7
100
AcDbEntity
  8
0
100
AcDbLine
 62
7
  6
BYLAYER
 10
42.0294278997
 20
68.2499314872
 11
45.0294278997
 21
68.2499314872
  0
LINE
  5
2B8
100
AcDbEntity
  8
0
100
AcDbLine
 62
7
  6
BYLAYER
 10
69.9294278997
 20
68.2499314872
 11
72.9294278997
 21
68.2499314872
  0
LINE
  5
2B9
100
AcDbEntity
  8
0
100
AcDbLine
 62
7
  6
BYLAYER
 10
87.2294278997
 20
68.2499314872
 11
90.2294278997
 21
68.2499314872
  0
LINE
  5
2BA
100
AcDbEntity
  8
0
100
AcDbLine
 62
7
  6
BYLAYER
 10
47.6958331675
 20
55.3498953147
 11
47.6958331675
 21
52.7183035804
  0
LINE
  5
2BB
100
AcDbEntity
  8
0
100
AcDbLine
 62
7
  6
BYLAYER
 10
47.6958331675
 20
102.3485552771
 11
47.6958331675
 21
104.7500480192
  0
LINE
  5
2BC
100
AcDbEntity
  8
0
100
AcDbLine
 62
7
  6
BYLAYER
 10
48.1294278997
 20
74.6099314872
 11
48.1294278997
 21
82.2879314872
  0
LINE
  5
2BD
100
AcDbEntity
  8
0
100
AcDbLine
 62
7
  6
BYLAYER
 10
48.4345331675
 20
55.3498948106
 11
48.4345331675
 21
52.7183035804
  0
LINE
  5
2BE
100
AcDbEntity
  8
0
100
AcDbLine
 62
7
  6
BYLAYER
 10
48.4345331675
 20
102.3485554451
 11
48.4345331675
 21
104.7500480192
  0
LINE
  5
2BF
100
AcDbEntity
  8
0
100
AcDbLine
 62
7
  6
BYLAYER
 10
50.1794278997
 20
96.6799314872
 11
50.1794278997
 21
95.6799314872
  0
LINE
  5
2C0
100
AcDbEntity
  8
0
100
AcDbLine
 62
7
  6
BYLAYER
 10
50.1794278997
 20
61.8299314872
 11
50.1794278997
 21
60.8299314872
  0
LINE
  5
2C1
100
AcDbEntity
  8
0
100
AcDbLine
 62
7
  6
BYLAYER
 10
50.5328278997
 20
52.7245188734
 11
50.5328278997
 21
53.9581201584
  0
LINE
  5
2C2
100
AcDbEntity
  8
0
100
AcDbLine
 62
7
  6
BYLAYER
 10
50.5293988966
 20
102.5495660936
 11
50.5328167279
 21
103.660830602
  0
LINE
  5
2C3
100
AcDbEntity
  8
0
100
AcDbLine
 62
7
  6
BYLAYER
 10
100.0794278997
 20
68.6499314872
 11
97.8794278997
 21
68.6499314872
  0
LINE
  5
2C4
100
AcDbEntity
  8
0
100
AcDbLine
 62
7
  6
BYLAYER
 10
54.8794278997
 20
68.6499314872
 11
52.6794278997
 21
68.6499314872
  0
LINE
  5
2C5
100
AcDbEntity
  8
0
100
AcDbLine
 62
7
  6
BYLAYER
 10
31.3794278997
 20
69.1499314872
 11
35.2794278997
 21
69.1499314872
  0
LINE
  5
2C6
100
AcDbEntity
  8
0
100
AcDbLine
 62
7
  6
BYLAYER
 10
76.5794278997
 20
69.1499314872
 11
80.4794278997
 21
69.1499314872
  0
LINE
  5
2C7
100
AcDbEntity
  8
0
100
AcDbLine
 62
7
  6
BYLAYER
 10
90.2294278997
 20
72.0499314872
 11
87.2294278997
 21
72.0499314872
  0
LINE
  5
2C8
100
AcDbEntity
  8
0
100
AcDbLine
 62
7
  6
BYLAYER
 10
80.4794278997
 20
72.0499314872
 11
76.5794278997
 21
72.0499314872
  0
LINE
  5
2C9
100
AcDbEntity
  8
0
100
AcDbLine
 62
7
  6
BYLAYER
 10
72.9294278997
 20
72.0499314872
 11
69.9294278997
 21
72.0499314872
  0
LINE
  5
2CA
100
AcDbEntity
  8
0
100
AcDbLine
 62
7
  6
BYLAYER
 10
45.0294278997
 20
72.0499314872
 11
42.0294278997
 21
72.0499314872
  0
LINE
  5
2CB
100
AcDbEntity
  8
0
100
AcDbLine
 62
7
  6
BYLAYER
 10
35.2794278997
 20
72.0499314872
 11
31.3794278997
 21
72.0499314872
  0
LINE
  5
2CC
100
AcDbEntity
  8
0
100
AcDbLine
 62
7
  6
BYLAYER
 10
27.7294278997
 20
72.0499314872
 11
24.7294278997
 21
72.0499314872
  0
LINE
  5
2CD
100
AcDbEntity
  8
0
100
AcDbLine
 62
7
  6
BYLAYER
 10
51.6794278997
 20
98.1799314872
 11
51.6794278997
 21
96.6799314872
  0
LINE
  5
2CE
100
AcDbEntity
  8
0
100
AcDbLine
 62
7
  6
BYLAYER
 10
51.6794278997
 20
95.6799314872
 11
51.6794278997
 21
94.1799314872
  0
LINE
  5
2CF
100
AcDbEntity
  8
0
100
AcDbLine
 62
7
  6
BYLAYER
 10
51.6794278997
 20
63.3299314872
 11
51.6794278997
 21
61.8299314872
  0
LINE
  5
2D0
100
AcDbEntity
  8
0
100
AcDbLine
 62
7
  6
BYLAYER
 10
51.6794278997
 20
60.8299314872
 11
51.6794278997
 21
59.3299314872
  0
LINE
  5
2D1
100
AcDbEntity
  8
0
100
AcDbLine
 62
7
  6
BYLAYER
 10
52.6794278997
 20
91.2479314872
 11
52.6794278997
 21
88.2479314872
  0
LINE
  5
2D2
100
AcDbEntity
  8
0
100
AcDbLine
 62
7
  6
BYLAYER
 10
52.6794278997
 20
68.6499314872
 11
52.6794278997
 21
65.6499314872
  0
LINE
  5
2D3
100
AcDbEntity
  8
0
100
AcDbLine
 62
7
  6
BYLAYER
 10
52.6794278997
 20
59.3299314872
 11
52.6794278997
 21
60.8299314872
  0
LINE
  5
2D4
100
AcDbEntity
  8
0
100
AcDbLine
 62
7
  6
BYLAYER
 10
52.6794278997
 20
61.8299314872
 11
52.6794278997
 21
63.3299314872
  0
LINE
  5
2D5
100
AcDbEntity
  8
0
100
AcDbLine
 62
7
  6
BYLAYER
 10
52.6794278997
 20
94.1799314872
 11
52.6794278997
 21
95.6799314872
  0
LINE
  5
2D6
100
AcDbEntity
  8
0
100
AcDbLine
 62
7
  6
BYLAYER
 10
52.6794278997
 20
96.6799314872
 11
52.6794278997
 21
98.1799314872
  0
LINE
  5
2D7
100
AcDbEntity
  8
0
100
AcDbLine
 62
7
  6
BYLAYER
 10
54.1794278997
 20
60.8299314872
 11
54.1794278997
 21
61.8299314872
  0
LINE
  5
2D8
100
AcDbEntity
  8
0
100
AcDbLine
 62
7
  6
BYLAYER
 10
54.1794278997
 20
95.6799314872
 11
54.1794278997
 21
96.6799314872
  0
LINE
  5
2D9
100
AcDbEntity
  8
0
100
AcDbLine
 62
7
  6
BYLAYER
 10
37.1694278997
 20
74.6099314872
 11
48.1294278997
 21
74.6099314872
  0
LINE
  5
2DA
100
AcDbEntity
  8
0
100
AcDbLine
 62
7
  6
BYLAYER
 10
82.2294278997
 20
75.3279314872
 11
92.3294278997
 21
75.3279314872
  0
LINE
  5
2DB
100
AcDbEntity
  8
0
100
AcDbLine
 62
7
  6
BYLAYER
 10
54.6259808164
 20
103.6637144454
 11
54.6259808164
 21
102.4297629596
  0
LINE
  5
2DC
100
AcDbEntity
  8
0
100
AcDbLine
 62
7
  6
BYLAYER
 10
54.6259808164
 20
53.958120179
 11
54.6259808164
 21
52.7245188734
  0
LINE
  5
2DD
100
AcDbEntity
  8
0
100
AcDbLine
 62
7
  6
BYLAYER
 10
54.8794278997
 20
65.6499314872
 11
54.8794278997
 21
68.6499314872
  0
LINE
  5
2DE
100
AcDbEntity
  8
0
100
AcDbLine
 62
7
  6
BYLAYER
 10
54.8794278997
 20
88.2479314872
 11
54.8794278997
 21
91.2479314872
  0
LINE
  5
2DF
100
AcDbEntity
  8
0
100
AcDbLine
 62
7
  6
BYLAYER
 10
55.7794278997
 20
97.9979314872
 11
55.7794278997
 21
94.7379314872
  0
LINE
  5
2E0
100
AcDbEntity
  8
0
100
AcDbLine
 62
7
  6
BYLAYER
 10
55.7794278997
 20
62.1999314872
 11
55.7794278997
 21
58.9399314872
  0
LINE
  5
2E1
100
AcDbEntity
  8
0
100
AcDbLine
 62
7
  6
BYLAYER
 10
56.1254331675
 20
55.3498863505
 11
56.1254331675
 21
52.7183035804
  0
LINE
  5
2E2
100
AcDbEntity
  8
0
100
AcDbLine
 62
7
  6
BYLAYER
 10
56.1254331675
 20
102.3485593359
 11
56.1254331675
 21
104.7500480192
  0
LINE
  5
2E3
100
AcDbEntity
  8
0
100
AcDbLine
 62
7
  6
BYLAYER
 10
41.4794270664
 20
75.9499314874
 11
39.4794280663
 21
75.9479314874
  0
LINE
  5
2E4
100
AcDbEntity
  8
0
100
AcDbLine
 62
7
  6
BYLAYER
 10
86.4794278997
 20
75.9479314872
 11
84.4794278997
 21
75.9479314872
  0
LINE
  5
2E5
100
AcDbEntity
  8
0
100
AcDbLine
 62
7
  6
BYLAYER
 10
58.8334226318
 20
55.3498845026
 11
58.8334226318
 21
52.7183035804
  0
LINE
  5
2E6
100
AcDbEntity
  8
0
100
AcDbLine
 62
7
  6
BYLAYER
 10
58.8340278997
 20
102.348559952
 11
58.8340278997
 21
104.7500480192
  0
LINE
  5
2E7
100
AcDbEntity
  8
0
100
AcDbLine
 62
7
  6
BYLAYER
 10
59.1694278997
 20
58.9399314872
 11
59.1694278997
 21
62.1999314872
  0
LINE
  5
2E8
100
AcDbEntity
  8
0
100
AcDbLine
 62
7
  6
BYLAYER
 10
59.1694278997
 20
94.7379314872
 11
59.1694278997
 21
97.9979314872
  0
LINE
  5
2E9
100
AcDbEntity
  8
0
100
AcDbLine
 62
7
  6
BYLAYER
 10
60.7794278997
 20
95.8799314872
 11
60.7794278997
 21
94.8799314872
  0
LINE
  5
2EA
100
AcDbEntity
  8
0
100
AcDbLine
 62
7
  6
BYLAYER
 10
60.7794278997
 20
62.6299314872
 11
60.7794278997
 21
61.6299314872
  0
LINE
  5
2EB
100
AcDbEntity
  8
0
100
AcDbLine
 62
7
  6
BYLAYER
 10
61.0294278997
 20
87.8679314872
 11
61.0294278997
 21
84.3679314872
  0
LINE
  5
2EC
100
AcDbEntity
  8
0
100
AcDbLine
 62
7
  6
BYLAYER
 10
39.479428733
 20
80.947931487
 11
41.479427733
 21
80.949931487
  0
LINE
  5
2ED
100
AcDbEntity
  8
0
100
AcDbLine
 62
7
  6
BYLAYER
 10
84.4794278997
 20
80.9479314872
 11
86.4794278997
 21
80.9479314872
  0
LINE
  5
2EE
100
AcDbEntity
  8
0
100
AcDbLine
 62
7
  6
BYLAYER
 10
92.3294278997
 20
81.5679314872
 11
82.2294278997
 21
81.5679314872
  0
LINE
  5
2EF
100
AcDbEntity
  8
0
100
AcDbLine
 62
7
  6
BYLAYER
 10
48.1294278997
 20
82.2879314872
 11
37.1694278997
 21
82.2879314872
  0
LINE
  5
2F0
100
AcDbEntity
  8
0
100
AcDbLine
 62
7
  6
BYLAYER
 10
62.2794278997
 20
97.3799314872
 11
62.2794278997
 21
95.8799314872
  0
LINE
  5
2F1
100
AcDbEntity
  8
0
100
AcDbLine
 62
7
  6
BYLAYER
 10
62.2794278997
 20
94.8799314872
 11
62.2794278997
 21
93.3799314872
  0
LINE
  5
2F2
100
AcDbEntity
  8
0
100
AcDbLine
 62
7
  6
BYLAYER
 10
62.2794278997
 20
64.1299314872
 11
62.2794278997
 21
62.6299314872
  0
LINE
  5
2F3
100
AcDbEntity
  8
0
100
AcDbLine
 62
7
  6
BYLAYER
 10
62.2794278997
 20
61.6299314872
 11
62.2794278997
 21
60.1299314872
  0
LINE
  5
2F4
100
AcDbEntity
  8
0
100
AcDbLine
 62
7
  6
BYLAYER
 10
63.2794278997
 20
60.1299314872
 11
63.2794278997
 21
61.6299314872
  0
LINE
  5
2F5
100
AcDbEntity
  8
0
100
AcDbLine
 62
7
  6
BYLAYER
 10
63.2794278997
 20
62.6299314872
 11
63.2794278997
 21
64.1299314872
  0
LINE
  5
2F6
100
AcDbEntity
  8
0
100
AcDbLine
 62
7
  6
BYLAYER
 10
63.2794278997
 20
93.3799314872
 11
63.2794278997
 21
94.8799314872
  0
LINE
  5
2F7
100
AcDbEntity
  8
0
100
AcDbLine
 62
7
  6
BYLAYER
 10
63.2794278997
 20
95.8799314872
 11
63.2794278997
 21
97.3799314872
  0
LINE
  5
2F8
100
AcDbEntity
  8
0
100
AcDbLine
 62
7
  6
BYLAYER
 10
64.5294278997
 20
84.3679314872
 11
64.5294278997
 21
87.8679314872
  0
LINE
  5
2F9
100
AcDbEntity
  8
0
100
AcDbLine
 62
7
  6
BYLAYER
 10
64.7794278997
 20
61.6299314872
 11
64.7794278997
 21
62.6299314872
  0
LINE
  5
2FA
100
AcDbEntity
  8
0
100
AcDbLine
 62
7
  6
BYLAYER
 10
64.7794278997
 20
94.8799314872
 11
64.7794278997
 21
95.8799314872
  0
LINE
  5
2FB
100
AcDbEntity
  8
0
100
AcDbLine
 62
7
  6
BYLAYER
 10
32.7794278997
 20
84.0479314872
 11
37.0294278997
 21
84.0479314872
  0
LINE
  5
2FC
100
AcDbEntity
  8
0
100
AcDbLine
 62
7
  6
BYLAYER
 10
77.9794278997
 20
84.0479314872
 11
82.2294278997
 21
84.0479314872
  0
LINE
  5
2FD
100
AcDbEntity
  8
0
100
AcDbLine
 62
7
  6
BYLAYER
 10
15.8294278997
 20
84.3679314872
 11
19.3294278997
 21
84.3679314872
  0
LINE
  5
2FE
100
AcDbEntity
  8
0
100
AcDbLine
 62
7
  6
BYLAYER
 10
41.7794278997
 20
84.3679314872
 11
45.2794278997
 21
84.3679314872
  0
LINE
  5
2FF
100
AcDbEntity
  8
0
100
AcDbLine
 62
7
  6
BYLAYER
 10
61.0294278997
 20
84.3679314872
 11
64.5294278997
 21
84.3679314872
  0
LINE
  5
300
100
AcDbEntity
  8
0
100
AcDbLine
 62
7
  6
BYLAYER
 10
86.9794278997
 20
84.3679314872
 11
90.4794278997
 21
84.3679314872
  0
LINE
  5
301
100
AcDbEntity
  8
0
100
AcDbLine
 62
7
  6
BYLAYER
 10
66.5243226318
 20
55.3498760424
 11
66.5243226318
 21
52.7183035804
  0
LINE
  5
302
100
AcDbEntity
  8
0
100
AcDbLine
 62
7
  6
BYLAYER
 10
66.5249278997
 20
102.3485638428
 11
66.5249278997
 21
104.7500480192
  0
LINE
  5
303
100
AcDbEntity
  8
0
100
AcDbLine
 62
7
  6
BYLAYER
 10
67.2630226318
 20
55.3498755383
 11
67.2630226318
 21
52.7183035804
  0
LINE
  5
304
100
AcDbEntity
  8
0
100
AcDbLine
 62
7
  6
BYLAYER
 10
67.2636278997
 20
102.3485640109
 11
67.2636278997
 21
104.7500480192
  0
LINE
  5
305
100
AcDbEntity
  8
0
100
AcDbLine
 62
7
  6
BYLAYER
 10
82.2294278997
 20
87.4279314872
 11
77.9794278997
 21
87.4279314872
  0
LINE
  5
306
100
AcDbEntity
  8
0
100
AcDbLine
 62
7
  6
BYLAYER
 10
37.0294278997
 20
87.4279314872
 11
32.7794278997
 21
87.4279314872
  0
LINE
  5
307
100
AcDbEntity
  8
0
100
AcDbLine
 62
7
  6
BYLAYER
 10
90.4794278997
 20
87.8679314872
 11
86.9794278997
 21
87.8679314872
  0
LINE
  5
308
100
AcDbEntity
  8
0
100
AcDbLine
 62
7
  6
BYLAYER
 10
64.5294278997
 20
87.8679314872
 11
61.0294278997
 21
87.8679314872
  0
LINE
  5
309
100
AcDbEntity
  8
0
100
AcDbLine
 62
7
  6
BYLAYER
 10
45.2794278997
 20
87.8679314872
 11
41.7794278997
 21
87.8679314872
  0
LINE
  5
30A
100
AcDbEntity
  8
0
100
AcDbLine
 62
7
  6
BYLAYER
 10
19.3294278997
 20
87.8679314872
 11
15.8294278997
 21
87.8679314872
  0
LINE
  5
30B
100
AcDbEntity
  8
0
100
AcDbLine
 62
7
  6
BYLAYER
 10
52.6794278997
 20
88.2479314872
 11
54.8794278997
 21
88.2479314872
  0
LINE
  5
30C
100
AcDbEntity
  8
0
100
AcDbLine
 62
7
  6
BYLAYER
 10
97.8794278997
 20
88.2479314872
 11
100.0794278997
 21
88.2479314872
  0
LINE
  5
30D
100
AcDbEntity
  8
0
100
AcDbLine
 62
7
  6
BYLAYER
 10
69.4294278997
 20
95.8799314872
 11
69.4294278997
 21
94.8799314872
  0
LINE
  5
30E
100
AcDbEntity
  8
0
100
AcDbLine
 62
7
  6
BYLAYER
 10
69.4294278997
 20
62.6299314872
 11
69.4294278997
 21
61.6299314872
  0
LINE
  5
30F
100
AcDbEntity
  8
0
100
AcDbLine
 62
7
  6
BYLAYER
 10
69.9294278997
 20
72.0499314872
 11
69.9294278997
 21
68.2499314872
  0
LINE
  5
310
100
AcDbEntity
  8
0
100
AcDbLine
 62
7
  6
BYLAYER
 10
70.9294278997
 20
97.3799314872
 11
70.9294278997
 21
95.8799314872
  0
LINE
  5
311
100
AcDbEntity
  8
0
100
AcDbLine
 62
7
  6
BYLAYER
 10
70.9294278997
 20
94.8799314872
 11
70.9294278997
 21
93.3799314872
  0
LINE
  5
312
100
AcDbEntity
  8
0
100
AcDbLine
 62
7
  6
BYLAYER
 10
70.9294278997
 20
64.1299314872
 11
70.9294278997
 21
62.6299314872
  0
LINE
  5
313
100
AcDbEntity
  8
0
100
AcDbLine
 62
7
  6
BYLAYER
 10
70.9294278997
 20
61.6299314872
 11
70.9294278997
 21
60.1299314872
  0
LINE
  5
314
100
AcDbEntity
  8
0
100
AcDbLine
 62
7
  6
BYLAYER
 10
71.9294278997
 20
60.1299314872
 11
71.9294278997
 21
61.6299314872
  0
LINE
  5
315
100
AcDbEntity
  8
0
100
AcDbLine
 62
7
  6
BYLAYER
 10
71.9294278997
 20
62.6299314872
 11
71.9294278997
 21
64.1299314872
  0
LINE
  5
316
100
AcDbEntity
  8
0
100
AcDbLine
 62
7
  6
BYLAYER
 10
71.9294278997
 20
93.3799314872
 11
71.9294278997
 21
94.8799314872
  0
LINE
  5
317
100
AcDbEntity
  8
0
100
AcDbLine
 62
7
  6
BYLAYER
 10
71.9294278997
 20
95.8799314872
 11
71.9294278997
 21
97.3799314872
  0
LINE
  5
318
100
AcDbEntity
  8
0
100
AcDbLine
 62
7
  6
BYLAYER
 10
100.0794278997
 20
91.2479314872
 11
97.8794278997
 21
91.2479314872
  0
LINE
  5
319
100
AcDbEntity
  8
0
100
AcDbLine
 62
7
  6
BYLAYER
 10
54.8794278997
 20
91.2479314872
 11
52.6794278997
 21
91.2479314872
  0
LINE
  5
31A
100
AcDbEntity
  8
0
100
AcDbLine
 62
7
  6
BYLAYER
 10
17.0794278997
 20
93.3799314872
 11
18.0794278997
 21
93.3799314872
  0
LINE
  5
31B
100
AcDbEntity
  8
0
100
AcDbLine
 62
7
  6
BYLAYER
 10
25.7294278997
 20
93.3799314872
 11
26.7294278997
 21
93.3799314872
  0
LINE
  5
31C
100
AcDbEntity
  8
0
100
AcDbLine
 62
7
  6
BYLAYER
 10
34.3794278997
 20
93.3799314872
 11
35.3794278997
 21
93.3799314872
  0
LINE
  5
31D
100
AcDbEntity
  8
0
100
AcDbLine
 62
7
  6
BYLAYER
 10
43.0294278997
 20
93.3799314872
 11
44.0294278997
 21
93.3799314872
  0
LINE
  5
31E
100
AcDbEntity
  8
0
100
AcDbLine
 62
7
  6
BYLAYER
 10
62.2794278997
 20
93.3799314872
 11
63.2794278997
 21
93.3799314872
  0
LINE
  5
31F
100
AcDbEntity
  8
0
100
AcDbLine
 62
7
  6
BYLAYER
 10
70.9294278997
 20
93.3799314872
 11
71.9294278997
 21
93.3799314872
  0
LINE
  5
320
100
AcDbEntity
  8
0
100
AcDbLine
 62
7
  6
BYLAYER
 10
79.5794278997
 20
93.3799314872
 11
80.5794278997
 21
93.3799314872
  0
LINE
  5
321
100
AcDbEntity
  8
0
100
AcDbLine
 62
7
  6
BYLAYER
 10
88.2294278997
 20
93.3799314872
 11
89.2294278997
 21
93.3799314872
  0
LINE
  5
322
100
AcDbEntity
  8
0
100
AcDbLine
 62
7
  6
BYLAYER
 10
72.9294278997
 20
68.2499314872
 11
72.9294278997
 21
72.0499314872
  0
LINE
  5
323
100
AcDbEntity
  8
0
100
AcDbLine
 62
7
  6
BYLAYER
 10
73.4294278997
 20
61.6299314872
 11
73.4294278997
 21
62.6299314872
  0
LINE
  5
324
100
AcDbEntity
  8
0
100
AcDbLine
 62
7
  6
BYLAYER
 10
73.4294278997
 20
94.8799314872
 11
73.4294278997
 21
95.8799314872
  0
LINE
  5
325
100
AcDbEntity
  8
0
100
AcDbLine
 62
7
  6
BYLAYER
 10
75.1948226318
 20
55.349867171
 11
75.1948226318
 21
52.7183035803
  0
LINE
  5
326
100
AcDbEntity
  8
0
100
AcDbLine
 62
7
  6
BYLAYER
 10
75.1954278997
 20
102.3485677849
 11
75.1954278997
 21
104.7500480192
  0
LINE
  5
327
100
AcDbEntity
  8
0
100
AcDbLine
 62
7
  6
BYLAYER
 10
51.6794278997
 20
94.1799314872
 11
52.6794278997
 21
94.1799314872
  0
LINE
  5
328
100
AcDbEntity
  8
0
100
AcDbLine
 62
7
  6
BYLAYER
 10
96.8794278997
 20
94.1799314872
 11
97.8794278997
 21
94.1799314872
  0
LINE
  5
329
100
AcDbEntity
  8
0
100
AcDbLine
 62
7
  6
BYLAYER
 10
55.7794278997
 20
94.7379314872
 11
59.1694278997
 21
94.7379314872
  0
LINE
  5
32A
100
AcDbEntity
  8
0
100
AcDbLine
 62
7
  6
BYLAYER
 10
15.5794278997
 20
94.8799314872
 11
17.0794278997
 21
94.8799314872
  0
LINE
  5
32B
100
AcDbEntity
  8
0
100
AcDbLine
 62
7
  6
BYLAYER
 10
18.0794278997
 20
94.8799314872
 11
19.5794278997
 21
94.8799314872
  0
LINE
  5
32C
100
AcDbEntity
  8
0
100
AcDbLine
 62
7
  6
BYLAYER
 10
24.2294278997
 20
94.8799314872
 11
25.7294278997
 21
94.8799314872
  0
LINE
  5
32D
100
AcDbEntity
  8
0
100
AcDbLine
 62
7
  6
BYLAYER
 10
26.7294278997
 20
94.8799314872
 11
28.2294278997
 21
94.8799314872
  0
LINE
  5
32E
100
AcDbEntity
  8
0
100
AcDbLine
 62
7
  6
BYLAYER
 10
32.8794278997
 20
94.8799314872
 11
34.3794278997
 21
94.8799314872
  0
LINE
  5
32F
100
AcDbEntity
  8
0
100
AcDbLine
 62
7
  6
BYLAYER
 10
35.3794278997
 20
94.8799314872
 11
36.8794278997
 21
94.8799314872
  0
LINE
  5
330
100
AcDbEntity
  8
0
100
AcDbLine
 62
7
  6
BYLAYER
 10
41.5294278997
 20
94.8799314872
 11
43.0294278997
 21
94.8799314872
  0
LINE
  5
331
100
AcDbEntity
  8
0
100
AcDbLine
 62
7
  6
BYLAYER
 10
44.0294278997
 20
94.8799314872
 11
45.5294278997
 21
94.8799314872
  0
LINE
  5
332
100
AcDbEntity
  8
0
100
AcDbLine
 62
7
  6
BYLAYER
 10
60.7794278997
 20
94.8799314872
 11
62.2794278997
 21
94.8799314872
  0
LINE
  5
333
100
AcDbEntity
  8
0
100
AcDbLine
 62
7
  6
BYLAYER
 10
63.2794278997
 20
94.8799314872
 11
64.7794278997
 21
94.8799314872
  0
LINE
  5
334
100
AcDbEntity
  8
0
100
AcDbLine
 62
7
  6
BYLAYER
 10
69.4294278997
 20
94.8799314872
 11
70.9294278997
 21
94.8799314872
  0
LINE
  5
335
100
AcDbEntity
  8
0
100
AcDbLine
 62
7
  6
BYLAYER
 10
71.9294278997
 20
94.8799314872
 11
73.4294278997
 21
94.8799314872
  0
LINE
  5
336
100
AcDbEntity
  8
0
100
AcDbLine
 62
7
  6
BYLAYER
 10
78.0794278997
 20
94.8799314872
 11
79.5794278997
 21
94.8799314872
  0
LINE
  5
337
100
AcDbEntity
  8
0
100
AcDbLine
 62
7
  6
BYLAYER
 10
80.5794278997
 20
94.8799314872
 11
82.0794278997
 21
94.8799314872
  0
LINE
  5
338
100
AcDbEntity
  8
0
100
AcDbLine
 62
7
  6
BYLAYER
 10
86.7294278997
 20
94.8799314872
 11
88.2294278997
 21
94.8799314872
  0
LINE
  5
339
100
AcDbEntity
  8
0
100
AcDbLine
 62
7
  6
BYLAYER
 10
89.2294278997
 20
94.8799314872
 11
90.7294278997
 21
94.8799314872
  0
LINE
  5
33A
100
AcDbEntity
  8
0
100
AcDbLine
 62
7
  6
BYLAYER
 10
50.1794278997
 20
95.6799314872
 11
51.6794278997
 21
95.6799314872
  0
LINE
  5
33B
100
AcDbEntity
  8
0
100
AcDbLine
 62
7
  6
BYLAYER
 10
52.6794278997
 20
95.6799314872
 11
54.1794278997
 21
95.6799314872
  0
LINE
  5
33C
100
AcDbEntity
  8
0
100
AcDbLine
 62
7
  6
BYLAYER
 10
95.3794278997
 20
95.6799314872
 11
96.8794278997
 21
95.6799314872
  0
LINE
  5
33D
100
AcDbEntity
  8
0
100
AcDbLine
 62
7
  6
BYLAYER
 10
97.8794278997
 20
95.6799314872
 11
99.3794278997
 21
95.6799314872
  0
LINE
  5
33E
100
AcDbEntity
  8
0
100
AcDbLine
 62
7
  6
BYLAYER
 10
90.7294278997
 20
95.8799314872
 11
89.2294278997
 21
95.8799314872
  0
LINE
  5
33F
100
AcDbEntity
  8
0
100
AcDbLine
 62
7
  6
BYLAYER
 10
88.2294278997
 20
95.8799314872
 11
86.7294278997
 21
95.8799314872
  0
LINE
  5
340
100
AcDbEntity
  8
0
100
AcDbLine
 62
7
  6
BYLAYER
 10
82.0794278997
 20
95.8799314872
 11
80.5794278997
 21
95.8799314872
  0
LINE
  5
341
100
AcDbEntity
  8
0
100
AcDbLine
 62
7
  6
BYLAYER
 10
79.5794278997
 20
95.8799314872
 11
78.0794278997
 21
95.8799314872
  0
LINE
  5
342
100
AcDbEntity
  8
0
100
AcDbLine
 62
7
  6
BYLAYER
 10
73.4294278997
 20
95.8799314872
 11
71.9294278997
 21
95.8799314872
  0
LINE
  5
343
100
AcDbEntity
  8
0
100
AcDbLine
 62
7
  6
BYLAYER
 10
70.9294278997
 20
95.8799314872
 11
69.4294278997
 21
95.8799314872
  0
LINE
  5
344
100
AcDbEntity
  8
0
100
AcDbLine
 62
7
  6
BYLAYER
 10
64.7794278997
 20
95.8799314872
 11
63.2794278997
 21
95.8799314872
  0
LINE
  5
345
100
AcDbEntity
  8
0
100
AcDbLine
 62
7
  6
BYLAYER
 10
62.2794278997
 20
95.8799314872
 11
60.7794278997
 21
95.8799314872
  0
LINE
  5
346
100
AcDbEntity
  8
0
100
AcDbLine
 62
7
  6
BYLAYER
 10
45.5294278997
 20
95.8799314872
 11
44.0294278997
 21
95.8799314872
  0
LINE
  5
347
100
AcDbEntity
  8
0
100
AcDbLine
 62
7
  6
BYLAYER
 10
43.0294278997
 20
95.8799314872
 11
41.5294278997
 21
95.8799314872
  0
LINE
  5
348
100
AcDbEntity
  8
0
100
AcDbLine
 62
7
  6
BYLAYER
 10
36.8794278997
 20
95.8799314872
 11
35.3794278997
 21
95.8799314872
  0
LINE
  5
349
100
AcDbEntity
  8
0
100
AcDbLine
 62
7
  6
BYLAYER
 10
34.3794278997
 20
95.8799314872
 11
32.8794278997
 21
95.8799314872
  0
LINE
  5
34A
100
AcDbEntity
  8
0
100
AcDbLine
 62
7
  6
BYLAYER
 10
28.2294278997
 20
95.8799314872
 11
26.7294278997
 21
95.8799314872
  0
LINE
  5
34B
100
AcDbEntity
  8
0
100
AcDbLine
 62
7
  6
BYLAYER
 10
25.7294278997
 20
95.8799314872
 11
24.2294278997
 21
95.8799314872
  0
LINE
  5
34C
100
AcDbEntity
  8
0
100
AcDbLine
 62
7
  6
BYLAYER
 10
19.5794278997
 20
95.8799314872
 11
18.0794278997
 21
95.8799314872
  0
LINE
  5
34D
100
AcDbEntity
  8
0
100
AcDbLine
 62
7
  6
BYLAYER
 10
17.0794278997
 20
95.8799314872
 11
15.5794278997
 21
95.8799314872
  0
LINE
  5
34E
100
AcDbEntity
  8
0
100
AcDbLine
 62
7
  6
BYLAYER
 10
99.3794278997
 20
96.6799314872
 11
97.8794278997
 21
96.6799314872
  0
LINE
  5
34F
100
AcDbEntity
  8
0
100
AcDbLine
 62
7
  6
BYLAYER
 10
96.8794278997
 20
96.6799314872
 11
95.3794278997
 21
96.6799314872
  0
LINE
  5
350
100
AcDbEntity
  8
0
100
AcDbLine
 62
7
  6
BYLAYER
 10
54.1794278997
 20
96.6799314872
 11
52.6794278997
 21
96.6799314872
  0
LINE
  5
351
100
AcDbEntity
  8
0
100
AcDbLine
 62
7
  6
BYLAYER
 10
51.6794278997
 20
96.6799314872
 11
50.1794278997
 21
96.6799314872
  0
LINE
  5
352
100
AcDbEntity
  8
0
100
AcDbLine
 62
7
  6
BYLAYER
 10
75.9130226318
 20
55.3498666809
 11
75.9130226318
 21
52.7183035803
  0
LINE
  5
353
100
AcDbEntity
  8
0
100
AcDbLine
 62
7
  6
BYLAYER
 10
75.9136278997
 20
102.3485679483
 11
75.9136278997
 21
104.7500480192
  0
LINE
  5
354
100
AcDbEntity
  8
0
100
AcDbLine
 62
7
  6
BYLAYER
 10
76.5794278997
 20
72.0499314872
 11
76.5794278997
 21
69.1499314872
  0
LINE
  5
355
100
AcDbEntity
  8
0
100
AcDbLine
 62
7
  6
BYLAYER
 10
77.9794278997
 20
87.4279314872
 11
77.9794278997
 21
84.0479314872
  0
LINE
  5
356
100
AcDbEntity
  8
0
100
AcDbLine
 62
7
  6
BYLAYER
 10
78.0794278997
 20
95.8799314872
 11
78.0794278997
 21
94.8799314872
  0
LINE
  5
357
100
AcDbEntity
  8
0
100
AcDbLine
 62
7
  6
BYLAYER
 10
78.0794278997
 20
62.6299314872
 11
78.0794278997
 21
61.6299314872
  0
LINE
  5
358
100
AcDbEntity
  8
0
100
AcDbLine
 62
7
  6
BYLAYER
 10
89.2294278997
 20
97.3799314872
 11
88.2294278997
 21
97.3799314872
  0
LINE
  5
359
100
AcDbEntity
  8
0
100
AcDbLine
 62
7
  6
BYLAYER
 10
80.5794278997
 20
97.3799314872
 11
79.5794278997
 21
97.3799314872
  0
LINE
  5
35A
100
AcDbEntity
  8
0
100
AcDbLine
 62
7
  6
BYLAYER
 10
71.9294278997
 20
97.3799314872
 11
70.9294278997
 21
97.3799314872
  0
LINE
  5
35B
100
AcDbEntity
  8
0
100
AcDbLine
 62
7
  6
BYLAYER
 10
63.2794278997
 20
97.3799314872
 11
62.2794278997
 21
97.3799314872
  0
LINE
  5
35C
100
AcDbEntity
  8
0
100
AcDbLine
 62
7
  6
BYLAYER
 10
44.0294278997
 20
97.3799314872
 11
43.0294278997
 21
97.3799314872
  0
LINE
  5
35D
100
AcDbEntity
  8
0
100
AcDbLine
 62
7
  6
BYLAYER
 10
35.3794278997
 20
97.3799314872
 11
34.3794278997
 21
97.3799314872
  0
LINE
  5
35E
100
AcDbEntity
  8
0
100
AcDbLine
 62
7
  6
BYLAYER
 10
26.7294278997
 20
97.3799314872
 11
25.7294278997
 21
97.3799314872
  0
LINE
  5
35F
100
AcDbEntity
  8
0
100
AcDbLine
 62
7
  6
BYLAYER
 10
18.0794278997
 20
97.3799314872
 11
17.0794278997
 21
97.3799314872
  0
LINE
  5
360
100
AcDbEntity
  8
0
100
AcDbLine
 62
7
  6
BYLAYER
 10
59.1694278997
 20
97.9979314872
 11
55.7794278997
 21
97.9979314872
  0
LINE
  5
361
100
AcDbEntity
  8
0
100
AcDbLine
 62
7
  6
BYLAYER
 10
97.8794278997
 20
98.1799314872
 11
96.8794278997
 21
98.1799314872
  0
LINE
  5
362
100
AcDbEntity
  8
0
100
AcDbLine
 62
7
  6
BYLAYER
 10
52.6794278997
 20
98.1799314872
 11
51.6794278997
 21
98.1799314872
  0
LINE
  5
363
100
AcDbEntity
  8
0
100
AcDbLine
 62
7
  6
BYLAYER
 10
79.5794278997
 20
97.3799314872
 11
79.5794278997
 21
95.8799314872
  0
LINE
  5
364
100
AcDbEntity
  8
0
100
AcDbLine
 62
7
  6
BYLAYER
 10
79.5794278997
 20
94.8799314872
 11
79.5794278997
 21
93.3799314872
  0
LINE
  5
365
100
AcDbEntity
  8
0
100
AcDbLine
 62
7
  6
BYLAYER
 10
79.5794278997
 20
64.1299314872
 11
79.5794278997
 21
62.6299314872
  0
LINE
  5
366
100
AcDbEntity
  8
0
100
AcDbLine
 62
7
  6
BYLAYER
 10
79.5794278997
 20
61.6299314872
 11
79.5794278997
 21
60.1299314872
  0
LINE
  5
367
100
AcDbEntity
  8
0
100
AcDbLine
 62
7
  6
BYLAYER
 10
80.4794278997
 20
69.1499314872
 11
80.4794278997
 21
72.0499314872
  0
LINE
  5
368
100
AcDbEntity
  8
0
100
AcDbLine
 62
7
  6
BYLAYER
 10
80.5794278997
 20
60.1299314872
 11
80.5794278997
 21
61.6299314872
  0
LINE
  5
369
100
AcDbEntity
  8
0
100
AcDbLine
 62
7
  6
BYLAYER
 10
80.5794278997
 20
62.6299314872
 11
80.5794278997
 21
64.1299314872
  0
LINE
  5
36A
100
AcDbEntity
  8
0
100
AcDbLine
 62
7
  6
BYLAYER
 10
80.5794278997
 20
93.3799314872
 11
80.5794278997
 21
94.8799314872
  0
LINE
  5
36B
100
AcDbEntity
  8
0
100
AcDbLine
 62
7
  6
BYLAYER
 10
80.5794278997
 20
95.8799314872
 11
80.5794278997
 21
97.3799314872
  0
LINE
  5
36C
100
AcDbEntity
  8
0
100
AcDbLine
 62
7
  6
BYLAYER
 10
82.0794278997
 20
61.6299314872
 11
82.0794278997
 21
62.6299314872
  0
LINE
  5
36D
100
AcDbEntity
  8
0
100
AcDbLine
 62
7
  6
BYLAYER
 10
82.0794278997
 20
94.8799314872
 11
82.0794278997
 21
95.8799314872
  0
LINE
  5
36E
100
AcDbEntity
  8
0
100
AcDbLine
 62
7
  6
BYLAYER
 10
82.2294278997
 20
81.5679314872
 11
82.2294278997
 21
75.3279314872
  0
LINE
  5
36F
100
AcDbEntity
  8
0
100
AcDbLine
 62
7
  6
BYLAYER
 10
82.2294278997
 20
84.0479314872
 11
82.2294278997
 21
87.4279314872
  0
LINE
  5
370
100
AcDbEntity
  8
0
100
AcDbLine
 62
7
  6
BYLAYER
 10
102.4794278997
 20
102.3474275055
 11
12.4794278997
 21
102.3474275055
  0
LINE
  5
371
100
AcDbEntity
  8
0
100
AcDbLine
 62
7
  6
BYLAYER
 10
83.8448226318
 20
55.3498583172
 11
83.8448226318
 21
52.7183035803
  0
LINE
  5
372
100
AcDbEntity
  8
0
100
AcDbLine
 62
7
  6
BYLAYER
 10
83.8454278997
 20
102.3485717199
 11
83.8454278997
 21
104.7500480192
  0
LINE
  5
373
100
AcDbEntity
  8
0
100
AcDbLine
 62
7
  6
BYLAYER
 10
84.4794278997
 20
75.9479314872
 11
84.4794278997
 21
80.9479314872
  0
LINE
  5
374
100
AcDbEntity
  8
0
100
AcDbLine
 62
7
  6
BYLAYER
 10
84.5625136148
 20
55.3498578275
 11
84.5625593248
 21
52.7183035803
  0
LINE
  5
375
100
AcDbEntity
  8
0
100
AcDbLine
 62
7
  6
BYLAYER
 10
84.5635278997
 20
102.3485718833
 11
84.5635278997
 21
104.7500480192
  0
LINE
  5
376
100
AcDbEntity
  8
0
100
AcDbLine
 62
7
  6
BYLAYER
 10
86.4794278997
 20
80.9479314872
 11
86.4794278997
 21
75.9479314872
  0
LINE
  5
377
100
AcDbEntity
  8
0
100
AcDbLine
 62
7
  6
BYLAYER
 10
102.3794278997
 20
104.7500480206
 11
101.1453278997
 21
104.7500480192
  0
LINE
  5
378
100
AcDbEntity
  8
0
100
AcDbLine
 62
7
  6
BYLAYER
 10
93.2135278997
 20
104.7500480192
 11
92.2544278997
 21
104.7500480192
  0
LINE
  5
379
100
AcDbEntity
  8
0
100
AcDbLine
 62
7
  6
BYLAYER
 10
84.5635278997
 20
104.7500480192
 11
83.8454278997
 21
104.7500480192
  0
LINE
  5
37A
100
AcDbEntity
  8
0
100
AcDbLine
 62
7
  6
BYLAYER
 10
75.9136278997
 20
104.7500480192
 11
75.1954278997
 21
104.7500480192
  0
LINE
  5
37B
100
AcDbEntity
  8
0
100
AcDbLine
 62
7
  6
BYLAYER
 10
67.2636278997
 20
104.7500480192
 11
66.5249278997
 21
104.7500480192
  0
LINE
  5
37C
100
AcDbEntity
  8
0
100
AcDbLine
 62
7
  6
BYLAYER
 10
58.8340278997
 20
104.7500480192
 11
56.1254331675
 21
104.7500480192
  0
LINE
  5
37D
100
AcDbEntity
  8
0
100
AcDbLine
 62
7
  6
BYLAYER
 10
48.4345331675
 20
104.7500480192
 11
47.6958331675
 21
104.7500480192
  0
LINE
  5
37E
100
AcDbEntity
  8
0
100
AcDbLine
 62
7
  6
BYLAYER
 10
39.7640331675
 20
104.7500480192
 11
39.0458331675
 21
104.7500480192
  0
LINE
  5
37F
100
AcDbEntity
  8
0
100
AcDbLine
 62
7
  6
BYLAYER
 10
31.1140331675
 20
104.7500480192
 11
30.3962964709
 21
104.7500480192
  0
LINE
  5
380
100
AcDbEntity
  8
0
100
AcDbLine
 62
7
  6
BYLAYER
 10
22.7053964709
 20
104.7500480192
 11
21.7462964754
 21
104.7500480192
  0
LINE
  5
381
100
AcDbEntity
  8
0
100
AcDbLine
 62
7
  6
BYLAYER
 10
13.8144964754
 20
104.7500480192
 11
12.5794278997
 21
104.7500480206
  0
LINE
  5
382
100
AcDbEntity
  8
0
100
AcDbLine
 62
7
  6
BYLAYER
 10
12.4794278997
 20
107.7500456752
 11
102.4794278997
 21
107.7500456752
  0
LINE
  5
383
100
AcDbEntity
  8
0
100
AcDbLine
 62
7
  6
BYLAYER
 10
86.7294278997
 20
95.8799314872
 11
86.7294278997
 21
94.8799314872
  0
LINE
  5
384
100
AcDbEntity
  8
0
100
AcDbLine
 62
7
  6
BYLAYER
 10
86.7294278997
 20
62.6299314872
 11
86.7294278997
 21
61.6299314872
  0
LINE
  5
385
100
AcDbEntity
  8
0
100
AcDbLine
 62
7
  6
BYLAYER
 10
86.9794278997
 20
87.8679314872
 11
86.9794278997
 21
84.3679314872
  0
LINE
  5
386
100
AcDbEntity
  8
0
100
AcDbLine
 62
7
  6
BYLAYER
 10
87.2294278997
 20
72.0499314872
 11
87.2294278997
 21
68.2499314872
  0
LINE
  5
387
100
AcDbEntity
  8
0
100
AcDbLine
 62
7
  6
BYLAYER
 10
88.2294278997
 20
97.3799314872
 11
88.2294278997
 21
95.8799314872
  0
LINE
  5
388
100
AcDbEntity
  8
0
100
AcDbLine
 62
7
  6
BYLAYER
 10
88.2294278997
 20
94.8799314872
 11
88.2294278997
 21
93.3799314872
  0
LINE
  5
389
100
AcDbEntity
  8
0
100
AcDbLine
 62
7
  6
BYLAYER
 10
88.2294278997
 20
64.1299314872
 11
88.2294278997
 21
62.6299314872
  0
LINE
  5
38A
100
AcDbEntity
  8
0
100
AcDbLine
 62
7
  6
BYLAYER
 10
88.2294278997
 20
61.6299314872
 11
88.2294278997
 21
60.1299314872
  0
LINE
  5
38B
100
AcDbEntity
  8
0
100
AcDbLine
 62
7
  6
BYLAYER
 10
89.2294278997
 20
60.1299314872
 11
89.2294278997
 21
61.6299314872
  0
LINE
  5
38C
100
AcDbEntity
  8
0
100
AcDbLine
 62
7
  6
BYLAYER
 10
89.2294278997
 20
62.6299314872
 11
89.2294278997
 21
64.1299314872
  0
LINE
  5
38D
100
AcDbEntity
  8
0
100
AcDbLine
 62
7
  6
BYLAYER
 10
89.2294278997
 20
93.3799314872
 11
89.2294278997
 21
94.8799314872
  0
LINE
  5
38E
100
AcDbEntity
  8
0
100
AcDbLine
 62
7
  6
BYLAYER
 10
89.2294278997
 20
95.8799314872
 11
89.2294278997
 21
97.3799314872
  0
LINE
  5
38F
100
AcDbEntity
  8
0
100
AcDbLine
 62
7
  6
BYLAYER
 10
90.2294278997
 20
68.2499314872
 11
90.2294278997
 21
72.0499314872
  0
LINE
  5
390
100
AcDbEntity
  8
0
100
AcDbLine
 62
7
  6
BYLAYER
 10
90.4794278997
 20
84.3679314872
 11
90.4794278997
 21
87.8679314872
  0
LINE
  5
391
100
AcDbEntity
  8
0
100
AcDbLine
 62
7
  6
BYLAYER
 10
90.7294278997
 20
61.6299314872
 11
90.7294278997
 21
62.6299314872
  0
LINE
  5
392
100
AcDbEntity
  8
0
100
AcDbLine
 62
7
  6
BYLAYER
 10
90.7294278997
 20
94.8799314872
 11
90.7294278997
 21
95.8799314872
  0
LINE
  5
393
100
AcDbEntity
  8
0
100
AcDbLine
 62
7
  6
BYLAYER
 10
92.2533894674
 20
55.3498496693
 11
92.2533894177
 21
52.7183035803
  0
LINE
  5
394
100
AcDbEntity
  8
0
100
AcDbLine
 62
7
  6
BYLAYER
 10
92.2544278997
 20
102.3485755728
 11
92.2544278997
 21
104.7500480192
  0
LINE
  5
395
100
AcDbEntity
  8
0
100
AcDbLine
 62
7
  6
BYLAYER
 10
92.3294278997
 20
75.3279314872
 11
92.3294278997
 21
81.5679314872
  0
LINE
  5
396
100
AcDbEntity
  8
0
100
AcDbLine
 62
7
  6
BYLAYER
 10
93.2125136097
 20
55.3498490148
 11
93.2125593203
 21
52.7183035803
  0
LINE
  5
397
100
AcDbEntity
  8
0
100
AcDbLine
 62
7
  6
BYLAYER
 10
93.2135278997
 20
102.3485757909
 11
93.2135278997
 21
104.7500480192
  0
LINE
  5
398
100
AcDbEntity
  8
0
100
AcDbLine
 62
7
  6
BYLAYER
 10
95.3794278997
 20
96.6799314872
 11
95.3794278997
 21
95.6799314872
  0
LINE
  5
399
100
AcDbEntity
  8
0
100
AcDbLine
 62
7
  6
BYLAYER
 10
95.3794278997
 20
61.8299314872
 11
95.3794278997
 21
60.8299314872
  0
LINE
  5
39A
100
AcDbEntity
  8
0
100
AcDbLine
 62
7
  6
BYLAYER
 10
95.5293808224
 20
52.9614481208
 11
95.5293808224
 21
54.1951648546
  0
LINE
  5
39B
100
AcDbEntity
  8
0
100
AcDbLine
 62
7
  6
BYLAYER
 10
95.5293808164
 20
102.548189308
 11
95.5293808164
 21
103.5453738684
  0
LINE
  5
39C
100
AcDbEntity
  8
0
100
AcDbLine
 62
7
  6
BYLAYER
 10
96.8794278997
 20
98.1799314872
 11
96.8794278997
 21
96.6799314872
  0
LINE
  5
39D
100
AcDbEntity
  8
0
100
AcDbLine
 62
7
  6
BYLAYER
 10
96.8794278997
 20
95.6799314872
 11
96.8794278997
 21
94.1799314872
  0
LINE
  5
39E
100
AcDbEntity
  8
0
100
AcDbLine
 62
7
  6
BYLAYER
 10
96.8794278997
 20
63.3299314872
 11
96.8794278997
 21
61.8299314872
  0
LINE
  5
39F
100
AcDbEntity
  8
0
100
AcDbLine
 62
7
  6
BYLAYER
 10
96.8794278997
 20
60.8299314872
 11
96.8794278997
 21
59.3299314872
  0
LINE
  5
3A0
100
AcDbEntity
  8
0
100
AcDbLine
 62
7
  6
BYLAYER
 10
97.8794278997
 20
91.2479314872
 11
97.8794278997
 21
88.2479314872
  0
LINE
  5
3A1
100
AcDbEntity
  8
0
100
AcDbLine
 62
7
  6
BYLAYER
 10
97.8794278997
 20
68.6499314872
 11
97.8794278997
 21
65.6499314872
  0
LINE
  5
3A2
100
AcDbEntity
  8
0
100
AcDbLine
 62
7
  6
BYLAYER
 10
97.8794278997
 20
59.3299314872
 11
97.8794278997
 21
60.8299314872
  0
LINE
  5
3A3
100
AcDbEntity
  8
0
100
AcDbLine
 62
7
  6
BYLAYER
 10
97.8794278997
 20
61.8299314872
 11
97.8794278997
 21
63.3299314872
  0
LINE
  5
3A4
100
AcDbEntity
  8
0
100
AcDbLine
 62
7
  6
BYLAYER
 10
97.8794278997
 20
94.1799314872
 11
97.8794278997
 21
95.6799314872
  0
LINE
  5
3A5
100
AcDbEntity
  8
0
100
AcDbLine
 62
7
  6
BYLAYER
 10
97.8794278997
 20
96.6799314872
 11
97.8794278997
 21
98.1799314872
  0
LINE
  5
3A6
100
AcDbEntity
  8
0
100
AcDbLine
 62
7
  6
BYLAYER
 10
99.3794278997
 20
60.8299314872
 11
99.3794278997
 21
61.8299314872
  0
LINE
  5
3A7
100
AcDbEntity
  8
0
100
AcDbLine
 62
7
  6
BYLAYER
 10
99.3794278997
 20
95.6799314872
 11
99.3794278997
 21
96.6799314872
  0
LINE
  5
3A8
100
AcDbEntity
  8
0
100
AcDbLine
 62
7
  6
BYLAYER
 10
99.6293808164
 20
103.5453709588
 11
99.6293808164
 21
102.548189308
  0
LINE
  5
3A9
100
AcDbEntity
  8
0
100
AcDbLine
 62
7
  6
BYLAYER
 10
99.6294127888
 20
54.1950230704
 11
99.6293808378
 21
52.9614198762
  0
LINE
  5
3AA
100
AcDbEntity
  8
0
100
AcDbLine
 62
7
  6
BYLAYER
 10
100.0794278997
 20
65.6499314872
 11
100.0794278997
 21
68.6499314872
  0
LINE
  5
3AB
100
AcDbEntity
  8
0
100
AcDbLine
 62
7
  6
BYLAYER
 10
100.0794278997
 20
88.2479314872
 11
100.0794278997
 21
91.2479314872
  0
LINE
  5
3AC
100
AcDbEntity
  8
0
100
AcDbLine
 62
7
  6
BYLAYER
 10
101.1442894619
 20
55.3498405047
 11
101.1442894122
 21
52.7183035803
  0
LINE
  5
3AD
100
AcDbEntity
  8
0
100
AcDbLine
 62
7
  6
BYLAYER
 10
101.1453278997
 20
102.3485795084
 11
101.1453278997
 21
104.7500480192
  0
LINE
  5
3AE
100
AcDbEntity
  8
0
100
AcDbLine
 62
7
  6
BYLAYER
 10
102.3794278997
 20
55.1499275055
 11
102.3794278997
 21
52.7183025361
  0
LINE
  5
3AF
100
AcDbEntity
  8
0
100
AcDbLine
 62
7
  6
BYLAYER
 10
102.3794278997
 20
102.3478597171
 11
102.3794278997
 21
104.7500398302
  0
LINE
  5
3B0
100
AcDbEntity
  8
0
100
AcDbLine
 62
7
  6
BYLAYER
 10
102.4794278997
 20
49.7499314872
 11
102.4794278997
 21
107.7500456752
  0
CIRCLE
  5
3B1
100
AcDbEntity
  8
0
100
AcDbCircle
 62
7
  6
BYLAYER
 10
52.1794278997
 20
61.3249314872
 40
3.125
  0
CIRCLE
  5
3B2
100
AcDbEntity
  8
0
100
AcDbCircle
 62
7
  6
BYLAYER
 10
17.5794278997
 20
62.1249314872
 40
3.125
  0
CIRCLE
  5
3B3
100
AcDbEntity
  8
0
100
AcDbCircle
 62
7
  6
BYLAYER
 10
26.2294278997
 20
62.1249314872
 40
3.125
  0
CIRCLE
  5
3B4
100
AcDbEntity
  8
0
100
AcDbCircle
 62
7
  6
BYLAYER
 10
34.8794278997
 20
62.1249314872
 40
3.125
  0
CIRCLE
  5
3B5
100
AcDbEntity
  8
0
100
AcDbCircle
 62
7
  6
BYLAYER
 10
43.5294278997
 20
62.1249314872
 40
3.125
  0
ARC
  5
3B6
100
AcDbEntity
  8
0
100
AcDbCircle
 62
7
  6
BYLAYER
 10
52.5794043581
 20
52.9605957943
 40
2.0602
100
AcDbArc
 50
186.5864357896
 51
353.4135642104
  0
ARC
  5
3B7
100
AcDbEntity
  8
0
100
AcDbCircle
 62
7
  6
BYLAYER
 10
52.5794043581
 20
53.7773607229
 40
2.0546
100
AcDbArc
 50
127.3938109621
 51
174.9525729333
  0
ARC
  5
3B8
100
AcDbEntity
  8
0
100
AcDbCircle
 62
7
  6
BYLAYER
 10
52.5794043581
 20
53.7773607229
 40
2.0546
100
AcDbArc
 50
5.0474276372
 51
52.5664322932
  0
ARC
  5
3B9
100
AcDbEntity
  8
0
100
AcDbCircle
 62
7
  6
BYLAYER
 10
17.5794278997
 20
53.4084556484
 40
2.05
100
AcDbArc
 50
107.701359636
 51
72.5759473644
  0
CIRCLE
  5
3BA
100
AcDbEntity
  8
0
100
AcDbCircle
 62
7
  6
BYLAYER
 10
26.4294278997
 20
53.4084556484
 40
1.8
  0
CIRCLE
  5
3BB
100
AcDbEntity
  8
0
100
AcDbCircle
 62
7
  6
BYLAYER
 10
35.0794278997
 20
53.4084556484
 40
1.8
  0
CIRCLE
  5
3BC
100
AcDbEntity
  8
0
100
AcDbCircle
 62
7
  6
BYLAYER
 10
43.7309278997
 20
53.4084556484
 40
1.8
  0
CIRCLE
  5
3BD
100
AcDbEntity
  8
0
100
AcDbCircle
 62
7
  6
BYLAYER
 10
52.1794278997
 20
96.1749314872
 40
3.125
  0
CIRCLE
  5
3BE
100
AcDbEntity
  8
0
100
AcDbCircle
 62
7
  6
BYLAYER
 10
43.5294278997
 20
95.3749314872
 40
3.125
  0
CIRCLE
  5
3BF
100
AcDbEntity
  8
0
100
AcDbCircle
 62
7
  6
BYLAYER
 10
34.8794278997
 20
95.3749314872
 40
3.125
  0
CIRCLE
  5
3C0
100
AcDbEntity
  8
0
100
AcDbCircle
 62
7
  6
BYLAYER
 10
26.2294278997
 20
95.3749314872
 40
3.125
  0
CIRCLE
  5
3C1
100
AcDbEntity
  8
0
100
AcDbCircle
 62
7
  6
BYLAYER
 10
17.5794278997
 20
95.3749314872
 40
3.125
  0
ARC
  5
3C2
100
AcDbEntity
  8
0
100
AcDbCircle
 62
7
  6
BYLAYER
 10
17.5794278997
 20
103.0571591481
 40
2.05
100
AcDbArc
 50
330.7627837331
 51
209.3455345611
  0
ARC
  5
3C3
100
AcDbEntity
  8
0
100
AcDbCircle
 62
7
  6
BYLAYER
 10
52.5794043581
 20
103.5460366112
 40
2.05
100
AcDbArc
 50
3.2908749763
 51
176.7904438043
  0
ARC
  5
3C4
100
AcDbEntity
  8
0
100
AcDbCircle
 62
7
  6
BYLAYER
 10
52.5794043581
 20
102.548189308
 40
2.05
100
AcDbArc
 50
179.9615535768
 51
185.8926844839
  0
ARC
  5
3C5
100
AcDbEntity
  8
0
100
AcDbCircle
 62
7
  6
BYLAYER
 10
52.5794043581
 20
102.548189308
 40
2.05
100
AcDbArc
 50
354.2864512957
 51
356.6882391778
  0
ARC
  5
3C6
100
AcDbEntity
  8
0
100
AcDbCircle
 62
7
  6
BYLAYER
 10
43.7309278997
 20
103.0571591481
 40
1.8
100
AcDbArc
 50
328.1645529153
 51
211.953388301
  0
ARC
  5
3C7
100
AcDbEntity
  8
0
100
AcDbCircle
 62
7
  6
BYLAYER
 10
26.4294278997
 20
103.0571591481
 40
1.8
100
AcDbArc
 50
328.1645529153
 51
211.953388301
  0
ARC
  5
3C8
100
AcDbEntity
  8
0
100
AcDbCircle
 62
7
  6
BYLAYER
 10
35.0794278997
 20
102.972921838
 40
1.5
100
AcDbArc
 50
334.477482779
 51
205.508475672
  0
CIRCLE
  5
3C9
100
AcDbEntity
  8
0
100
AcDbCircle
 62
7
  6
BYLAYER
 10
97.3794278997
 20
61.3249314872
 40
3.125
  0
CIRCLE
  5
3CA
100
AcDbEntity
  8
0
100
AcDbCircle
 62
7
  6
BYLAYER
 10
62.7794278997
 20
62.1249314872
 40
3.125
  0
CIRCLE
  5
3CB
100
AcDbEntity
  8
0
100
AcDbCircle
 62
7
  6
BYLAYER
 10
71.4294278997
 20
62.1249314872
 40
3.125
  0
CIRCLE
  5
3CC
100
AcDbEntity
  8
0
100
AcDbCircle
 62
7
  6
BYLAYER
 10
80.0794278997
 20
62.1249314872
 40
3.125
  0
CIRCLE
  5
3CD
100
AcDbEntity
  8
0
100
AcDbCircle
 62
7
  6
BYLAYER
 10
88.7294278997
 20
62.1249314872
 40
3.125
  0
ARC
  5
3CE
100
AcDbEntity
  8
0
100
AcDbCircle
 62
7
  6
BYLAYER
 10
97.5793808164
 20
53.7773607229
 40
2.0922
100
AcDbArc
 50
129.2135563858
 51
168.4865165538
  0
ARC
  5
3CF
100
AcDbEntity
  8
0
100
AcDbCircle
 62
7
  6
BYLAYER
 10
97.5793808164
 20
53.7773607229
 40
2.0922
100
AcDbArc
 50
11.5096943815
 51
50.7875546784
  0
ARC
  5
3D0
100
AcDbEntity
  8
0
100
AcDbCircle
 62
7
  6
BYLAYER
 10
97.5793808164
 20
52.9605957943
 40
2.05
100
AcDbArc
 50
179.976178046
 51
0.0230323337
  0
ARC
  5
3D1
100
AcDbEntity
  8
0
100
AcDbCircle
 62
7
  6
BYLAYER
 10
62.5759808164
 20
53.4084556484
 40
2.05
100
AcDbArc
 50
107.7038350417
 51
72.5734399133
  0
CIRCLE
  5
3D2
100
AcDbEntity
  8
0
100
AcDbCircle
 62
7
  6
BYLAYER
 10
71.4259808164
 20
53.4084556484
 40
1.8
  0
CIRCLE
  5
3D3
100
AcDbEntity
  8
0
100
AcDbCircle
 62
7
  6
BYLAYER
 10
80.0793808164
 20
53.4084556484
 40
1.8
  0
CIRCLE
  5
3D4
100
AcDbEntity
  8
0
100
AcDbCircle
 62
7
  6
BYLAYER
 10
88.7293808164
 20
53.4084556484
 40
1.8
  0
CIRCLE
  5
3D5
100
AcDbEntity
  8
0
100
AcDbCircle
 62
7
  6
BYLAYER
 10
97.3794278997
 20
96.1749314872
 40
3.125
  0
CIRCLE
  5
3D6
100
AcDbEntity
  8
0
100
AcDbCircle
 62
7
  6
BYLAYER
 10
88.7294278997
 20
95.3749314872
 40
3.125
  0
CIRCLE
  5
3D7
100
AcDbEntity
  8
0
100
AcDbCircle
 62
7
  6
BYLAYER
 10
80.0794278997
 20
95.3749314872
 40
3.125
  0
CIRCLE
  5
3D8
100
AcDbEntity
  8
0
100
AcDbCircle
 62
7
  6
BYLAYER
 10
71.4294278997
 20
95.3749314872
 40
3.125
  0
CIRCLE
  5
3D9
100
AcDbEntity
  8
0
100
AcDbCircle
 62
7
  6
BYLAYER
 10
62.7794278997
 20
95.3749314872
 40
3.125
  0
ARC
  5
3DA
100
AcDbEntity
  8
0
100
AcDbCircle
 62
7
  6
BYLAYER
 10
62.5759808164
 20
103.0571591481
 40
2.05
100
AcDbArc
 50
330.7627837331
 51
209.3455345613
  0
ARC
  5
3DB
100
AcDbEntity
  8
0
100
AcDbCircle
 62
7
  6
BYLAYER
 10
97.5793808164
 20
102.548189308
 40
2.05
100
AcDbArc
 50
180.0
 51
185.8444975872
  0
ARC
  5
3DC
100
AcDbEntity
  8
0
100
AcDbCircle
 62
7
  6
BYLAYER
 10
97.5793808164
 20
102.548189308
 40
2.05
100
AcDbArc
 50
354.155502412
 51
360.0
  0
ARC
  5
3DD
100
AcDbEntity
  8
0
100
AcDbCircle
 62
7
  6
BYLAYER
 10
97.5793808164
 20
103.5460366112
 40
2.05
100
AcDbArc
 50
359.9813955758
 51
180.0185231932
  0
ARC
  5
3DE
100
AcDbEntity
  8
0
100
AcDbCircle
 62
7
  6
BYLAYER
 10
88.7293808164
 20
103.0571591481
 40
1.8
100
AcDbArc
 50
328.1645529153
 51
211.9533883011
  0
ARC
  5
3DF
100
AcDbEntity
  8
0
100
AcDbCircle
 62
7
  6
BYLAYER
 10
71.4259808164
 20
103.0571591481
 40
1.8
100
AcDbArc
 50
328.1645529154
 51
211.9533883012
  0
ARC
  5
3E0
100
AcDbEntity
  8
0
100
AcDbCircle
 62
7
  6
BYLAYER
 10
80.0793808164
 20
102.972921838
 40
1.5
100
AcDbArc
 50
334.4774827766
 51
205.5084756745
  0
ENDSEC
  0
SECTION
  2
OBJECTS
  0
DICTIONARY
  5
C
100
AcDbDictionary
280
0
281
1
  3
ACAD_GROUP
350
D
  3
ACAD_MLINESTYLE
350
17
  3
ACAD_LAYOUT
350
1A
  3
ACAD_PLOTSETTINGS
350
19
  3
ACAD_PLOTSTYLENAME
350
E
  0
DICTIONARY
  5
D
102
{ACAD_REACTORS
330
C
102
}
100
AcDbDictionary
280
0
281
1
  0
ACDBDICTIONARYWDFLT
  5
E
102
{ACAD_REACTORS
330
C
102
}
100
AcDbDictionary
281
1
  3
Normal
350
F
100
AcDbDictionaryWithDefault
340
F
  0
DICTIONARY
  5
17
102
{ACAD_REACTORS
330
C
102
}
100
AcDbDictionary
280
0
281
1
  3
Standard
350
18
  0
DICTIONARY
  5
19
102
{ACAD_REACTORS
330
C
102
}
100
AcDbDictionary
281
1
  0
DICTIONARY
  5
1A
102
{ACAD_REACTORS
330
C
102
}
100
AcDbDictionary
281
1
  3
Model
350
3E1
  3
Layout1
350
3E2
  0
ACDBPLACEHOLDER
  5
F
102
{ACAD_REACTORS
330
E
102
}
  0
MLINESTYLE
  5
18
102
{ACAD_REACTORS
330
17
102
}
100
AcDbMlineStyle
  2
STANDARD
 70
0
  3

 62
256
 51
90.0
 52
90.0
 71
2
 49
0.5
 62
256
  6
BYLAYER
 49
-0.5
 62
256
  6
BYLAYER
  0
LAYOUT
  5
3E1
102
{ACAD_REACTORS
330
1A
102
}
100
AcDbPlotSettings
  1

  2
none_device
  4

  6

 40
0.0
 41
0.0
 42
0.0
 43
0.0
 44
210.0
 45
297.0
 46
0.0
 47
0.0
 48
0.0
 49
0.0
140
0.0
141
0.0
142
1.0
143
1.0
 70
1024
 72
1
 73
0
 74
0
  7

 75
0
147
1.0
148
0.0
149
0.0
100
AcDbLayout
  1
Model
 70
0
 71
0
 10
0.0
 20
0.0
 11
210.0
 21
297.0
 12
0.0
 22
0.0
 32
0.0
 14
0.0
 24
0.0
 34
0.0
 15
0.0
 25
0.0
 35
0.0
146
0.0
 13
0.0
 23
0.0
 33
0.0
 16
1.0
 26
0.0
 36
0.0
 17
0.0
 27
1.0
 37
0.0
 76
0
330
210
345
0
346
0
  0
LAYOUT
  5
3E2
102
{ACAD_REACTORS
330
1A
102
}
100
AcDbPlotSettings
  1

  2
none_device
  4

  6

 40
0.0
 41
0.0
 42
0.0
 43
0.0
 44
210.0
 45
297.0
 46
0.0
 47
0.0
 48
0.0
 49
0.0
140
0.0
141
0.0
142
1.0
143
1.0
 70
0
 72
1
 73
0
 74
0
  7

 75
0
147
1.0
148
0.0
149
0.0
100
AcDbLayout
  1
Layout1
 70
0
 71
1
 10
0.0
 20
0.0
 11
210.0
 21
297.0
 12
0.0
 22
0.0
 32
0.0
 14
0.0
 24
0.0
 34
0.0
 15
0.0
 25
0.0
 35
0.0
146
0.0
 13
0.0
 23
0.0
 33
0.0
 16
1.0
 26
0.0
 36
0.0
 17
0.0
 27
1.0
 37
0.0
 76
0
330
211
345
0
346
0
  0
ENDSEC
  0
EOF
