999
DXF file: C:\Users\sesa63760\Dev\_Creo\CAD\MCADID0004738_3D-CAD\drw0001_2.dxf
999
Pro/ENGINEER 2019471 by Parametric Technology Corporation
  0
SECTION
  2
HEADER
  9
$ACADVER
  1
AC1024
  9
$DWGCODEPAGE
  3
ANSI_1252
  9
$EXTMAX
 10
35.7646818183
 20
50.5814785716
 30
0.0
  9
$EXTMIN
 10
0.0
 20
0.0
 30
0.0
  9
$LIMMIN
 10
0.0
 20
0.0
  9
$LIMMAX
 10
35.7646818183
 20
50.5814785716
  9
$VIEWCTR
 10
17.8823409092
 20
25.2907392858
  9
$VIEWSIZE
 40
50.5814785716
  9
$CLAYER
  8
0
  9
$LTSCALE
 40
3.2971630476
  9
$CELTYPE
  6
BYLAYER
  9
$DIMSCALE
 40
1.0
  9
$DIMASZ
 40
0.4257700216
  9
$DIMEXO
 40
1.0
  9
$DIMDLI
 40
2.2780399238
  9
$DIMEXE
 40
1.0
  9
$DIMCEN
 40
0.5395357714
  9
$DIMLFAC
 40
1.0
  9
$DIMBLK
  1
_FILLED
  9
$DIMALT
 70
0
  9
$DIMALTF
 40
0.0393700787
  9
$DIMTXT
 40
0.5960780303
  9
$DIMTOL
 70
1
  9
$DIMLIM
 70
0
  9
$DIMTFAC
 40
1.0
  9
$DIMTP
 40
0.01
  9
$DIMTM
 40
0.01
  9
$DIMGAP
 40
0.625
  9
$DIMDSEP
 70
46
  9
$AUNITS
 70
0
  9
$PDMODE
 70
3
  9
$PDSIZE
 40
0.3125
  9
$HANDSEED
  5
34B
  9
$TILEMODE
 70
1
  9
$MEASUREMENT
 70
1
  9
$INSUNITS
 70
4
  0
ENDSEC
  0
SECTION
  2
CLASSES
  0
CLASS
  1
ACDBDICTIONARYWDFLT
  2
AcDbDictionaryWithDefault
  3
AutoCAD 2000
 90
0
 91
1
280
0
281
0
  0
CLASS
  1
ACDBPLACEHOLDER
  2
AcDbPlaceHolder
  3
AutoCAD 2000
 90
0
 91
1
280
0
281
0
  0
CLASS
  1
LAYOUT
  2
AcDbLayout
  3
AutoCAD 2000
 90
0
 91
0
280
0
281
0
  0
ENDSEC
  0
SECTION
  2
TABLES
  0
TABLE
  2
VPORT
  5
8
100
AcDbSymbolTable
 70
2
  0
VPORT
  5
1F4
100
AcDbSymbolTableRecord
100
AcDbViewportTableRecord
  2
*ACTIVE
 70
0
 10
0.0
 20
0.0
 11
1.0
 21
1.0
 12
17.8823409092
 22
25.2907392858
 13
0.0
 23
0.0
 14
1.0
 24
1.0
 15
0.0
 25
0.0
 16
0.0
 26
0.0
 36
1.0
 17
0.0
 27
0.0
 37
0.0
 40
50.5814785716
 41
0.7070707071
 42
50.0
 43
0.0
 44
0.0
 50
0.0
 51
0.0
 71
0
 72
100
 73
1
 74
1
 75
0
 76
0
 77
0
 78
0
  0
ENDTAB
  0
TABLE
  2
LTYPE
  5
5
100
AcDbSymbolTable
 70
6
  0
LTYPE
  5
14
100
AcDbSymbolTableRecord
100
AcDbLinetypeTableRecord
  2
BYBLOCK
 70
0
  3

 72
65
 73
0
 40
0.0
  0
LTYPE
  5
15
100
AcDbSymbolTableRecord
100
AcDbLinetypeTableRecord
  2
BYLAYER
 70
0
  3

 72
65
 73
0
 40
0.0
  0
LTYPE
  5
16
100
AcDbSymbolTableRecord
100
AcDbLinetypeTableRecord
  2
CONTINUOUS
 70
64
  3
Solid line
 72
65
 73
0
 40
0.0
  0
LTYPE
  5
1F5
100
AcDbSymbolTableRecord
100
AcDbLinetypeTableRecord
  2
CENTER
 70
64
  3
____ _ ____ _ ____ _ ____ _ ____ _ ____ _ ____
 72
65
 73
4
 40
0.6
 49
0.375
 74
0
 49
-0.075
 74
0
 49
0.075
 74
0
 49
-0.075
 74
0
  0
LTYPE
  5
1F6
100
AcDbSymbolTableRecord
100
AcDbLinetypeTableRecord
  2
HIDDEN
 70
64
  3
- - - - - - - - - - - - - - - - - - - -
 72
65
 73
2
 40
0.2
 49
0.1
 74
0
 49
-0.1
 74
0
  0
LTYPE
  5
1F7
100
AcDbSymbolTableRecord
100
AcDbLinetypeTableRecord
  2
PHANTOM
 70
64
  3
_____ _ _ _____ _ _ _____ _ _ _____
 72
65
 73
6
 40
0.8
 49
0.45
 74
0
 49
-0.05
 74
0
 49
0.1
 74
0
 49
-0.05
 74
0
 49
0.1
 74
0
 49
-0.05
 74
0
  0
LTYPE
  5
1F8
100
AcDbSymbolTableRecord
100
AcDbLinetypeTableRecord
  2
DOT
 70
64
  3
. . . . . . . . . . . . . . . . . . . .
 72
65
 73
2
 40
0.2
 49
0.1
 74
0
 49
-0.1
 74
0
  0
LTYPE
  5
1F9
100
AcDbSymbolTableRecord
100
AcDbLinetypeTableRecord
  2
DASHED
 70
64
  3
- - - - - - - - - - - - - - - - - - - -
 72
65
 73
2
 40
0.2
 49
0.1
 74
0
 49
-0.1
 74
0
  0
ENDTAB
  0
TABLE
  2
LAYER
  5
2
100
AcDbSymbolTable
 70
36
  0
LAYER
  5
10
100
AcDbSymbolTableRecord
100
AcDbLayerTableRecord
  2
0
 70
0
 62
7
  6
CONTINUOUS
370
-3
390
F
  0
LAYER
  5
1FA
100
AcDbSymbolTableRecord
100
AcDbLayerTableRecord
  2
DEFAULT_1
 70
0
 62
7
  6
CENTER
370
-3
390
F
  0
LAYER
  5
1FB
100
AcDbSymbolTableRecord
100
AcDbLayerTableRecord
  2
DEFAULT_2
 70
0
 62
7
  6
HIDDEN
370
-3
390
F
  0
LAYER
  5
1FC
100
AcDbSymbolTableRecord
100
AcDbLayerTableRecord
  2
DEFAULT_3
 70
0
 62
7
  6
PHANTOM
370
-3
390
F
  0
LAYER
  5
1FD
100
AcDbSymbolTableRecord
100
AcDbLayerTableRecord
  2
00_COMPONENTS
 70
0
 62
7
  6
CONTINUOUS
370
-3
390
F
  0
LAYER
  5
1FE
100
AcDbSymbolTableRecord
100
AcDbLayerTableRecord
  2
01_1_DEFAULT_DATUMS
 70
0
 62
7
  6
CONTINUOUS
370
-3
390
F
  0
LAYER
  5
1FF
100
AcDbSymbolTableRecord
100
AcDbLayerTableRecord
  2
01_PLANES
 70
0
 62
7
  6
CONTINUOUS
370
-3
390
F
  0
LAYER
  5
200
100
AcDbSymbolTableRecord
100
AcDbLayerTableRecord
  2
02_COORD_SYS
 70
0
 62
7
  6
CONTINUOUS
370
-3
390
F
  0
LAYER
  5
201
100
AcDbSymbolTableRecord
100
AcDbLayerTableRecord
  2
03_AXES
 70
0
 62
7
  6
CONTINUOUS
370
-3
390
F
  0
LAYER
  5
202
100
AcDbSymbolTableRecord
100
AcDbLayerTableRecord
  2
04_POINTS
 70
0
 62
7
  6
CONTINUOUS
370
-3
390
F
  0
LAYER
  5
203
100
AcDbSymbolTableRecord
100
AcDbLayerTableRecord
  2
05_CURVES
 70
0
 62
7
  6
CONTINUOUS
370
-3
390
F
  0
LAYER
  5
204
100
AcDbSymbolTableRecord
100
AcDbLayerTableRecord
  2
06_SURFS
 70
0
 62
7
  6
CONTINUOUS
370
-3
390
F
  0
LAYER
  5
205
100
AcDbSymbolTableRecord
100
AcDbLayerTableRecord
  2
07_COSMETICS
 70
0
 62
7
  6
CONTINUOUS
370
-3
390
F
  0
LAYER
  5
206
100
AcDbSymbolTableRecord
100
AcDbLayerTableRecord
  2
10_NOTES
 70
0
 62
7
  6
CONTINUOUS
370
-3
390
F
  0
LAYER
  5
207
100
AcDbSymbolTableRecord
100
AcDbLayerTableRecord
  2
11_NOTES_PUB
 70
0
 62
7
  6
CONTINUOUS
370
-3
390
F
  0
LAYER
  5
208
100
AcDbSymbolTableRecord
100
AcDbLayerTableRecord
  2
13_REF_GTOL
 70
0
 62
7
  6
CONTINUOUS
370
-3
390
F
  0
LAYER
  5
209
100
AcDbSymbolTableRecord
100
AcDbLayerTableRecord
  2
16_MISC
 70
0
 62
7
  6
CONTINUOUS
370
-3
390
F
  0
LAYER
  5
20A
100
AcDbSymbolTableRecord
100
AcDbLayerTableRecord
  2
17_NO_PRINT
 70
0
 62
7
  6
CONTINUOUS
370
-3
390
F
  0
LAYER
  5
20B
100
AcDbSymbolTableRecord
100
AcDbLayerTableRecord
  2
18_DATUM_CAMS_JOINTS
 70
0
 62
7
  6
CONTINUOUS
370
-3
390
F
  0
LAYER
  5
20C
100
AcDbSymbolTableRecord
100
AcDbLayerTableRecord
  2
19_DATUM_FUNCTIONAL
 70
0
 62
7
  6
CONTINUOUS
370
-3
390
F
  0
LAYER
  5
20D
100
AcDbSymbolTableRecord
100
AcDbLayerTableRecord
  2
20_DATUM_KINEMATIC_SCHEME
 70
0
 62
7
  6
CONTINUOUS
370
-3
390
F
  0
ENDTAB
  0
TABLE
  2
STYLE
  5
3
100
AcDbSymbolTable
 70
1
  0
STYLE
  5
11
100
AcDbSymbolTableRecord
100
AcDbTextStyleTableRecord
  2
STANDARD
 70
0
 40
0.0
 41
1.0
 50
0.0
 71
0
 42
0.2
  3
ARIAL.TTF
  4

  0
STYLE
  5
20E
100
AcDbSymbolTableRecord
100
AcDbTextStyleTableRecord
  2
TEXTSTYLE_1
 70
0
 40
0.0
 41
0.8
 50
0.0
 71
0
 42
0.2
  3
gdt
  4

  0
ENDTAB
  0
TABLE
  2
VIEW
  5
6
100
AcDbSymbolTable
 70
0
  0
ENDTAB
  0
TABLE
  2
UCS
  5
7
100
AcDbSymbolTable
 70
0
  0
ENDTAB
  0
TABLE
  2
APPID
  5
9
100
AcDbSymbolTable
 70
1
  0
APPID
  5
20F
100
AcDbSymbolTableRecord
100
AcDbRegAppTableRecord
  2
ACAD
 70
0
  0
ENDTAB
  0
TABLE
  2
BLOCK_RECORD
  5
1
100
AcDbSymbolTable
 70
0
  0
BLOCK_RECORD
  5
210
100
AcDbSymbolTableRecord
100
AcDbBlockTableRecord
  2
*Model_Space
  0
BLOCK_RECORD
  5
211
100
AcDbSymbolTableRecord
100
AcDbBlockTableRecord
  2
*Paper_Space
  0
BLOCK_RECORD
  5
212
100
AcDbSymbolTableRecord
100
AcDbBlockTableRecord
  2
_FILLED
  0
ENDTAB
  0
TABLE
  2
DIMSTYLE
  5
A
100
AcDbSymbolTable
 70
1
100
AcDbDimStyleTable
 71
0
  0
DIMSTYLE
105
213
100
AcDbSymbolTableRecord
100
AcDbDimStyleTableRecord
  2
STANDARD
 70
0
  3

  4

 40
1.0
 41
0.4257700216
 42
1.0
 43
0.38
 44
1.0
 45
0.0
 46
0.0
 47
0.01
 48
0.01
140
0.5960780303
141
0.09
142
0.0
143
25.4
144
1.0
145
0.0
146
1.0
147
0.625
 71
1
 72
0
 73
0
 74
0
 75
0
 76
0
 77
1
 78
8
 79
2
170
0
171
1
172
0
173
0
174
0
175
0
176
0
177
0
178
0
270
2
179
2
271
2
272
2
273
2
274
2
275
0
280
0
281
0
282
0
283
1
284
8
285
0
286
0
287
3
288
0
340
11
278
46
341
212
342
212
343
212
344
212
  0
ENDTAB
  0
ENDSEC
  0
SECTION
  2
BLOCKS
  0
BLOCK
  5
20
100
AcDbEntity
  8
0
100
AcDbBlockBegin
  2
*Model_Space
 70
0
 10
0.0
 20
0.0
 30
0.0
  3
*Model_Space
  1

  0
ENDBLK
  5
21
100
AcDbEntity
  8
0
100
AcDbBlockEnd
  0
BLOCK
  5
1C
100
AcDbEntity
  8
0
100
AcDbBlockBegin
  2
*Paper_Space
 70
0
 10
0.0
 20
0.0
 30
0.0
  3
*Paper_Space
  1

  0
ENDBLK
  5
1D
100
AcDbEntity
  8
0
100
AcDbBlockEnd
  0
BLOCK
  5
214
100
AcDbEntity
  8
0
100
AcDbBlockBegin
  2
_FILLED
 70
64
 10
0.0
 20
0.0
  3
_FILLED
  1

  0
SOLID
  5
215
100
AcDbEntity
  8
0
  6
BYBLOCK
 62
0
100
AcDbTrace
 10
0.0
 20
0.0
 11
-1.0
 21
0.25
 12
-1.0
 22
-0.25
 13
-1.0
 23
-0.25
  0
ENDBLK
  5
216
100
AcDbEntity
  8
0
  6
BYBLOCK
 62
0
100
AcDbBlockEnd
  0
ENDSEC
  0
SECTION
  2
ENTITIES
  0
LINE
  5
217
100
AcDbEntity
  8
0
100
AcDbLine
 62
7
  6
BYLAYER
 10
5.7086141606
 20
10.8478724341
 11
5.5086141606
 21
13.1338828946
  0
LINE
  5
218
100
AcDbEntity
  8
0
100
AcDbLine
 62
7
  6
BYLAYER
 10
3.9213602274
 20
38.0440308683
 11
3.9213575335
 21
21.0478724341
  0
LINE
  5
219
100
AcDbEntity
  8
0
100
AcDbLine
 62
7
  6
BYLAYER
 10
4.495445764
 20
21.0478724341
 11
4.495445764
 21
19.5478724341
  0
LINE
  5
21A
100
AcDbEntity
  8
0
100
AcDbLine
 62
7
  6
BYLAYER
 10
4.5554878124
 20
19.5478724341
 11
4.5554878124
 21
21.0478724341
  0
LINE
  5
21B
100
AcDbEntity
  8
0
100
AcDbLine
 62
7
  6
BYLAYER
 10
5.8645702224
 20
31.3073554035
 11
5.8858206497
 21
31.3726954633
  0
LINE
  5
21C
100
AcDbEntity
  8
0
100
AcDbLine
 62
7
  6
BYLAYER
 10
5.8853405885
 20
31.3716392306
 11
5.925190886
 21
31.4363189786
  0
LINE
  5
21D
100
AcDbEntity
  8
0
100
AcDbLine
 62
7
  6
BYLAYER
 10
5.8586141606
 20
34.1728724341
 11
7.547363698
 21
35.1478724341
  0
LINE
  5
21E
100
AcDbEntity
  8
0
100
AcDbLine
 62
7
  6
BYLAYER
 10
7.6586141606
 20
35.0728724341
 11
6.0586141606
 21
34.1491120034
  0
LINE
  5
21F
100
AcDbEntity
  8
0
100
AcDbLine
 62
7
  6
BYLAYER
 10
18.0086141606
 20
10.8478724341
 11
5.7086141606
 21
10.8478724341
  0
LINE
  5
220
100
AcDbEntity
  8
0
100
AcDbLine
 62
7
  6
BYLAYER
 10
6.4336141606
 20
11.7478724341
 11
17.2836141606
 21
11.7478724341
  0
LINE
  5
221
100
AcDbEntity
  8
0
100
AcDbLine
 62
7
  6
BYLAYER
 10
5.1616039693
 20
19.2478724341
 11
5.1598339174
 21
21.0478724341
  0
LINE
  5
222
100
AcDbEntity
  8
0
100
AcDbLine
 62
7
  6
BYLAYER
 10
4.9371914736
 20
21.0478724341
 11
4.9371914736
 21
19.5478724341
  0
LINE
  5
223
100
AcDbEntity
  8
0
100
AcDbLine
 62
7
  6
BYLAYER
 10
5.0690690821
 20
19.2478724341
 11
5.0690690821
 21
21.0478724341
  0
LINE
  5
224
100
AcDbEntity
  8
0
100
AcDbLine
 62
7
  6
BYLAYER
 10
5.1132258525
 20
21.0478724341
 11
5.1132258525
 21
19.5478724341
  0
LINE
  5
225
100
AcDbEntity
  8
0
100
AcDbLine
 62
7
  6
BYLAYER
 10
5.1586141606
 20
18.9378724341
 11
5.1586141606
 21
21.0478724341
  0
LINE
  5
226
100
AcDbEntity
  8
0
100
AcDbLine
 62
7
  6
BYLAYER
 10
5.1615223489
 20
21.0478724341
 11
5.1615223489
 21
19.2478724341
  0
LINE
  5
227
100
AcDbEntity
  8
0
100
AcDbLine
 62
7
  6
BYLAYER
 10
5.2041477966
 20
21.0478724341
 11
5.2041477966
 21
19.2478724341
  0
LINE
  5
228
100
AcDbEntity
  8
0
100
AcDbLine
 62
7
  6
BYLAYER
 10
5.3386329417
 20
19.2478724341
 11
5.3386329417
 21
21.0478724341
  0
LINE
  5
229
100
AcDbEntity
  8
0
100
AcDbLine
 62
7
  6
BYLAYER
 10
5.3966866446
 20
21.0478724341
 11
5.3966866446
 21
19.2478724341
  0
LINE
  5
22A
100
AcDbEntity
  8
0
100
AcDbLine
 62
7
  6
BYLAYER
 10
5.4408074956
 20
21.0478724341
 11
5.4408074956
 21
19.2478724341
  0
LINE
  5
22B
100
AcDbEntity
  8
0
100
AcDbLine
 62
7
  6
BYLAYER
 10
5.4492311772
 20
21.0478724341
 11
5.4492311772
 21
19.2478724341
  0
LINE
  5
22C
100
AcDbEntity
  8
0
100
AcDbLine
 62
7
  6
BYLAYER
 10
5.5086141606
 20
17.5978724341
 11
5.5086141606
 21
16.4478724341
  0
LINE
  5
22D
100
AcDbEntity
  8
0
100
AcDbLine
 62
7
  6
BYLAYER
 10
5.5086141606
 20
15.2478724341
 11
5.5086141606
 21
14.5978724341
  0
LINE
  5
22E
100
AcDbEntity
  8
0
100
AcDbLine
 62
7
  6
BYLAYER
 10
5.5086141606
 20
13.9478724341
 11
5.5086141606
 21
13.1338828946
  0
LINE
  5
22F
100
AcDbEntity
  8
0
100
AcDbLine
 62
7
  6
BYLAYER
 10
5.7927173966
 20
21.0478724341
 11
5.7927173966
 21
19.2478724341
  0
LINE
  5
230
100
AcDbEntity
  8
0
100
AcDbLine
 62
7
  6
BYLAYER
 10
5.8586141606
 20
27.163643388
 11
5.8586141606
 21
34.1728724341
  0
LINE
  5
231
100
AcDbEntity
  8
0
100
AcDbLine
 62
7
  6
BYLAYER
 10
5.9600694798
 20
21.0478724341
 11
5.9600694798
 21
19.2478724341
  0
LINE
  5
232
100
AcDbEntity
  8
0
100
AcDbLine
 62
7
  6
BYLAYER
 10
6.0586141606
 20
26.9466328648
 11
6.0586141606
 21
34.1491120034
  0
LINE
  5
233
100
AcDbEntity
  8
0
100
AcDbLine
 62
7
  6
BYLAYER
 10
6.1586140732
 20
31.8359458286
 11
6.1586140732
 21
31.5478724341
  0
LINE
  5
234
100
AcDbEntity
  8
0
100
AcDbLine
 62
7
  6
BYLAYER
 10
5.858613169
 20
31.2482149363
 11
5.8645702224
 21
31.3073554035
  0
LINE
  5
235
100
AcDbEntity
  8
0
100
AcDbLine
 62
7
  6
BYLAYER
 10
17.2836141606
 20
12.6478724341
 11
6.4336141606
 21
12.6478724341
  0
LINE
  5
236
100
AcDbEntity
  8
0
100
AcDbLine
 62
7
  6
BYLAYER
 10
18.2086141606
 20
13.1338828946
 11
5.5086141606
 21
13.1338828946
  0
LINE
  5
237
100
AcDbEntity
  8
0
100
AcDbLine
 62
7
  6
BYLAYER
 10
14.6086141606
 20
13.1478724341
 11
13.9586141606
 21
13.1478724341
  0
LINE
  5
238
100
AcDbEntity
  8
0
100
AcDbLine
 62
7
  6
BYLAYER
 10
9.7586141606
 20
13.1478724341
 11
9.1086141606
 21
13.1478724341
  0
LINE
  5
239
100
AcDbEntity
  8
0
100
AcDbLine
 62
7
  6
BYLAYER
 10
6.2586141606
 20
16.4478724341
 11
6.2586141606
 21
15.2478724341
  0
LINE
  5
23A
100
AcDbEntity
  8
0
100
AcDbLine
 62
7
  6
BYLAYER
 10
6.3586141606
 20
18.9378724341
 11
6.3586141606
 21
17.5978724341
  0
LINE
  5
23B
100
AcDbEntity
  8
0
100
AcDbLine
 62
7
  6
BYLAYER
 10
6.4336141606
 20
12.6478724341
 11
6.4336141606
 21
11.7478724341
  0
LINE
  5
23C
100
AcDbEntity
  8
0
100
AcDbLine
 62
7
  6
BYLAYER
 10
7.0586141606
 20
14.5978724341
 11
7.0586141606
 21
31.5478724341
  0
LINE
  5
23D
100
AcDbEntity
  8
0
100
AcDbLine
 62
7
  6
BYLAYER
 10
7.1889449126
 20
31.5478724341
 11
7.1889449126
 21
27.6537731119
  0
LWPOLYLINE
  5
23E
100
AcDbEntity
  8
0
100
AcDbPolyline
 62
7
  6
BYLAYER
 90
5
 70
0
 10
5.9867597076
 20
31.4937663867
 10
6.0283582835
 20
31.5181195104
 10
6.0700586318
 20
31.5345010194
 10
6.1127256306
 20
31.5443185845
 10
6.1592160919
 20
31.5478717979
  0
LWPOLYLINE
  5
23F
100
AcDbEntity
  8
0
100
AcDbPolyline
 62
7
  6
BYLAYER
 90
4
 70
0
 10
5.9932308213
 20
31.4981649757
 10
6.0328602901
 20
31.5202435472
 10
6.0732332288
 20
31.5354618158
 10
6.1146041228
 20
31.5446031426
  0
LINE
  5
240
100
AcDbEntity
  8
0
100
AcDbLine
 62
7
  6
BYLAYER
 10
5.5086141606
 20
13.9478724341
 11
5.8712621839
 21
13.9478724341
  0
LINE
  5
241
100
AcDbEntity
  8
0
100
AcDbLine
 62
7
  6
BYLAYER
 10
5.8712621839
 20
13.9478724341
 11
17.8459661374
 21
13.9478724341
  0
LINE
  5
242
100
AcDbEntity
  8
0
100
AcDbLine
 62
7
  6
BYLAYER
 10
17.8459661374
 20
13.9478724341
 11
18.2086141606
 21
13.9478724341
  0
LINE
  5
243
100
AcDbEntity
  8
0
100
AcDbLine
 62
7
  6
BYLAYER
 10
15.7086141606
 20
14.2478724341
 11
14.7086141606
 21
14.2478724341
  0
LINE
  5
244
100
AcDbEntity
  8
0
100
AcDbLine
 62
7
  6
BYLAYER
 10
14.7086141606
 20
14.2478724341
 11
11.8586141606
 21
14.2478724341
  0
LINE
  5
245
100
AcDbEntity
  8
0
100
AcDbLine
 62
7
  6
BYLAYER
 10
11.8586141606
 20
14.2478724341
 11
8.0086141606
 21
14.2478724341
  0
LINE
  5
246
100
AcDbEntity
  8
0
100
AcDbLine
 62
7
  6
BYLAYER
 10
15.7086141606
 20
14.2978724341
 11
8.0086141606
 21
14.2978724341
  0
LINE
  5
247
100
AcDbEntity
  8
0
100
AcDbLine
 62
7
  6
BYLAYER
 10
5.8712621839
 20
14.5478724341
 11
17.8459661374
 21
14.5478724341
  0
LINE
  5
248
100
AcDbEntity
  8
0
100
AcDbLine
 62
7
  6
BYLAYER
 10
5.5086141606
 20
14.5978724341
 11
18.2086141606
 21
14.5978724341
  0
LINE
  5
249
100
AcDbEntity
  8
0
100
AcDbLine
 62
7
  6
BYLAYER
 10
7.547363698
 20
26.4604670466
 11
7.547363698
 21
35.1478724341
  0
LINE
  5
24A
100
AcDbEntity
  8
0
100
AcDbLine
 62
7
  6
BYLAYER
 10
7.6586141606
 20
26.0228724341
 11
7.6586141606
 21
35.0728724341
  0
LINE
  5
24B
100
AcDbEntity
  8
0
100
AcDbLine
 62
7
  6
BYLAYER
 10
8.0086141606
 20
14.2978724341
 11
8.0086141606
 21
14.2478724341
  0
LINE
  5
24C
100
AcDbEntity
  8
0
100
AcDbLine
 62
7
  6
BYLAYER
 10
8.1586141606
 20
33.4728724341
 11
8.1586141665
 21
31.5478724341
  0
LINE
  5
24D
100
AcDbEntity
  8
0
100
AcDbLine
 62
7
  6
BYLAYER
 10
8.6586141606
 20
31.7478724341
 11
8.6586141606
 21
32.9728724341
  0
LINE
  5
24E
100
AcDbEntity
  8
0
100
AcDbLine
 62
7
  6
BYLAYER
 10
5.5086141606
 20
15.2478724341
 11
18.2086141606
 21
15.2478724341
  0
LINE
  5
24F
100
AcDbEntity
  8
0
100
AcDbLine
 62
7
  6
BYLAYER
 10
9.0086141606
 20
14.2978724341
 11
9.0086141606
 21
14.2478724341
  0
LINE
  5
250
100
AcDbEntity
  8
0
100
AcDbLine
 62
7
  6
BYLAYER
 10
9.1086141606
 20
10.8478724341
 11
9.1086141606
 21
14.2478724341
  0
LINE
  5
251
100
AcDbEntity
  8
0
100
AcDbLine
 62
7
  6
BYLAYER
 10
9.7586141606
 20
10.8478724341
 11
9.7586141606
 21
14.2478724341
  0
LINE
  5
252
100
AcDbEntity
  8
0
100
AcDbLine
 62
7
  6
BYLAYER
 10
5.5086141606
 20
16.4478724341
 11
18.2086141606
 21
16.4478724341
  0
LINE
  5
253
100
AcDbEntity
  8
0
100
AcDbLine
 62
7
  6
BYLAYER
 10
6.8502808273
 20
13.9478724341
 11
6.4336141606
 21
12.6478724341
  0
LINE
  5
254
100
AcDbEntity
  8
0
100
AcDbLine
 62
7
  6
BYLAYER
 10
5.5086141606
 20
17.5978724341
 11
18.2086141606
 21
17.5978724341
  0
LINE
  5
255
100
AcDbEntity
  8
0
100
AcDbLine
 62
7
  6
BYLAYER
 10
11.8586141606
 20
38.8942617053
 11
11.8586141606
 21
26.9423211586
  0
LINE
  5
256
100
AcDbEntity
  8
0
100
AcDbLine
 62
7
  6
BYLAYER
 10
6.4336141606
 20
11.7478724341
 11
6.0586141606
 21
10.8478724341
  0
LINE
  5
257
100
AcDbEntity
  8
0
100
AcDbLine
 62
7
  6
BYLAYER
 10
18.5586141606
 20
18.9378724341
 11
5.1586141606
 21
18.9378724341
  0
LINE
  5
258
100
AcDbEntity
  8
0
100
AcDbLine
 62
7
  6
BYLAYER
 10
18.9368219364
 20
19.2478724341
 11
17.7571588415
 21
19.2478724341
  0
LINE
  5
259
100
AcDbEntity
  8
0
100
AcDbLine
 62
7
  6
BYLAYER
 10
5.9600694798
 20
19.2478724341
 11
4.7804063849
 21
19.2478724341
  0
LINE
  5
25A
100
AcDbEntity
  8
0
100
AcDbLine
 62
7
  6
BYLAYER
 10
19.2229431276
 20
19.5478724341
 11
19.1598379611
 21
19.5478724341
  0
LINE
  5
25B
100
AcDbEntity
  8
0
100
AcDbLine
 62
7
  6
BYLAYER
 10
18.7800368477
 20
19.5478724341
 11
18.6040024688
 21
19.5478724341
  0
LINE
  5
25C
100
AcDbEntity
  8
0
100
AcDbLine
 62
7
  6
BYLAYER
 10
5.1132258525
 20
19.5478724341
 11
4.9371914736
 21
19.5478724341
  0
LINE
  5
25D
100
AcDbEntity
  8
0
100
AcDbLine
 62
7
  6
BYLAYER
 10
4.4942851937
 20
19.5478724341
 11
4.5573903602
 21
19.5478724341
  0
LINE
  5
25E
100
AcDbEntity
  8
0
100
AcDbLine
 62
7
  6
BYLAYER
 10
17.2836141606
 20
11.7478724341
 11
17.6586141606
 21
10.8478724341
  0
LINE
  5
25F
100
AcDbEntity
  8
0
100
AcDbLine
 62
7
  6
BYLAYER
 10
13.9586141606
 20
10.8478724341
 11
13.9586141606
 21
14.2478724341
  0
LINE
  5
260
100
AcDbEntity
  8
0
100
AcDbLine
 62
7
  6
BYLAYER
 10
3.9213602274
 20
21.0478724341
 11
19.8586141606
 21
21.0478724341
  0
LINE
  5
261
100
AcDbEntity
  8
0
100
AcDbLine
 62
7
  6
BYLAYER
 10
7.3347307763
 20
26.3680122359
 11
5.8586141606
 21
27.163643388
  0
LINE
  5
262
100
AcDbEntity
  8
0
100
AcDbLine
 62
7
  6
BYLAYER
 10
6.0586141606
 20
26.9466328648
 11
7.6586141606
 21
26.0228724341
  0
LINE
  5
263
100
AcDbEntity
  8
0
100
AcDbLine
 62
7
  6
BYLAYER
 10
16.866947494
 20
13.9478724341
 11
17.2836141606
 21
12.6478724341
  0
LINE
  5
264
100
AcDbEntity
  8
0
100
AcDbLine
 62
7
  6
BYLAYER
 10
14.6086141606
 20
10.8478724341
 11
14.6086141606
 21
14.2478724341
  0
LINE
  5
265
100
AcDbEntity
  8
0
100
AcDbLine
 62
7
  6
BYLAYER
 10
14.7086141606
 20
14.2978724341
 11
14.7086141606
 21
14.2478724341
  0
LINE
  5
266
100
AcDbEntity
  8
0
100
AcDbLine
 62
7
  6
BYLAYER
 10
29.8586141606
 20
21.5478724341
 11
19.8586141606
 21
21.5478724341
  0
LINE
  5
267
100
AcDbEntity
  8
0
100
AcDbLine
 62
7
  6
BYLAYER
 10
15.7086141606
 20
14.2978724341
 11
15.7086141606
 21
14.2478724341
  0
LINE
  5
268
100
AcDbEntity
  8
0
100
AcDbLine
 62
7
  6
BYLAYER
 10
16.6586141606
 20
14.5978724341
 11
16.6586141606
 21
27.4478724341
  0
LINE
  5
269
100
AcDbEntity
  8
0
100
AcDbLine
 62
7
  6
BYLAYER
 10
16.8586141606
 20
26.2078866557
 11
16.8586141606
 21
35.196626473
  0
LINE
  5
26A
100
AcDbEntity
  8
0
100
AcDbLine
 62
7
  6
BYLAYER
 10
22.0125369776
 20
23.5478724341
 11
18.0586141606
 21
23.5478724341
  0
LINE
  5
26B
100
AcDbEntity
  8
0
100
AcDbLine
 62
7
  6
BYLAYER
 10
22.0125369776
 20
23.6059701347
 11
18.0586141606
 21
23.6059701347
  0
LINE
  5
26C
100
AcDbEntity
  8
0
100
AcDbLine
 62
7
  6
BYLAYER
 10
21.7586141606
 20
23.7478724341
 11
19.7586141606
 21
23.7478724341
  0
LINE
  5
26D
100
AcDbEntity
  8
0
100
AcDbLine
 62
7
  6
BYLAYER
 10
22.0125369776
 20
23.1228616866
 11
25.6586141606
 21
23.1128724341
  0
LINE
  5
26E
100
AcDbEntity
  8
0
100
AcDbLine
 62
7
  6
BYLAYER
 10
22.0086141764
 20
23.2092219862
 11
18.0586141606
 21
23.2231625201
  0
LINE
  5
26F
100
AcDbEntity
  8
0
100
AcDbLine
 62
7
  6
BYLAYER
 10
25.6586141606
 20
23.1128724341
 11
29.4648038956
 21
23.0539671167
  0
LINE
  5
270
100
AcDbEntity
  8
0
100
AcDbLine
 62
7
  6
BYLAYER
 10
17.2836141606
 20
12.6478724341
 11
17.2836141606
 21
11.7478724341
  0
LINE
  5
271
100
AcDbEntity
  8
0
100
AcDbLine
 62
7
  6
BYLAYER
 10
17.3586141606
 20
18.9378724341
 11
17.3586141606
 21
17.5978724341
  0
LINE
  5
272
100
AcDbEntity
  8
0
100
AcDbLine
 62
7
  6
BYLAYER
 10
17.4586141606
 20
16.4478724341
 11
17.4586141606
 21
15.2478724341
  0
LINE
  5
273
100
AcDbEntity
  8
0
100
AcDbLine
 62
7
  6
BYLAYER
 10
17.5586141606
 20
25.8991183951
 11
17.5586141606
 21
27.6537731119
  0
LINE
  5
274
100
AcDbEntity
  8
0
100
AcDbLine
 62
7
  6
BYLAYER
 10
17.7571588415
 20
21.0478724341
 11
17.7571588415
 21
19.2478724341
  0
LINE
  5
275
100
AcDbEntity
  8
0
100
AcDbLine
 62
7
  6
BYLAYER
 10
17.9245109246
 20
21.0478724341
 11
17.9245109246
 21
19.2478724341
  0
LINE
  5
276
100
AcDbEntity
  8
0
100
AcDbLine
 62
7
  6
BYLAYER
 10
18.0586141606
 20
23.2231625201
 11
18.0586141606
 21
37.5478379468
  0
LINE
  5
277
100
AcDbEntity
  8
0
100
AcDbLine
 62
7
  6
BYLAYER
 10
18.1586141606
 20
31.9461743336
 11
18.1586141606
 21
26.0228724341
  0
LINE
  5
278
100
AcDbEntity
  8
0
100
AcDbLine
 62
7
  6
BYLAYER
 10
18.2086141606
 20
17.5978724341
 11
18.2086141606
 21
16.4478724341
  0
LINE
  5
279
100
AcDbEntity
  8
0
100
AcDbLine
 62
7
  6
BYLAYER
 10
18.2086141606
 20
15.2478724341
 11
18.2086141606
 21
14.5978724341
  0
LINE
  5
27A
100
AcDbEntity
  8
0
100
AcDbLine
 62
7
  6
BYLAYER
 10
18.2086141606
 20
13.9478724341
 11
18.2086141606
 21
13.1338828946
  0
LINE
  5
27B
100
AcDbEntity
  8
0
100
AcDbLine
 62
7
  6
BYLAYER
 10
18.2679971441
 20
21.0478724341
 11
18.2679971441
 21
19.2478724341
  0
LINE
  5
27C
100
AcDbEntity
  8
0
100
AcDbLine
 62
7
  6
BYLAYER
 10
18.2764208257
 20
21.0478724341
 11
18.2764208257
 21
19.2478724341
  0
LINE
  5
27D
100
AcDbEntity
  8
0
100
AcDbLine
 62
7
  6
BYLAYER
 10
30.3586141606
 20
25.0778724341
 11
21.7586141606
 21
25.0778724341
  0
LINE
  5
27E
100
AcDbEntity
  8
0
100
AcDbLine
 62
7
  6
BYLAYER
 10
18.3205416767
 20
21.0478724341
 11
18.3205416767
 21
19.2478724341
  0
LINE
  5
27F
100
AcDbEntity
  8
0
100
AcDbLine
 62
7
  6
BYLAYER
 10
18.3785953796
 20
19.2478724341
 11
18.3785953796
 21
21.0478724341
  0
LINE
  5
280
100
AcDbEntity
  8
0
100
AcDbLine
 62
7
  6
BYLAYER
 10
18.5130805247
 20
21.0478724341
 11
18.5130805247
 21
19.2478724341
  0
LINE
  5
281
100
AcDbEntity
  8
0
100
AcDbLine
 62
7
  6
BYLAYER
 10
18.5556191608
 20
21.0478724341
 11
18.5556191608
 21
19.2478724341
  0
LINE
  5
282
100
AcDbEntity
  8
0
100
AcDbLine
 62
7
  6
BYLAYER
 10
18.5586141606
 20
18.9378724341
 11
18.5586141606
 21
21.0478724341
  0
LINE
  5
283
100
AcDbEntity
  8
0
100
AcDbLine
 62
7
  6
BYLAYER
 10
18.6040024688
 20
21.0478724341
 11
18.6040024688
 21
19.5478724341
  0
LINE
  5
284
100
AcDbEntity
  8
0
100
AcDbLine
 62
7
  6
BYLAYER
 10
18.6481592391
 20
19.2478724341
 11
18.6481592391
 21
21.0478724341
  0
LINE
  5
285
100
AcDbEntity
  8
0
100
AcDbLine
 62
7
  6
BYLAYER
 10
18.7800368477
 20
21.0478724341
 11
18.7800368477
 21
19.5478724341
  0
LINE
  5
286
100
AcDbEntity
  8
0
100
AcDbLine
 62
7
  6
BYLAYER
 10
19.0586141606
 20
29.2400301037
 11
19.0586141606
 21
27.646204249
  0
LINE
  5
287
100
AcDbEntity
  8
0
100
AcDbLine
 62
7
  6
BYLAYER
 10
19.1617405089
 20
19.5478724341
 11
19.1617405089
 21
21.0478724341
  0
LINE
  5
288
100
AcDbEntity
  8
0
100
AcDbLine
 62
7
  6
BYLAYER
 10
19.2217825573
 20
21.0478724341
 11
19.2217825573
 21
19.5478724341
  0
LINE
  5
289
100
AcDbEntity
  8
0
100
AcDbLine
 62
7
  6
BYLAYER
 10
19.5586141606
 20
28.9467482667
 11
19.5586141606
 21
27.1520479605
  0
LINE
  5
28A
100
AcDbEntity
  8
0
100
AcDbLine
 62
7
  6
BYLAYER
 10
18.5573956635
 20
21.0478724341
 11
18.5563028889
 21
19.8494063002
  0
LINE
  5
28B
100
AcDbEntity
  8
0
100
AcDbLine
 62
7
  6
BYLAYER
 10
18.0086141606
 20
10.8478724341
 11
18.2086141606
 21
13.1338828946
  0
LINE
  5
28C
100
AcDbEntity
  8
0
100
AcDbLine
 62
7
  6
BYLAYER
 10
30.3586141606
 20
25.5652617405
 11
31.9586141606
 21
25.5652617405
  0
LINE
  5
28D
100
AcDbEntity
  8
0
100
AcDbLine
 62
7
  6
BYLAYER
 10
31.9586141606
 20
25.627205161
 11
30.3586141606
 21
25.627205161
  0
LINE
  5
28E
100
AcDbEntity
  8
0
100
AcDbLine
 62
7
  6
BYLAYER
 10
30.3586141606
 20
25.8428750045
 11
31.9586141606
 21
25.8428750045
  0
LINE
  5
28F
100
AcDbEntity
  8
0
100
AcDbLine
 62
7
  6
BYLAYER
 10
18.0586141606
 20
25.8991183951
 11
17.5586141606
 21
25.8991183951
  0
LINE
  5
290
100
AcDbEntity
  8
0
100
AcDbLine
 62
7
  6
BYLAYER
 10
29.8586141606
 20
25.9121636513
 11
13.9775143789
 21
25.9121636513
  0
LINE
  5
291
100
AcDbEntity
  8
0
100
AcDbLine
 62
7
  6
BYLAYER
 10
7.6586141606
 20
26.0228724341
 11
18.1586141606
 21
26.0228724341
  0
LINE
  5
292
100
AcDbEntity
  8
0
100
AcDbLine
 62
7
  6
BYLAYER
 10
31.9586141606
 20
26.0244839244
 11
30.3586141606
 21
26.0244839244
  0
LINE
  5
293
100
AcDbEntity
  8
0
100
AcDbLine
 62
7
  6
BYLAYER
 10
17.5586141606
 20
26.2078866557
 11
16.8586141606
 21
26.2078866557
  0
LINE
  5
294
100
AcDbEntity
  8
0
100
AcDbLine
 62
7
  6
BYLAYER
 10
30.3586141606
 20
26.441126068
 11
31.9586141606
 21
26.441126068
  0
LINE
  5
295
100
AcDbEntity
  8
0
100
AcDbLine
 62
7
  6
BYLAYER
 10
16.8586141606
 20
26.2078866557
 11
16.3605414365
 21
26.2103213649
  0
LINE
  5
296
100
AcDbEntity
  8
0
100
AcDbLine
 62
7
  6
BYLAYER
 10
19.7586141606
 20
23.7478799478
 11
19.7586141606
 21
37.3478649203
  0
LINE
  5
297
100
AcDbEntity
  8
0
100
AcDbLine
 62
7
  6
BYLAYER
 10
19.8586141606
 20
21.5478724341
 11
19.8586141606
 21
21.0478724341
  0
LINE
  5
298
100
AcDbEntity
  8
0
100
AcDbLine
 62
7
  6
BYLAYER
 10
31.9586141606
 20
26.7300241396
 11
30.3586141606
 21
26.7300241396
  0
LINE
  5
299
100
AcDbEntity
  8
0
100
AcDbLine
 62
7
  6
BYLAYER
 10
29.8586141606
 20
26.9423211586
 11
11.8586141606
 21
26.9423211586
  0
LINE
  5
29A
100
AcDbEntity
  8
0
100
AcDbLine
 62
7
  6
BYLAYER
 10
19.5586141606
 20
27.1520479605
 11
18.0586141606
 21
27.1520479605
  0
LINE
  5
29B
100
AcDbEntity
  8
0
100
AcDbLine
 62
7
  6
BYLAYER
 10
19.5514784626
 20
27.2924212946
 11
18.0586141606
 21
27.2924212946
  0
LINE
  5
29C
100
AcDbEntity
  8
0
100
AcDbLine
 62
7
  6
BYLAYER
 10
30.3586141606
 20
27.3192451096
 11
31.9586141606
 21
27.3192451096
  0
LINE
  5
29D
100
AcDbEntity
  8
0
100
AcDbLine
 62
7
  6
BYLAYER
 10
17.5586141606
 20
27.4478724341
 11
16.6586141606
 21
27.4478724341
  0
LINE
  5
29E
100
AcDbEntity
  8
0
100
AcDbLine
 62
7
  6
BYLAYER
 10
19.0586141606
 20
27.646204249
 11
18.0586141606
 21
27.646204249
  0
LINE
  5
29F
100
AcDbEntity
  8
0
100
AcDbLine
 62
7
  6
BYLAYER
 10
17.5586141606
 20
27.6537731119
 11
16.5282706861
 21
27.6537731119
  0
LINE
  5
2A0
100
AcDbEntity
  8
0
100
AcDbLine
 62
7
  6
BYLAYER
 10
7.1889449126
 20
27.6537731119
 11
5.8586141606
 21
27.6537731119
  0
LINE
  5
2A1
100
AcDbEntity
  8
0
100
AcDbLine
 62
7
  6
BYLAYER
 10
31.9586141606
 20
27.6957444067
 11
30.3586141606
 21
27.6957444067
  0
LINE
  5
2A2
100
AcDbEntity
  8
0
100
AcDbLine
 62
7
  6
BYLAYER
 10
19.5586141606
 20
27.7380198638
 11
18.0586141606
 21
27.7380198638
  0
LINE
  5
2A3
100
AcDbEntity
  8
0
100
AcDbLine
 62
7
  6
BYLAYER
 10
21.7586141606
 20
37.3478649203
 11
21.7586141606
 21
23.7478799478
  0
LINE
  5
2A4
100
AcDbEntity
  8
0
100
AcDbLine
 62
7
  6
BYLAYER
 10
22.0086141764
 20
26.1245889372
 11
22.0086141764
 21
23.2092219862
  0
LINE
  5
2A5
100
AcDbEntity
  8
0
100
AcDbLine
 62
7
  6
BYLAYER
 10
22.0125369776
 20
37.9728831815
 11
22.0125369776
 21
26.1245459352
  0
LINE
  5
2A6
100
AcDbEntity
  8
0
100
AcDbLine
 62
7
  6
BYLAYER
 10
22.0125369776
 20
23.6059701347
 11
22.0125369776
 21
23.1228616866
  0
LINE
  5
2A7
100
AcDbEntity
  8
0
100
AcDbLine
 62
7
  6
BYLAYER
 10
18.1586141606
 20
28.0978724341
 11
19.7586141606
 21
28.0978724341
  0
LINE
  5
2A8
100
AcDbEntity
  8
0
100
AcDbLine
 62
7
  6
BYLAYER
 10
30.3586141606
 20
28.2481068954
 11
32.1586141606
 21
28.2481068954
  0
LINE
  5
2A9
100
AcDbEntity
  8
0
100
AcDbLine
 62
7
  6
BYLAYER
 10
30.3586141606
 20
28.4173897679
 11
31.9586141606
 21
28.4173897679
  0
LINE
  5
2AA
100
AcDbEntity
  8
0
100
AcDbLine
 62
7
  6
BYLAYER
 10
22.0125369776
 20
28.4912557241
 11
18.0586141606
 21
28.4912557241
  0
LINE
  5
2AB
100
AcDbEntity
  8
0
100
AcDbLine
 62
7
  6
BYLAYER
 10
31.9586141606
 20
28.8558324854
 11
30.3586141606
 21
28.8558324854
  0
LINE
  5
2AC
100
AcDbEntity
  8
0
100
AcDbLine
 62
7
  6
BYLAYER
 10
19.5586023744
 20
28.9586818925
 11
18.0586141606
 21
28.9586818925
  0
LINE
  5
2AD
100
AcDbEntity
  8
0
100
AcDbLine
 62
7
  6
BYLAYER
 10
19.517413498
 20
29.155280036
 11
18.0586141606
 21
29.155280036
  0
LINE
  5
2AE
100
AcDbEntity
  8
0
100
AcDbLine
 62
7
  6
BYLAYER
 10
30.3586141606
 20
29.2360657763
 11
32.1586141606
 21
29.2360657763
  0
LINE
  5
2AF
100
AcDbEntity
  8
0
100
AcDbLine
 62
7
  6
BYLAYER
 10
19.0586141606
 20
29.2400301037
 11
18.0586141606
 21
29.2400301037
  0
LINE
  5
2B0
100
AcDbEntity
  8
0
100
AcDbLine
 62
7
  6
BYLAYER
 10
30.3586141606
 20
29.660723299
 11
31.9586141606
 21
29.660723299
  0
LINE
  5
2B1
100
AcDbEntity
  8
0
100
AcDbLine
 62
7
  6
BYLAYER
 10
31.9586141606
 20
30.1312302905
 11
30.3586141606
 21
30.1312302905
  0
LINE
  5
2B2
100
AcDbEntity
  8
0
100
AcDbLine
 62
7
  6
BYLAYER
 10
30.3586141606
 20
30.3134221131
 11
32.1586141606
 21
30.3134221131
  0
LINE
  5
2B3
100
AcDbEntity
  8
0
100
AcDbLine
 62
7
  6
BYLAYER
 10
32.1586141606
 20
30.782322755
 11
30.3586141606
 21
30.782322755
  0
LINE
  5
2B4
100
AcDbEntity
  8
0
100
AcDbLine
 62
7
  6
BYLAYER
 10
30.3586141606
 20
30.9645145776
 11
31.9586141606
 21
30.9645145776
  0
LINE
  5
2B5
100
AcDbEntity
  8
0
100
AcDbLine
 62
7
  6
BYLAYER
 10
19.7586141606
 20
31.3049640703
 11
18.1586141606
 21
31.3049640703
  0
LINE
  5
2B6
100
AcDbEntity
  8
0
100
AcDbLine
 62
7
  6
BYLAYER
 10
31.9586141606
 20
31.4350215691
 11
30.3586141606
 21
31.4350215691
  0
LINE
  5
2B7
100
AcDbEntity
  8
0
100
AcDbLine
 62
7
  6
BYLAYER
 10
13.4691351367
 20
31.5478724341
 11
10.1996865891
 21
31.5478724341
  0
LINE
  5
2B8
100
AcDbEntity
  8
0
100
AcDbLine
 62
7
  6
BYLAYER
 10
8.4586141606
 20
31.5478724341
 11
6.1586142282
 21
31.5478724341
  0
LINE
  5
2B9
100
AcDbEntity
  8
0
100
AcDbLine
 62
7
  6
BYLAYER
 10
8.1586141606
 20
31.8359458286
 11
6.1586141606
 21
31.8359458286
  0
LINE
  5
2BA
100
AcDbEntity
  8
0
100
AcDbLine
 62
7
  6
BYLAYER
 10
32.1586141606
 20
31.8596790918
 11
30.3586141606
 21
31.8596790918
  0
LINE
  5
2BB
100
AcDbEntity
  8
0
100
AcDbLine
 62
7
  6
BYLAYER
 10
18.1586141606
 20
31.9461743336
 11
19.7586141606
 21
31.9461743336
  0
LINE
  5
2BC
100
AcDbEntity
  8
0
100
AcDbLine
 62
7
  6
BYLAYER
 10
8.1584454882
 20
31.5478724358
 11
8.2070961093
 21
31.5475435378
  0
LINE
  5
2BD
100
AcDbEntity
  8
0
100
AcDbLine
 62
7
  6
BYLAYER
 10
25.6586141606
 20
37.9828724341
 11
25.6586141606
 21
23.1128724341
  0
LINE
  5
2BE
100
AcDbEntity
  8
0
100
AcDbLine
 62
7
  6
BYLAYER
 10
30.3586141606
 20
32.2399123827
 11
31.9586141606
 21
32.2399123827
  0
LINE
  5
2BF
100
AcDbEntity
  8
0
100
AcDbLine
 62
7
  6
BYLAYER
 10
31.9586141606
 20
32.6783551003
 11
30.3586141606
 21
32.6783551003
  0
LINE
  5
2C0
100
AcDbEntity
  8
0
100
AcDbLine
 62
7
  6
BYLAYER
 10
30.3586141606
 20
32.8476379727
 11
32.3386141606
 21
32.8478724341
  0
LINE
  5
2C1
100
AcDbEntity
  8
0
100
AcDbLine
 62
7
  6
BYLAYER
 10
32.3386141606
 20
33.0491754556
 11
32.1586141606
 21
33.0491754556
  0
LINE
  5
2C2
100
AcDbEntity
  8
0
100
AcDbLine
 62
7
  6
BYLAYER
 10
30.3586141606
 20
33.4000004615
 11
31.9586141606
 21
33.4000004615
  0
LINE
  5
2C3
100
AcDbEntity
  8
0
100
AcDbLine
 62
7
  6
BYLAYER
 10
8.1586141606
 20
33.4728724341
 11
5.8586141606
 21
33.4728724341
  0
LINE
  5
2C4
100
AcDbEntity
  8
0
100
AcDbLine
 62
7
  6
BYLAYER
 10
31.9586141606
 20
33.7764997585
 11
30.3586141606
 21
33.7764997585
  0
LINE
  5
2C5
100
AcDbEntity
  8
0
100
AcDbLine
 62
7
  6
BYLAYER
 10
32.1586141606
 20
34.1491754556
 11
32.3386141606
 21
34.1491754556
  0
LINE
  5
2C6
100
AcDbEntity
  8
0
100
AcDbLine
 62
7
  6
BYLAYER
 10
32.3386141606
 20
34.2478724341
 11
32.1586141606
 21
34.2478724341
  0
LINE
  5
2C7
100
AcDbEntity
  8
0
100
AcDbLine
 62
7
  6
BYLAYER
 10
30.3586141606
 20
34.3657207286
 11
31.9586141606
 21
34.3657207286
  0
LINE
  5
2C8
100
AcDbEntity
  8
0
100
AcDbLine
 62
7
  6
BYLAYER
 10
31.9586141606
 20
34.6546188001
 11
30.3586141606
 21
34.6546188001
  0
LINE
  5
2C9
100
AcDbEntity
  8
0
100
AcDbLine
 62
7
  6
BYLAYER
 10
7.547363698
 20
35.1478724341
 11
16.8586141606
 21
35.196626473
  0
LINE
  5
2CA
100
AcDbEntity
  8
0
100
AcDbLine
 62
7
  6
BYLAYER
 10
30.3586141606
 20
35.0712609437
 11
31.9586141606
 21
35.0712609437
  0
LINE
  5
2CB
100
AcDbEntity
  8
0
100
AcDbLine
 62
7
  6
BYLAYER
 10
19.7586141606
 20
35.0728724341
 11
7.6586141606
 21
35.0728724341
  0
LINE
  5
2CC
100
AcDbEntity
  8
0
100
AcDbLine
 62
7
  6
BYLAYER
 10
18.0586141606
 20
35.196626473
 11
16.8586141606
 21
35.196626473
  0
LINE
  5
2CD
100
AcDbEntity
  8
0
100
AcDbLine
 62
7
  6
BYLAYER
 10
31.9586141606
 20
35.2528698636
 11
30.3586141606
 21
35.2528698636
  0
LINE
  5
2CE
100
AcDbEntity
  8
0
100
AcDbLine
 62
7
  6
BYLAYER
 10
30.3586141606
 20
35.4685397071
 11
31.9586141606
 21
35.4685397071
  0
LINE
  5
2CF
100
AcDbEntity
  8
0
100
AcDbLine
 62
7
  6
BYLAYER
 10
31.9586141606
 20
35.5304831277
 11
30.3586141606
 21
35.5304831277
  0
LINE
  5
2D0
100
AcDbEntity
  8
0
100
AcDbLine
 62
7
  6
BYLAYER
 10
30.3586141606
 20
36.0178724341
 11
21.7586141606
 21
36.0178724341
  0
LINE
  5
2D1
100
AcDbEntity
  8
0
100
AcDbLine
 62
7
  6
BYLAYER
 10
29.4648038956
 20
38.0417777514
 11
29.4648038956
 21
23.0543099962
  0
LINE
  5
2D2
100
AcDbEntity
  8
0
100
AcDbLine
 62
7
  6
BYLAYER
 10
29.8586141606
 20
21.5478724341
 11
29.8586141606
 21
39.5478724341
  0
LINE
  5
2D3
100
AcDbEntity
  8
0
100
AcDbLine
 62
7
  6
BYLAYER
 10
30.3586141606
 20
36.0177802129
 11
30.3586141606
 21
25.0779646552
  0
LINE
  5
2D4
100
AcDbEntity
  8
0
100
AcDbLine
 62
7
  6
BYLAYER
 10
29.8586141606
 20
36.9354986693
 11
11.8586141606
 21
36.9354986693
  0
LINE
  5
2D5
100
AcDbEntity
  8
0
100
AcDbLine
 62
7
  6
BYLAYER
 10
21.7586141606
 20
37.3478724341
 11
19.7586141606
 21
37.3478724341
  0
LINE
  5
2D6
100
AcDbEntity
  8
0
100
AcDbLine
 62
7
  6
BYLAYER
 10
25.6586141606
 20
37.9828724341
 11
29.4648038956
 21
38.0417777514
  0
LINE
  5
2D7
100
AcDbEntity
  8
0
100
AcDbLine
 62
7
  6
BYLAYER
 10
22.0125369776
 20
37.9728831815
 11
25.6586141606
 21
37.9828724341
  0
LINE
  5
2D8
100
AcDbEntity
  8
0
100
AcDbLine
 62
7
  6
BYLAYER
 10
22.0125369776
 20
37.5478379468
 11
18.0586141606
 21
37.5478379468
  0
LINE
  5
2D9
100
AcDbEntity
  8
0
100
AcDbLine
 62
7
  6
BYLAYER
 10
31.9586141606
 20
35.5304831277
 11
31.9586141606
 21
35.4685397071
  0
LINE
  5
2DA
100
AcDbEntity
  8
0
100
AcDbLine
 62
7
  6
BYLAYER
 10
31.9586141606
 20
35.2528698636
 11
31.9586141606
 21
35.0712609437
  0
LINE
  5
2DB
100
AcDbEntity
  8
0
100
AcDbLine
 62
7
  6
BYLAYER
 10
31.9586141606
 20
34.6546188001
 11
31.9586141606
 21
34.3657207286
  0
LINE
  5
2DC
100
AcDbEntity
  8
0
100
AcDbLine
 62
7
  6
BYLAYER
 10
31.9586141606
 20
33.7764997585
 11
31.9586141606
 21
33.4000004615
  0
LINE
  5
2DD
100
AcDbEntity
  8
0
100
AcDbLine
 62
7
  6
BYLAYER
 10
31.9586141606
 20
32.6783551003
 11
31.9586141606
 21
32.2399123827
  0
LINE
  5
2DE
100
AcDbEntity
  8
0
100
AcDbLine
 62
7
  6
BYLAYER
 10
31.9586141606
 20
31.4350215691
 11
31.9586141606
 21
30.9645145776
  0
LINE
  5
2DF
100
AcDbEntity
  8
0
100
AcDbLine
 62
7
  6
BYLAYER
 10
31.9586141606
 20
30.1312302905
 11
31.9586141606
 21
29.660723299
  0
LINE
  5
2E0
100
AcDbEntity
  8
0
100
AcDbLine
 62
7
  6
BYLAYER
 10
31.9586141606
 20
28.8558324854
 11
31.9586141606
 21
28.4173897679
  0
LINE
  5
2E1
100
AcDbEntity
  8
0
100
AcDbLine
 62
7
  6
BYLAYER
 10
31.9586141606
 20
27.6957444067
 11
31.9586141606
 21
27.3192451096
  0
LINE
  5
2E2
100
AcDbEntity
  8
0
100
AcDbLine
 62
7
  6
BYLAYER
 10
31.9586141606
 20
26.7300241396
 11
31.9586141606
 21
26.441126068
  0
LINE
  5
2E3
100
AcDbEntity
  8
0
100
AcDbLine
 62
7
  6
BYLAYER
 10
31.9586141606
 20
26.0244839244
 11
31.9586141606
 21
25.8428750045
  0
LINE
  5
2E4
100
AcDbEntity
  8
0
100
AcDbLine
 62
7
  6
BYLAYER
 10
31.9586141606
 20
25.627205161
 11
31.9586141606
 21
25.5652617405
  0
LINE
  5
2E5
100
AcDbEntity
  8
0
100
AcDbLine
 62
7
  6
BYLAYER
 10
32.1586141606
 20
35.333500548
 11
32.1586141606
 21
25.8292460388
  0
LINE
  5
2E6
100
AcDbEntity
  8
0
100
AcDbLine
 62
7
  6
BYLAYER
 10
32.3386141606
 20
34.2478724341
 11
32.3386141606
 21
32.8478724341
  0
LINE
  5
2E7
100
AcDbEntity
  8
0
100
AcDbLine
 62
7
  6
BYLAYER
 10
29.8586141606
 20
38.8942613787
 11
11.8586141606
 21
38.8942613787
  0
LINE
  5
2E8
100
AcDbEntity
  8
0
100
AcDbLine
 62
7
  6
BYLAYER
 10
29.8586141606
 20
39.5478724341
 11
5.8586141784
 21
39.5478724341
  0
LWPOLYLINE
  5
2E9
100
AcDbEntity
  8
0
100
AcDbPolyline
 62
7
  6
BYLAYER
 90
5
 70
0
 10
5.8586141792
 20
39.5478724155
 10
5.2177794121
 20
39.4424981616
 10
4.6355332899
 20
39.1295995587
 10
4.1850065336
 20
38.6428781572
 10
3.9213602274
 20
38.0440308753
  0
ARC
  5
2EA
100
AcDbEntity
  8
0
100
AcDbCircle
 62
7
  6
BYLAYER
 10
-599.6501814192
 20
20.7572495295
 40
618.3002434534
100
AcDbArc
 50
359.8601310215
 51
0.0269310995
  0
ARC
  5
2EB
100
AcDbEntity
  8
0
100
AcDbCircle
 62
7
  6
BYLAYER
 10
394.364959634
 20
20.2993365431
 40
389.297371835
100
AcDbArc
 50
179.9623944608
 51
180.1547519518
  0
ARC
  5
2EC
100
AcDbEntity
  8
0
100
AcDbCircle
 62
7
  6
BYLAYER
 10
9.2950533743
 20
22.149386879
 40
4.6518691655
100
AcDbArc
 50
112.0682998556
 51
114.9234888837
  0
ARC
  5
2ED
100
AcDbEntity
  8
0
100
AcDbCircle
 62
7
  6
BYLAYER
 10
9.2780259242
 20
22.1885694985
 40
4.6091541269
100
AcDbArc
 50
112.0550623654
 51
114.9367917424
  0
ARC
  5
2EE
100
AcDbEntity
  8
0
100
AcDbCircle
 62
7
  6
BYLAYER
 10
29.4586141606
 20
22.6540150106
 40
0.4
100
AcDbArc
 50
0.0
 51
89.1133503861
  0
ARC
  5
2EF
100
AcDbEntity
  8
0
100
AcDbCircle
 62
7
  6
BYLAYER
 10
5.8586141606
 20
14.2478724341
 40
0.3
100
AcDbArc
 50
90.0
 51
270.0
  0
ARC
  5
2F0
100
AcDbEntity
  8
0
100
AcDbCircle
 62
7
  6
BYLAYER
 10
17.8586141606
 20
14.2478724341
 40
0.3
100
AcDbArc
 50
270.0
 51
90.0
  0
ARC
  5
2F1
100
AcDbEntity
  8
0
100
AcDbCircle
 62
7
  6
BYLAYER
 10
7.7086141606
 20
14.2478724341
 40
0.3
100
AcDbArc
 50
270.0
 51
360.0
  0
ARC
  5
2F2
100
AcDbEntity
  8
0
100
AcDbCircle
 62
7
  6
BYLAYER
 10
16.0086141606
 20
14.2478724341
 40
0.3
100
AcDbArc
 50
180.0
 51
270.0
  0
ARC
  5
2F3
100
AcDbEntity
  8
0
100
AcDbCircle
 62
7
  6
BYLAYER
 10
16.0086141606
 20
14.2978724341
 40
0.3
100
AcDbArc
 50
90.0
 51
180.0
  0
ARC
  5
2F4
100
AcDbEntity
  8
0
100
AcDbCircle
 62
7
  6
BYLAYER
 10
7.7086141606
 20
14.2978724341
 40
0.3
100
AcDbArc
 50
0.0
 51
90.0
  0
ARC
  5
2F5
100
AcDbEntity
  8
0
100
AcDbCircle
 62
7
  6
BYLAYER
 10
36.4630677705
 20
30.3213148935
 40
29.3954139377
100
AcDbArc
 50
185.2065763126
 51
187.7289575257
  0
ARC
  5
2F6
100
AcDbEntity
  8
0
100
AcDbCircle
 62
7
  6
BYLAYER
 10
-12.6110889707
 20
30.3073178191
 40
29.2599516637
100
AcDbArc
 50
351.9509513482
 51
354.796774373
  0
ARC
  5
2F7
100
AcDbEntity
  8
0
100
AcDbCircle
 62
7
  6
BYLAYER
 10
36.2040823303
 20
30.2919640981
 40
29.1348060449
100
AcDbArc
 50
185.1953126226
 51
187.7402575122
  0
ARC
  5
2F8
100
AcDbEntity
  8
0
100
AcDbCircle
 62
7
  6
BYLAYER
 10
-12.3142364545
 20
30.2728476726
 40
28.9611562762
100
AcDbArc
 50
351.9362422881
 51
354.8114280223
  0
ARC
  5
2F9
100
AcDbEntity
  8
0
100
AcDbCircle
 62
7
  6
BYLAYER
 10
13.8252168251
 20
28.9453636463
 40
5.7333899264
100
AcDbArc
 50
0.0138369922
 51
0.1330940191
  0
ARC
  5
2FA
100
AcDbEntity
  8
0
100
AcDbCircle
 62
7
  6
BYLAYER
 10
8.1586141606
 20
32.9728724341
 40
0.5
100
AcDbArc
 50
0.0
 51
90.0
  0
ARC
  5
2FB
100
AcDbEntity
  8
0
100
AcDbCircle
 62
7
  6
BYLAYER
 10
29.4586141606
 20
38.4417298575
 40
0.4
100
AcDbArc
 50
270.8866496139
 51
360.0
  0
ARC
  5
2FC
100
AcDbEntity
  8
0
100
AcDbCircle
 62
7
  6
BYLAYER
 10
6.1586141606
 20
31.2478724341
 40
0.3
100
AcDbArc
 50
90.0
 51
180.0
  0
ARC
  5
2FD
100
AcDbEntity
  8
0
100
AcDbCircle
 62
7
  6
BYLAYER
 10
8.4586141606
 20
31.7478724341
 40
0.2
100
AcDbArc
 50
270.0
 51
360.0
  0
SPLINE
  5
2FE
100
AcDbEntity
  8
0
100
AcDbSpline
 62
7
  6
BYLAYER
 70
0
 71
3
 72
11
 73
7
 74
0
 42
0.0000001
 43
0.0000001
 44
0.0000000001
 40
0.0
 40
0.0
 40
0.0
 40
0.0
 40
0.2470981804
 40
0.4958135018
 40
0.7469790612
 40
1.0
 40
1.0
 40
1.0
 40
1.0
 10
32.1586141606
 20
35.333500548
 30
0.0
 10
32.1586141606
 20
35.3590177282
 30
0.0
 10
32.1482530187
 20
35.410789664
 30
0.0
 10
32.1038435523
 20
35.4762451833
 30
0.0
 10
32.0373765682
 20
35.5202057367
 30
0.0
 10
31.9847429686
 20
35.5304831277
 30
0.0
 10
31.9586141606
 20
35.5304831277
 30
0.0
  0
SPLINE
  5
2FF
100
AcDbEntity
  8
0
100
AcDbSpline
 62
7
  6
BYLAYER
 70
0
 71
3
 72
14
 73
10
 74
0
 42
0.0000001
 43
0.0000001
 44
0.0000000001
 40
0.0
 40
0.0
 40
0.0
 40
0.0
 40
0.1173635679
 40
0.236135377
 40
0.3569452758
 40
0.4806011574
 40
0.6072788556
 40
0.7367185527
 40
1.0
 40
1.0
 40
1.0
 40
1.0
 10
32.1586141606
 20
35.0743696194
 30
0.0
 10
32.1586141606
 20
35.0859781916
 30
0.0
 10
32.1560149104
 20
35.109410004
 30
0.0
 10
32.1446049967
 20
35.1430946986
 30
0.0
 10
32.1260154589
 20
35.1741515526
 30
0.0
 10
32.1010048882
 20
35.2013483517
 30
0.0
 10
32.0705206756
 20
35.2237103765
 30
0.0
 10
32.0239812696
 20
35.2459599992
 30
0.0
 10
31.9846556465
 20
35.2528698636
 30
0.0
 10
31.9586141606
 20
35.2528698636
 30
0.0
  0
SPLINE
  5
300
100
AcDbEntity
  8
0
100
AcDbSpline
 62
7
  6
BYLAYER
 70
0
 71
3
 72
13
 73
9
 74
0
 42
0.0000001
 43
0.0000001
 44
0.0000000001
 40
0.0
 40
0.0
 40
0.0
 40
0.0
 40
0.1056323181
 40
0.2147060388
 40
0.3294571906
 40
0.451474793
 40
0.7160805538
 40
1.0
 40
1.0
 40
1.0
 40
1.0
 10
32.1586141606
 20
34.506765388
 30
0.0
 10
32.1586141606
 20
34.516407116
 30
0.0
 10
32.1559499703
 20
34.5360925902
 30
0.0
 10
32.1443510714
 20
34.5641562673
 30
0.0
 10
32.1255906353
 20
34.5898840567
 30
0.0
 10
32.0912578201
 20
34.620567373
 30
0.0
 10
32.0348897425
 20
34.6475005314
 30
0.0
 10
31.9845292795
 20
34.6546188001
 30
0.0
 10
31.9586141606
 20
34.6546188001
 30
0.0
  0
SPLINE
  5
301
100
AcDbEntity
  8
0
100
AcDbSpline
 62
7
  6
BYLAYER
 70
0
 71
3
 72
15
 73
11
 74
0
 42
0.0000001
 43
0.0000001
 44
0.0000000001
 40
0.0
 40
0.0
 40
0.0
 40
0.0
 40
0.0857311844
 40
0.1790552703
 40
0.2847598795
 40
0.4049987965
 40
0.5393072875
 40
0.6855844892
 40
0.8406927056
 40
1.0
 40
1.0
 40
1.0
 40
1.0
 10
32.1586141606
 20
33.6693691441
 30
0.0
 10
32.1586141606
 20
33.6764097926
 30
0.0
 10
32.1557616552
 20
33.691216325
 30
0.0
 10
32.1437695491
 20
33.7116896427
 30
0.0
 10
32.1248376731
 20
33.7301754715
 30
0.0
 10
32.0997878381
 20
33.7462077847
 30
0.0
 10
32.0694858718
 20
33.7593580991
 30
0.0
 10
32.0349682392
 20
33.7691299751
 30
0.0
 10
31.9975391882
 20
33.7751368736
 30
0.0
 10
31.9716972258
 20
33.7764997585
 30
0.0
 10
31.9586141606
 20
33.7764997585
 30
0.0
  0
SPLINE
  5
302
100
AcDbEntity
  8
0
100
AcDbSpline
 62
7
  6
BYLAYER
 70
0
 71
3
 72
17
 73
13
 74
0
 42
0.0000001
 43
0.0000001
 44
0.0000000001
 40
0.0
 40
0.0
 40
0.0
 40
0.0
 40
0.0266552761
 40
0.0558462671
 40
0.0893629358
 40
0.1283240448
 40
0.2243011141
 40
0.3447584742
 40
0.4872011296
 40
0.6475480766
 40
0.820705986
 40
1.0
 40
1.0
 40
1.0
 40
1.0
 10
32.1586141606
 20
32.619248058
 30
0.0
 10
32.1586141606
 20
32.6211911832
 30
0.0
 10
32.1578949825
 20
32.6252851859
 30
0.0
 10
32.1548503677
 20
32.6311281398
 30
0.0
 10
32.1499660539
 20
32.63676982
 30
0.0
 10
32.1403912548
 20
32.6445303792
 30
0.0
 10
32.1237623398
 20
32.6532261212
 30
0.0
 10
32.0990216822
 20
32.6618547548
 30
0.0
 10
32.0689566484
 20
32.6689947479
 30
0.0
 10
32.0346448527
 20
32.6743248949
 30
0.0
 10
31.9973837116
 20
32.6776098863
 30
0.0
 10
31.9716843953
 20
32.6783551003
 30
0.0
 10
31.9586141606
 20
32.6783551003
 30
0.0
  0
SPLINE
  5
303
100
AcDbEntity
  8
0
100
AcDbSpline
 62
7
  6
BYLAYER
 70
0
 71
3
 72
21
 73
17
 74
0
 42
0.0000001
 43
0.0000001
 44
0.0000000001
 40
0.0
 40
0.0
 40
0.0
 40
0.0
 40
0.0020879924
 40
0.0060502771
 40
0.0206663076
 40
0.0444263452
 40
0.0772662993
 40
0.1189073322
 40
0.1689684596
 40
0.2270542071
 40
0.2926323705
 40
0.3650475812
 40
0.4436379662
 40
0.6164008371
 40
0.8045209022
 40
1.0
 40
1.0
 40
1.0
 40
1.0
 10
32.1586141606
 20
31.4279661462
 30
0.0
 10
32.1586141606
 20
31.4281056956
 30
0.0
 10
32.1582712673
 20
31.4284340013
 30
0.0
 10
32.157015752
 20
31.4289000331
 30
0.0
 10
32.1541946501
 20
31.4294924908
 30
0.0
 10
32.1494999955
 20
31.4301038492
 30
0.0
 10
32.1429519155
 20
31.4307331565
 30
0.0
 10
32.1346542111
 20
31.4313379273
 30
0.0
 10
32.1246583817
 20
31.4319199957
 30
0.0
 10
32.1130608162
 20
31.432466651
 30
0.0
 10
32.0999655348
 20
31.4329734364
 30
0.0
 10
32.085497638
 20
31.4334348763
 30
0.0
 10
32.0638660765
 20
31.4339996317
 30
0.0
 10
32.0344987887
 20
31.434542256
 30
0.0
 10
31.9973165096
 20
31.4349330056
 30
0.0
 10
31.9716788565
 20
31.4350215691
 30
0.0
 10
31.9586141606
 20
31.4350215691
 30
0.0
  0
SPLINE
  5
304
100
AcDbEntity
  8
0
100
AcDbSpline
 62
7
  6
BYLAYER
 70
0
 71
3
 72
21
 73
17
 74
0
 42
0.0000001
 43
0.0000001
 44
0.0000000001
 40
0.0
 40
0.0
 40
0.0
 40
0.0
 40
0.1954776216
 40
0.3835943738
 40
0.55635631
 40
0.6349467958
 40
0.7073626751
 40
0.772941499
 40
0.8310275009
 40
0.8810895128
 40
0.9227316353
 40
0.955572192
 40
0.9793328296
 40
0.9939494791
 40
0.9979119582
 40
1.0
 40
1.0
 40
1.0
 40
1.0
 10
31.9586141606
 20
29.660723299
 30
0.0
 10
31.9716787572
 20
29.660723299
 30
0.0
 10
31.9973160888
 20
29.6608118541
 30
0.0
 10
32.0344979833
 20
29.6612026064
 30
0.0
 10
32.0638649927
 20
29.6617452104
 30
0.0
 10
32.085496542
 20
29.6623099647
 30
0.0
 10
32.0999645338
 20
29.6627713969
 30
0.0
 10
32.1130599209
 20
29.6632781728
 30
0.0
 10
32.1246576059
 20
29.6638248322
 30
0.0
 10
32.1346535842
 20
29.6644069
 30
0.0
 10
32.1429514603
 20
29.6650116668
 30
0.0
 10
32.1494996944
 20
29.6656409933
 30
0.0
 10
32.1541944638
 20
29.666252367
 30
0.0
 10
32.1570156703
 20
29.6668448348
 30
0.0
 10
32.1582712351
 20
29.6673108623
 30
0.0
 10
32.1586141606
 20
29.6676391693
 30
0.0
 10
32.1586141606
 20
29.6677787219
 30
0.0
  0
SPLINE
  5
305
100
AcDbEntity
  8
0
100
AcDbSpline
 62
7
  6
BYLAYER
 70
0
 71
3
 72
17
 73
13
 74
0
 42
0.0000001
 43
0.0000001
 44
0.0000000001
 40
0.0
 40
0.0
 40
0.0
 40
0.0
 40
0.1792926807
 40
0.3524475629
 40
0.5127936023
 40
0.6552368869
 40
0.7756949491
 40
0.8716737206
 40
0.9106355735
 40
0.9441529874
 40
0.9733445495
 40
1.0
 40
1.0
 40
1.0
 40
1.0
 10
31.9586141606
 20
28.4173897679
 30
0.0
 10
31.9716842955
 20
28.4173897679
 30
0.0
 10
31.9973832912
 20
28.4181349147
 30
0.0
 10
32.0346440387
 20
28.4214199132
 30
0.0
 10
32.0689556005
 20
28.4267499213
 30
0.0
 10
32.0990206893
 20
28.4338898155
 30
0.0
 10
32.1237615631
 20
28.4425184433
 30
0.0
 10
32.1403907929
 20
28.4512140998
 30
0.0
 10
32.1499657529
 20
28.4589748351
 30
0.0
 10
32.1548501645
 20
28.4646166204
 30
0.0
 10
32.157894916
 20
28.4704596187
 30
0.0
 10
32.1586141606
 20
28.4745536727
 30
0.0
 10
32.1586141606
 20
28.4764968102
 30
0.0
  0
SPLINE
  5
306
100
AcDbEntity
  8
0
100
AcDbSpline
 62
7
  6
BYLAYER
 70
0
 71
3
 72
15
 73
11
 74
0
 42
0.0000001
 43
0.0000001
 44
0.0000000001
 40
0.0
 40
0.0
 40
0.0
 40
0.0
 40
0.1593060885
 40
0.314411577
 40
0.4606878168
 40
0.5949966776
 40
0.7152359524
 40
0.820941948
 40
0.9142679219
 40
1.0
 40
1.0
 40
1.0
 40
1.0
 10
31.9586141606
 20
27.3192451096
 30
0.0
 10
31.9716971252
 20
27.3192451096
 30
0.0
 10
31.9975387689
 20
27.320607873
 30
0.0
 10
32.0349674051
 20
27.3266147809
 30
0.0
 10
32.0694848124
 20
27.3363863971
 30
0.0
 10
32.099786835
 20
27.3495365449
 30
0.0
 10
32.1248368855
 20
27.3655687971
 30
0.0
 10
32.1437692243
 20
27.384054624
 30
0.0
 10
32.1557613815
 20
27.4045282923
 30
0.0
 10
32.1586141606
 20
27.419335003
 30
0.0
 10
32.1586141606
 20
27.426375724
 30
0.0
  0
SPLINE
  5
307
100
AcDbEntity
  8
0
100
AcDbSpline
 62
7
  6
BYLAYER
 70
0
 71
3
 72
13
 73
9
 74
0
 42
0.0000001
 43
0.0000001
 44
0.0000000001
 40
0.0
 40
0.0
 40
0.0
 40
0.0
 40
0.2839158331
 40
0.5485207148
 40
0.6705383987
 40
0.7852907454
 40
0.8943666502
 40
1.0
 40
1.0
 40
1.0
 40
1.0
 10
31.9586141606
 20
26.441126068
 30
0.0
 10
31.9845289482
 20
26.441126068
 30
0.0
 10
32.0348889685
 20
26.4482442351
 30
0.0
 10
32.0912568303
 20
26.4751768666
 30
0.0
 10
32.1255898559
 20
26.5058599686
 30
0.0
 10
32.1443507799
 20
26.5315878275
 30
0.0
 10
32.1559496957
 20
26.5596519301
 30
0.0
 10
32.1586141606
 20
26.5793376585
 30
0.0
 10
32.1586141606
 20
26.5889794802
 30
0.0
  0
SPLINE
  5
308
100
AcDbEntity
  8
0
100
AcDbSpline
 62
7
  6
BYLAYER
 70
0
 71
3
 72
14
 73
10
 74
0
 42
0.0000001
 43
0.0000001
 44
0.0000000001
 40
0.0
 40
0.0
 40
0.0
 40
0.0
 40
0.2632780644
 40
0.3927166685
 40
0.5193943524
 40
0.6430501405
 40
0.7638611336
 40
0.8826353121
 40
1.0
 40
1.0
 40
1.0
 40
1.0
 10
31.9586141606
 20
25.8428750045
 30
0.0
 10
31.9846553108
 20
25.8428750045
 30
0.0
 10
32.0239804578
 20
25.8497847465
 30
0.0
 10
32.0705196002
 20
25.8720338608
 30
0.0
 10
32.1010038778
 20
25.8943956022
 30
0.0
 10
32.1260146875
 20
25.9215922934
 30
0.0
 10
32.1446047214
 20
25.9526492694
 30
0.0
 10
32.1560146345
 20
25.9863344427
 30
0.0
 10
32.1586141606
 20
26.0097665663
 30
0.0
 10
32.1586141606
 20
26.0213752488
 30
0.0
  0
SPLINE
  5
309
100
AcDbEntity
  8
0
100
AcDbSpline
 62
7
  6
BYLAYER
 70
0
 71
3
 72
11
 73
7
 74
0
 42
0.0000001
 43
0.0000001
 44
0.0000000001
 40
0.0
 40
0.0
 40
0.0
 40
0.0
 40
0.2530176579
 40
0.5041819856
 40
0.7528981552
 40
1.0
 40
1.0
 40
1.0
 40
1.0
 10
31.9586141606
 20
25.5652617405
 30
0.0
 10
31.9847426298
 20
25.5652617405
 30
0.0
 10
32.0373757281
 20
25.5755389514
 30
0.0
 10
32.1038426702
 20
25.6194988087
 30
0.0
 10
32.1482527976
 20
25.6849543289
 30
0.0
 10
32.1586141606
 20
25.7367267615
 30
0.0
 10
32.1586141606
 20
25.7622443201
 30
0.0
  0
SPLINE
  5
30A
100
AcDbEntity
  8
0
100
AcDbSpline
 62
7
  6
BYLAYER
 70
0
 71
3
 72
14
 73
10
 74
0
 42
0.0000001
 43
0.0000001
 44
0.0000000001
 40
0.0
 40
0.0
 40
0.0
 40
0.0
 40
0.1471614384
 40
0.2915220269
 40
0.5594192534
 40
0.6808489307
 40
0.7933842684
 40
0.8988269654
 40
1.0
 40
1.0
 40
1.0
 40
1.0
 10
31.9586141606
 20
33.4000004615
 30
0.0
 10
31.9717092191
 20
33.4000004615
 30
0.0
 10
31.9976990543
 20
33.3982273258
 30
0.0
 10
32.0465103798
 20
33.3881123003
 30
0.0
 10
32.0908814433
 20
33.3685077727
 30
0.0
 10
32.1254242843
 20
33.3398024362
 30
0.0
 10
32.1442402607
 20
33.3158286524
 30
0.0
 10
32.1559184045
 20
33.2896055864
 30
0.0
 10
32.1586141606
 20
33.2711277364
 30
0.0
 10
32.1586141606
 20
33.2621249241
 30
0.0
  0
SPLINE
  5
30B
100
AcDbEntity
  8
0
100
AcDbSpline
 62
7
  6
BYLAYER
 70
0
 71
3
 72
15
 73
11
 74
0
 42
0.0000001
 43
0.0000001
 44
0.0000000001
 40
0.0
 40
0.0
 40
0.0
 40
0.0
 40
0.1644085484
 40
0.3240836892
 40
0.4738433078
 40
0.6100355746
 40
0.7300810029
 40
0.8331232183
 40
0.9212426647
 40
1.0
 40
1.0
 40
1.0
 40
1.0
 10
31.9586141606
 20
32.2399123827
 30
0.0
 10
31.9716931587
 20
32.2399123827
 30
0.0
 10
31.997490875
 20
32.238708417
 30
0.0
 10
32.0348691473
 20
32.2334009427
 30
0.0
 10
32.0693300878
 20
32.2247725063
 30
0.0
 10
32.0995730805
 20
32.213171706
 30
0.0
 10
32.1245732104
 20
32.1990481909
 30
0.0
 10
32.1435117357
 20
32.1827704032
 30
0.0
 10
32.1556546306
 20
32.1646410949
 30
0.0
 10
32.1586141606
 20
32.1512674081
 30
0.0
 10
32.1586141606
 20
32.1450021193
 30
0.0
  0
SPLINE
  5
30C
100
AcDbEntity
  8
0
100
AcDbSpline
 62
7
  6
BYLAYER
 70
0
 71
3
 72
18
 73
14
 74
0
 42
0.0000001
 43
0.0000001
 44
0.0000000001
 40
0.0
 40
0.0
 40
0.0
 40
0.0
 40
0.1846474453
 40
0.3627126097
 40
0.5270458134
 40
0.6720782141
 40
0.7931897261
 40
0.843700769
 40
0.8872567138
 40
0.9238910176
 40
0.9540071011
 40
0.978680071
 40
1.0
 40
1.0
 40
1.0
 40
1.0
 10
31.9586141606
 20
30.9645145776
 30
0.0
 10
31.9716820034
 20
30.9645145776
 30
0.0
 10
31.9973557696
 20
30.9639423229
 30
0.0
 10
32.034583144
 20
30.9614183813
 30
0.0
 10
32.0688563457
 20
30.9573287653
 30
0.0
 10
32.0988438261
 20
30.9518495398
 30
0.0
 10
32.1205437941
 20
30.9460682676
 30
0.0
 10
32.1348127023
 20
30.940710621
 30
0.0
 10
32.1431839953
 20
30.9367434135
 30
0.0
 10
32.149834935
 20
30.9326106684
 30
0.0
 10
32.1547243721
 20
30.9283111156
 30
0.0
 10
32.1578395492
 20
30.9238214919
 30
0.0
 10
32.1586141606
 20
30.9205464168
 30
0.0
 10
32.1586141606
 20
30.9190375658
 30
0.0
  0
SPLINE
  5
30D
100
AcDbEntity
  8
0
100
AcDbSpline
 62
7
  6
BYLAYER
 70
0
 71
3
 72
18
 73
14
 74
0
 42
0.0000001
 43
0.0000001
 44
0.0000000001
 40
0.0
 40
0.0
 40
0.0
 40
0.0
 40
0.0213197681
 40
0.0459921816
 40
0.0761075731
 40
0.1127411834
 40
0.1562961234
 40
0.2068063736
 40
0.327917098
 40
0.4729488081
 40
0.637282913
 40
0.8153511866
 40
1.0
 40
1.0
 40
1.0
 40
1.0
 10
32.1586141606
 20
30.1767073024
 30
0.0
 10
32.1586141606
 20
30.1751984625
 30
0.0
 10
32.1578396224
 20
30.1719234317
 30
0.0
 10
32.1547245738
 20
30.1674338307
 30
0.0
 10
32.1498352361
 20
30.1631343638
 30
0.0
 10
32.1431844275
 20
30.1590017322
 30
0.0
 10
32.1348133348
 20
30.1550345143
 30
0.0
 10
32.1205446179
 20
30.1496768625
 30
0.0
 10
32.098844823
 20
30.1438955481
 30
0.0
 10
32.0688573888
 20
30.138416258
 30
0.0
 10
32.0345839549
 20
30.1343265318
 30
0.0
 10
31.99735619
 20
30.1318025972
 30
0.0
 10
31.971682103
 20
30.1312302905
 30
0.0
 10
31.9586141606
 20
30.1312302905
 30
0.0
  0
SPLINE
  5
30E
100
AcDbEntity
  8
0
100
AcDbSpline
 62
7
  6
BYLAYER
 70
0
 71
3
 72
15
 73
11
 74
0
 42
0.0000001
 43
0.0000001
 44
0.0000000001
 40
0.0
 40
0.0
 40
0.0
 40
0.0
 40
0.0787564863
 40
0.166874142
 40
0.2699148983
 40
0.3899598795
 40
0.5261517068
 40
0.6759122695
 40
0.8355902137
 40
1.0
 40
1.0
 40
1.0
 40
1.0
 10
32.1586141606
 20
28.9507427489
 30
0.0
 10
32.1586141606
 20
28.9444775267
 30
0.0
 10
32.1556549048
 20
28.9311039951
 30
0.0
 10
32.1435120738
 20
28.9129750126
 30
0.0
 10
32.1245739987
 20
28.8966972023
 30
0.0
 10
32.0995740806
 20
28.882573638
 30
0.0
 10
32.0693311444
 20
28.8709726891
 30
0.0
 10
32.0348699752
 20
28.8623440237
 30
0.0
 10
31.9974912947
 20
28.8570365589
 30
0.0
 10
31.971693259
 20
28.8558324854
 30
0.0
 10
31.9586141606
 20
28.8558324854
 30
0.0
  0
SPLINE
  5
30F
100
AcDbEntity
  8
0
100
AcDbSpline
 62
7
  6
BYLAYER
 70
0
 71
3
 72
11
 73
7
 74
0
 42
0.0000001
 43
0.0000001
 44
0.0000000001
 40
0.0
 40
0.0
 40
0.0
 40
0.0
 40
0.2500789697
 40
0.5000412789
 40
0.7499793099
 40
1.0
 40
1.0
 40
1.0
 40
1.0
 10
31.9586141606
 20
35.4685397071
 30
0.0
 10
31.984767971
 20
35.4685397071
 30
0.0
 10
32.0376531694
 20
35.4579045711
 30
0.0
 10
32.1041272954
 20
35.4126207953
 30
0.0
 10
32.1483437873
 20
35.3454964446
 30
0.0
 10
32.1586141606
 20
35.2926465447
 30
0.0
 10
32.1586141606
 20
35.2664988293
 30
0.0
  0
SPLINE
  5
310
100
AcDbEntity
  8
0
100
AcDbSpline
 62
7
  6
BYLAYER
 70
0
 71
3
 72
14
 73
10
 74
0
 42
0.0000001
 43
0.0000001
 44
0.0000000001
 40
0.0
 40
0.0
 40
0.0
 40
0.0
 40
0.101172036
 40
0.2066126186
 40
0.3191467228
 40
0.440576256
 40
0.7084742905
 40
0.8528374306
 40
1.0
 40
1.0
 40
1.0
 40
1.0
 10
32.1586141606
 20
27.833619944
 30
0.0
 10
32.1586141606
 20
27.8246172201
 30
0.0
 10
32.1559186787
 20
27.8061396057
 30
0.0
 10
32.1442405589
 20
27.7799169479
 30
0.0
 10
32.1254250665
 20
27.7559432142
 30
0.0
 10
32.090882427
 20
27.7272376857
 30
0.0
 10
32.0465112176
 20
27.707632702
 30
0.0
 10
31.9976994732
 20
27.6975176946
 30
0.0
 10
31.9717093205
 20
27.6957444067
 30
0.0
 10
31.9586141606
 20
27.6957444067
 30
0.0
  0
SPLINE
  5
311
100
AcDbEntity
  8
0
100
AcDbSpline
 62
7
  6
BYLAYER
 70
0
 71
3
 72
13
 73
9
 74
0
 42
0.0000001
 43
0.0000001
 44
0.0000000001
 40
0.0
 40
0.0
 40
0.0
 40
0.0
 40
0.1149652244
 40
0.2317498404
 40
0.3513255982
 40
0.4746895633
 40
0.731940924
 40
1.0
 40
1.0
 40
1.0
 40
1.0
 10
32.1586141606
 20
26.9014689609
 30
0.0
 10
32.1586141606
 20
26.8903136381
 30
0.0
 10
32.1560027907
 20
26.8677483367
 30
0.0
 10
32.1445569176
 20
26.8353552164
 30
0.0
 10
32.1259243346
 20
26.8055171378
 30
0.0
 10
32.0921357667
 20
26.7702673807
 30
0.0
 10
32.0360141675
 20
26.7385652778
 30
0.0
 10
31.9846245088
 20
26.7300241396
 30
0.0
 10
31.9586141606
 20
26.7300241396
 30
0.0
  0
SPLINE
  5
312
100
AcDbEntity
  8
0
100
AcDbSpline
 62
7
  6
BYLAYER
 70
0
 71
3
 72
11
 73
7
 74
0
 42
0.0000001
 43
0.0000001
 44
0.0000000001
 40
0.0
 40
0.0
 40
0.0
 40
0.0
 40
0.2449352943
 40
0.4927581264
 40
0.7448197055
 40
1.0
 40
1.0
 40
1.0
 40
1.0
 10
32.1586141606
 20
26.2178143485
 30
0.0
 10
32.1586141606
 20
26.1927517557
 30
0.0
 10
32.1481826962
 20
26.1417557471
 30
0.0
 10
32.1036324938
 20
26.0775132379
 30
0.0
 10
32.0371787432
 20
26.0345074044
 30
0.0
 10
31.9847250558
 20
26.0244839244
 30
0.0
 10
31.9586141606
 20
26.0244839244
 30
0.0
  0
SPLINE
  5
313
100
AcDbEntity
  8
0
100
AcDbSpline
 62
7
  6
BYLAYER
 70
0
 71
3
 72
11
 73
7
 74
0
 42
0.0000001
 43
0.0000001
 44
0.0000000001
 40
0.0
 40
0.0
 40
0.0
 40
0.0
 40
0.2551769897
 40
0.5072373614
 40
0.7550610682
 40
1.0
 40
1.0
 40
1.0
 40
1.0
 10
31.9586141606
 20
35.0712609437
 30
0.0
 10
31.9847247177
 20
35.0712609437
 30
0.0
 10
32.0371779088
 20
35.0612376374
 30
0.0
 10
32.1036316099
 20
35.0182324877
 30
0.0
 10
32.1481824718
 20
34.9539899857
 30
0.0
 10
32.1586141606
 20
34.9029934846
 30
0.0
 10
32.1586141606
 20
34.8779305197
 30
0.0
  0
SPLINE
  5
314
100
AcDbEntity
  8
0
100
AcDbSpline
 62
7
  6
BYLAYER
 70
0
 71
3
 72
11
 73
7
 74
0
 42
0.0000001
 43
0.0000001
 44
0.0000000001
 40
0.0
 40
0.0
 40
0.0
 40
0.0
 40
0.2500169892
 40
0.4999542075
 40
0.7499177816
 40
1.0
 40
1.0
 40
1.0
 40
1.0
 10
32.1586141606
 20
25.8292460388
 30
0.0
 10
32.1586141606
 20
25.8030987106
 30
0.0
 10
32.1483440039
 20
25.7502493136
 30
0.0
 10
32.104128175
 20
25.6831249747
 30
0.0
 10
32.0376540174
 20
25.6378404862
 30
0.0
 10
31.9847683107
 20
25.627205161
 30
0.0
 10
31.9586141606
 20
25.627205161
 30
0.0
  0
SPLINE
  5
315
100
AcDbEntity
  8
0
100
AcDbSpline
 62
7
  6
BYLAYER
 70
0
 71
3
 72
13
 73
9
 74
0
 42
0.0000001
 43
0.0000001
 44
0.0000000001
 40
0.0
 40
0.0
 40
0.0
 40
0.0
 40
0.2680556366
 40
0.5253059487
 40
0.6486698566
 40
0.7682467288
 40
0.885033675
 40
1.0
 40
1.0
 40
1.0
 40
1.0
 10
31.9586141606
 20
34.3657207286
 30
0.0
 10
31.9846241741
 20
34.3657207286
 30
0.0
 10
32.036013359
 20
34.3571797241
 30
0.0
 10
32.0921347699
 20
34.3254782312
 30
0.0
 10
32.1259235614
 20
34.2902287108
 30
0.0
 10
32.1445566391
 20
34.260390523
 30
0.0
 10
32.1560025151
 20
34.2279969359
 30
0.0
 10
32.1586141606
 20
34.2054313364
 30
0.0
 10
32.1586141606
 20
34.1942759073
 30
0.0
  0
SPLINE
  5
316
100
AcDbEntity
  8
0
100
AcDbSpline
 62
7
  6
BYLAYER
 70
0
 71
3
 72
14
 73
10
 74
0
 42
0.0000001
 43
0.0000001
 44
0.0000000001
 40
0.0
 40
0.0
 40
0.0
 40
0.0
 40
0.1628557786
 40
0.3373357173
 40
0.5000005683
 40
0.6606356312
 40
0.7998994834
 40
0.8296470655
 40
1.0
 40
1.0
 40
1.0
 40
1.0
 10
18.3785522922
 20
19.2478725852
 30
0.0
 10
18.3776638944
 20
19.3455862554
 30
0.0
 10
18.3758160269
 20
19.5479880367
 30
0.0
 10
18.3730535174
 20
19.8479886814
 30
0.0
 10
18.3702796903
 20
20.1466566772
 30
0.0
 10
18.367681084
 20
20.4241948192
 30
0.0
 10
18.3658152641
 20
20.6219825029
 30
0.0
 10
18.3638863077
 20
20.8256008261
 30
0.0
 10
18.3627432496
 20
20.9456609065
 30
0.0
 10
18.3617659777
 20
21.0478724321
 30
0.0
  0
LINE
  5
317
100
AcDbEntity
  8
0
100
AcDbLine
 62
7
  6
BYLAYER
 10
18.5574297505
 20
21.0478724341
 11
18.555710019
 21
19.2478724341
  0
SPLINE
  5
318
100
AcDbEntity
  8
0
100
AcDbSpline
 62
7
  6
BYLAYER
 70
0
 71
3
 72
14
 73
10
 74
0
 42
0.0000001
 43
0.0000001
 44
0.0000000001
 40
0.0
 40
0.0
 40
0.0
 40
0.0
 40
0.1503103592
 40
0.3391517875
 40
0.500000567
 40
0.6639432068
 40
0.7498783379
 40
0.8296854703
 40
1.0
 40
1.0
 40
1.0
 40
1.0
 10
5.3386761828
 20
19.2478725818
 30
0.0
 10
5.3394961291
 20
19.3380589847
 30
0.0
 10
5.3413532359
 20
19.5415504163
 30
0.0
 10
5.3441150376
 20
19.8415510667
 30
0.0
 10
5.3469771844
 20
20.1497308623
 30
0.0
 10
5.3492846874
 20
20.3961666868
 30
0.0
 10
5.3511485121
 20
20.5939774346
 30
0.0
 10
5.3530562369
 20
20.7956112383
 30
0.0
 10
5.3544849956
 20
20.9456839489
 30
0.0
 10
5.355461999
 20
21.0478724321
 30
0.0
  0
LINE
  5
319
100
AcDbEntity
  8
0
100
AcDbLine
 62
7
  6
BYLAYER
 10
5.1602005479
 20
20.5478713546
 11
5.1615173367
 21
19.2478724502
  0
LINE
  5
31A
100
AcDbEntity
  8
0
100
AcDbLine
 62
7
  6
BYLAYER
 10
5.1597984939
 20
21.0478724341
 11
5.1602010714
 21
20.547872281
  0
SPLINE
  5
31B
100
AcDbEntity
  8
0
100
AcDbSpline
 62
7
  6
BYLAYER
 70
0
 71
3
 72
43
 73
39
 74
0
 42
0.0000001
 43
0.0000001
 44
0.0000000001
 40
0.0
 40
0.0
 40
0.0
 40
0.0
 40
0.0371300828
 40
0.0794477392
 40
0.1250476134
 40
0.172063746
 40
0.218638225
 40
0.2629028073
 40
0.3034872718
 40
0.3400000556
 40
0.3723759519
 40
0.4006577401
 40
0.4250094898
 40
0.4456005233
 40
0.4626479731
 40
0.4763172158
 40
0.4867809823
 40
0.4941572181
 40
0.498544575
 40
0.5000000017
 40
0.5014564801
 40
0.5058458925
 40
0.5132211873
 40
0.5236860368
 40
0.5373536088
 40
0.5544012155
 40
0.574990705
 40
0.5993423692
 40
0.627623973
 40
0.6600008621
 40
0.6965140456
 40
0.7370983232
 40
0.7813629554
 40
0.8279367697
 40
0.8749402833
 40
0.9205267529
 40
0.9628411598
 40
1.0
 40
1.0
 40
1.0
 40
1.0
 10
13.9775643385
 20
25.912264165
 30
0.0
 10
14.1429516819
 20
25.8366666652
 30
0.0
 10
14.4911750012
 20
25.6623921641
 30
0.0
 10
15.0223433954
 20
25.3570072334
 30
0.0
 10
15.5786383389
 20
24.9998835775
 30
0.0
 10
16.137784032
 20
24.6097156806
 30
0.0
 10
16.6798629287
 20
24.2071248778
 30
0.0
 10
17.1879764864
 20
23.811956313
 30
0.0
 10
17.6510768934
 20
23.4393423942
 30
0.0
 10
18.0646210772
 20
23.0980938211
 30
0.0
 10
18.428829807
 20
22.791784066
 30
0.0
 10
18.7455552325
 20
22.5215141979
 30
0.0
 10
19.0170066986
 20
22.2872782935
 30
0.0
 10
19.2461845123
 20
22.0878013476
 30
0.0
 10
19.4346936298
 20
21.9226346304
 30
0.0
 10
19.5873574353
 20
21.7881763943
 30
0.0
 10
19.6996945591
 20
21.6888833714
 30
0.0
 10
19.7884456268
 20
21.6101950699
 30
0.0
 10
19.824217556
 20
21.5784432081
 30
0.0
 10
19.8671861289
 20
21.5402539003
 30
0.0
 10
19.8241932964
 20
21.5784647672
 30
0.0
 10
19.7884248549
 20
21.6102134954
 30
0.0
 10
19.6996619764
 20
21.6889122183
 30
0.0
 10
19.5873321216
 20
21.7881987219
 30
0.0
 10
19.4346693073
 20
21.9226559848
 30
0.0
 10
19.2461716256
 20
22.0878125853
 30
0.0
 10
19.0169991424
 20
22.2872848199
 30
0.0
 10
18.7455544233
 20
22.5215148873
 30
0.0
 10
18.4288262941
 20
22.7917870605
 30
0.0
 10
18.0646130096
 20
23.0981005859
 30
0.0
 10
17.65106416
 20
23.4393527847
 30
0.0
 10
17.187962589
 20
23.8119673097
 30
0.0
 10
16.6798519337
 20
24.2071332084
 30
0.0
 10
16.1378248765
 20
24.6096851074
 30
0.0
 10
15.5787878534
 20
24.9997801455
 30
0.0
 10
15.0226197929
 20
25.3568356954
 30
0.0
 10
14.4914106802
 20
25.6622682472
 30
0.0
 10
14.1430797753
 20
25.8366081145
 30
0.0
 10
13.9775643386
 20
25.912264165
 30
0.0
  0
SPLINE
  5
31C
100
AcDbEntity
  8
0
100
AcDbSpline
 62
7
  6
BYLAYER
 70
0
 71
3
 72
17
 73
13
 74
0
 42
0.0000001
 43
0.0000001
 44
0.0000000001
 40
0.0
 40
0.0
 40
0.0
 40
0.0
 40
0.1433096958
 40
0.2853042479
 40
0.4224872854
 40
0.5496305696
 40
0.6648939563
 40
0.7665751622
 40
0.8527327859
 40
0.9214979121
 40
0.9709613956
 40
1.0
 40
1.0
 40
1.0
 40
1.0
 10
11.8586141606
 20
36.9354986693
 30
0.0
 10
11.4780090458
 20
36.9355117862
 30
0.0
 10
10.7202649669
 20
36.94386293
 30
0.0
 10
9.5987395003
 20
36.9808750728
 30
0.0
 10
8.5211362596
 20
37.0394843095
 30
0.0
 10
7.5157366995
 20
37.1143657644
 30
0.0
 10
6.6057613638
 20
37.1987652955
 30
0.0
 10
5.8054775236
 20
37.2859225717
 30
0.0
 10
5.129048756
 20
37.3690000288
 30
0.0
 10
4.5910306163
 20
37.4410698516
 30
0.0
 10
4.2038556658
 20
37.4964593037
 30
0.0
 10
3.9975850467
 20
37.5267985163
 30
0.0
 10
3.9213575335
 20
37.5385063489
 30
0.0
  0
SPLINE
  5
31D
100
AcDbEntity
  8
0
100
AcDbSpline
 62
7
  6
BYLAYER
 70
0
 71
3
 72
53
 73
49
 74
0
 42
0.0000001
 43
0.0000001
 44
0.0000000001
 40
0.0
 40
0.0
 40
0.0
 40
0.0
 40
0.035985
 40
0.0717908829
 40
0.1100462036
 40
0.1476092845
 40
0.1847757564
 40
0.2207684837
 40
0.2556631223
 40
0.2889235254
 40
0.3204677226
 40
0.3499702948
 40
0.3773122733
 40
0.4022553151
 40
0.424655412
 40
0.4443577463
 40
0.4612025462
 40
0.4751243746
 40
0.4809488482
 40
0.4860116019
 40
0.4903046331
 40
0.4938199232
 40
0.4965482629
 40
0.4984895198
 40
0.4999999824
 40
0.5016630591
 40
0.5036804164
 40
0.5064845422
 40
0.5100753488
 40
0.5144433683
 40
0.5195804588
 40
0.525478495
 40
0.5395446137
 40
0.5565291415
 40
0.5763657367
 40
0.5988938489
 40
0.6239548145
 40
0.6514065746
 40
0.6810081601
 40
0.7126418947
 40
0.7459817107
 40
0.7809453335
 40
0.8169949133
 40
0.8542070024
 40
0.8918012732
 40
0.9300760584
 40
0.9649551115
 40
1.0
 40
1.0
 40
1.0
 40
1.0
 10
11.8586141606
 20
38.8942617053
 30
0.0
 10
11.7135493415
 20
38.8942649214
 30
0.0
 10
11.4241366502
 20
38.8965923099
 30
0.0
 10
10.9806206185
 20
38.9071681883
 30
0.0
 10
10.5309784669
 20
38.9253185656
 30
0.0
 10
10.0762255053
 20
38.9512495009
 30
0.0
 10
9.6310588392
 20
38.9840012695
 30
0.0
 10
9.1971832936
 20
39.0228410747
 30
0.0
 10
8.7796188509
 20
39.0667087025
 30
0.0
 10
8.3805445962
 20
39.1145088263
 30
0.0
 10
8.0037139584
 20
39.1649217656
 30
0.0
 10
7.6511669555
 20
39.2166845441
 30
0.0
 10
7.3255388309
 20
39.2684309207
 30
0.0
 10
7.0287162422
 20
39.3188828356
 30
0.0
 10
6.762702173
 20
39.3667278407
 30
0.0
 10
6.529193262
 20
39.4107936049
 30
0.0
 10
6.3295335351
 20
39.4499622496
 30
0.0
 10
6.1849892015
 20
39.4792572541
 30
0.0
 10
6.0870038737
 20
39.4994992768
 30
0.0
 10
6.027197829
 20
39.5119872034
 30
0.0
 10
5.9761415882
 20
39.5227535371
 30
0.0
 10
5.9353844239
 20
39.5314122333
 30
0.0
 10
5.9010936274
 20
39.5387399109
 30
0.0
 10
5.8815593907
 20
39.5429186836
 30
0.0
 10
5.8479797729
 20
39.5501678888
 30
0.0
 10
5.883524689
 20
39.5424955602
 30
0.0
 10
5.9036522152
 20
39.5381920861
 30
0.0
 10
5.9390365861
 20
39.5306340586
 30
0.0
 10
5.9806183982
 20
39.5218063828
 30
0.0
 10
6.0325864058
 20
39.5108565689
 30
0.0
 10
6.0932669975
 20
39.4981982557
 30
0.0
 10
6.1924134116
 20
39.4777392884
 30
0.0
 10
6.3383767176
 20
39.4481974775
 30
0.0
 10
6.5397046173
 20
39.4087693533
 30
0.0
 10
6.7748228454
 20
39.3644933655
 30
0.0
 10
7.042366628
 20
39.3164944654
 30
0.0
 10
7.3406280516
 20
39.2659498616
 30
0.0
 10
7.6675853559
 20
39.2141752655
 30
0.0
 10
8.0213532618
 20
39.1624487151
 30
0.0
 10
8.3992870475
 20
39.1121349188
 30
0.0
 10
8.7993464924
 20
39.0644946272
 30
0.0
 10
9.2177655658
 20
39.0208427414
 30
0.0
 10
9.652358932
 20
38.9822700413
 30
0.0
 10
10.0980886186
 20
38.9498280933
 30
0.0
 10
10.5532498587
 20
38.9242419482
 30
0.0
 10
10.9993773545
 20
38.9065999768
 30
0.0
 10
11.4354529825
 20
38.8964726779
 30
0.0
 10
11.7173391736
 20
38.8942659454
 30
0.0
 10
11.8586141606
 20
38.8942619934
 30
0.0
  0
SPLINE
  5
31E
100
AcDbEntity
  8
0
100
AcDbSpline
 62
7
  6
BYLAYER
 70
0
 71
3
 72
10
 73
6
 74
0
 42
0.0000001
 43
0.0000001
 44
0.0000000001
 40
0.0
 40
0.0
 40
0.0
 40
0.0
 40
0.3469937715
 40
0.6827151124
 40
1.0
 40
1.0
 40
1.0
 40
1.0
 10
11.8586141606
 20
26.9423211586
 30
0.0
 10
12.1023667857
 20
26.8204448461
 30
0.0
 10
12.5819374076
 20
26.5806155152
 30
0.0
 10
13.2870324549
 20
26.2346555045
 30
0.0
 10
13.7508774821
 20
26.0157579315
 30
0.0
 10
13.9775143792
 20
25.9121636513
 30
0.0
  0
LINE
  5
31F
100
AcDbEntity
  8
0
100
AcDbLine
 62
7
  6
BYLAYER
 10
22.0125369776
 20
26.1245459352
 11
18.0586141606
 21
26.1679394241
  0
SPLINE
  5
320
100
AcDbEntity
  8
0
100
AcDbSpline
 62
7
  6
BYLAYER
 70
0
 71
3
 72
10
 73
6
 74
0
 42
0.0000001
 43
0.0000001
 44
0.0000000001
 40
0.0
 40
0.0
 40
0.0
 40
0.0
 40
0.3029349404
 40
0.6301941519
 40
1.0
 40
1.0
 40
1.0
 40
1.0
 10
13.127604919
 20
30.5478724341
 30
0.0
 10
13.127604919
 20
30.6558114421
 30
0.0
 10
13.1564939665
 20
30.8811167946
 30
0.0
 10
13.2801809539
 20
31.2173359364
 30
0.0
 10
13.400365631
 20
31.4354690937
 30
0.0
 10
13.4691240867
 20
31.5478724341
 30
0.0
  0
SPLINE
  5
321
100
AcDbEntity
  8
0
100
AcDbSpline
 62
7
  6
BYLAYER
 70
0
 71
3
 72
11
 73
7
 74
0
 42
0.0000001
 43
0.0000001
 44
0.0000000001
 40
0.0
 40
0.0
 40
0.0
 40
0.0
 40
0.3750943762
 40
0.5
 40
0.6249056239
 40
1.0
 40
1.0
 40
1.0
 40
1.0
 10
16.5282846203
 20
27.6537863109
 30
0.0
 10
16.5603876661
 20
27.601987352
 30
0.0
 10
16.5871736131
 20
27.5588586107
 30
0.0
 10
16.676460813
 20
27.4201387049
 30
0.0
 10
16.5871736131
 20
27.5588586107
 30
0.0
 10
16.5603876661
 20
27.601987352
 30
0.0
 10
16.5282846203
 20
27.6537863109
 30
0.0
  0
SPLINE
  5
322
100
AcDbEntity
  8
0
100
AcDbSpline
 62
7
  6
BYLAYER
 70
0
 71
3
 72
25
 73
21
 74
0
 42
0.0000001
 43
0.0000001
 44
0.0000000001
 40
0.0
 40
0.0
 40
0.0
 40
0.0
 40
0.0295036009
 40
0.0609608541
 40
0.0956844483
 40
0.1348556931
 40
0.1791372263
 40
0.2286204678
 40
0.2837022944
 40
0.3448696757
 40
0.4126876585
 40
0.4879660617
 40
0.5708470463
 40
0.6565406546
 40
0.7366537779
 40
0.8070481295
 40
0.8679788548
 40
0.9201746973
 40
0.9640405891
 40
1.0
 40
1.0
 40
1.0
 40
1.0
 10
13.127604919
 20
30.5478724341
 30
0.0
 10
13.127604919
 20
30.4938627943
 30
0.0
 10
13.1346688611
 20
30.3821503838
 30
0.0
 10
13.1674297198
 20
30.2096630519
 30
0.0
 10
13.2254341038
 20
30.0253128154
 30
0.0
 10
13.3115194939
 20
29.8264888158
 30
0.0
 10
13.4272372703
 20
29.6121340753
 30
0.0
 10
13.5728042629
 20
29.3816069811
 30
0.0
 10
13.7480168573
 20
29.1337978797
 30
0.0
 10
13.9533023609
 20
28.8665141583
 30
0.0
 10
14.1898400658
 20
28.5768547771
 30
0.0
 10
14.4586907614
 20
28.2624193886
 30
0.0
 10
14.7545845423
 20
27.9281521026
 30
0.0
 10
15.0606414546
 20
27.5911205756
 30
0.0
 10
15.3541729157
 20
27.2736211949
 30
0.0
 10
15.6186616992
 20
26.9910201755
 30
0.0
 10
15.8492647152
 20
26.7467071294
 30
0.0
 10
16.0471732857
 20
26.5383164649
 30
0.0
 10
16.213973564
 20
26.3634258861
 30
0.0
 10
16.3150363823
 20
26.2578794554
 30
0.0
 10
16.3605819593
 20
26.210351681
 30
0.0
  0
SPLINE
  5
323
100
AcDbEntity
  8
0
100
AcDbSpline
 62
7
  6
BYLAYER
 70
0
 71
3
 72
10
 73
6
 74
0
 42
0.0000001
 43
0.0000001
 44
0.0000000001
 40
0.0
 40
0.0
 40
0.0
 40
0.0
 40
0.3699998035
 40
0.6972587001
 40
1.0
 40
1.0
 40
1.0
 40
1.0
 10
13.4691240869
 20
31.5478724341
 30
0.0
 10
13.4003295255
 20
31.4354100695
 30
0.0
 10
13.2801157413
 20
31.2172126516
 30
0.0
 10
13.1564642093
 20
30.8809782968
 30
0.0
 10
13.127604919
 20
30.6557425139
 30
0.0
 10
13.127604919
 20
30.5478724341
 30
0.0
  0
SPLINE
  5
324
100
AcDbEntity
  8
0
100
AcDbSpline
 62
7
  6
BYLAYER
 70
0
 71
3
 72
10
 73
6
 74
0
 42
0.0000001
 43
0.0000001
 44
0.0000000001
 40
0.0
 40
0.0
 40
0.0
 40
0.0
 40
0.3029688452
 40
0.630244674
 40
1.0
 40
1.0
 40
1.0
 40
1.0
 10
10.5412168068
 20
30.5478724341
 30
0.0
 10
10.5412168068
 20
30.655823167
 30
0.0
 10
10.512309398
 20
30.8811438757
 30
0.0
 10
10.3886312252
 20
31.2173633066
 30
0.0
 10
10.2684510066
 20
31.4354849142
 30
0.0
 10
10.1997020176
 20
31.5478724341
 30
0.0
  0
SPLINE
  5
325
100
AcDbEntity
  8
0
100
AcDbSpline
 62
7
  6
BYLAYER
 70
0
 71
3
 72
18
 73
14
 74
0
 42
0.0000001
 43
0.0000001
 44
0.0000000001
 40
0.0
 40
0.0
 40
0.0
 40
0.0
 40
0.1007514464
 40
0.2077437337
 40
0.3149924114
 40
0.4226417384
 40
0.5256470454
 40
0.6209450807
 40
0.7132921522
 40
0.7974315668
 40
0.8715979437
 40
0.9380121686
 40
1.0
 40
1.0
 40
1.0
 40
1.0
 10
7.5472999015
 20
26.4604423526
 30
0.0
 10
7.666526467
 20
26.5854983561
 30
0.0
 10
7.9118489613
 20
26.8438495498
 30
0.0
 10
8.281605101
 20
27.2376697247
 30
0.0
 10
8.6562437328
 20
27.6431142122
 30
0.0
 10
9.0216520957
 20
28.0477393625
 30
0.0
 10
9.3669082654
 20
28.4428832119
 30
0.0
 10
9.6852575917
 20
28.8265179495
 30
0.0
 10
9.9694500526
 20
29.1961580513
 30
0.0
 10
10.21038993
 20
29.5526482476
 30
0.0
 10
10.3944652821
 20
29.8922358329
 30
0.0
 10
10.5134708513
 20
30.220615846
 30
0.0
 10
10.5412168068
 20
30.4415668061
 30
0.0
 10
10.5412168068
 20
30.5478724341
 30
0.0
  0
SPLINE
  5
326
100
AcDbEntity
  8
0
100
AcDbSpline
 62
7
  6
BYLAYER
 70
0
 71
3
 72
24
 73
20
 74
0
 42
0.0000001
 43
0.0000001
 44
0.0000000001
 40
0.0
 40
0.0
 40
0.0
 40
0.0
 40
0.0306458965
 40
0.0632533898
 40
0.0989913297
 40
0.1390455018
 40
0.1841921787
 40
0.2345556165
 40
0.2904882071
 40
0.3524399949
 40
0.4208789279
 40
0.4967007521
 40
0.5802102911
 40
0.6684431544
 40
0.7529839471
 40
0.8287782524
 40
0.8947380656
 40
0.9515698044
 40
1.0
 40
1.0
 40
1.0
 40
1.0
 10
10.5412168068
 20
30.5478724341
 30
0.0
 10
10.5412168068
 20
30.4953055027
 30
0.0
 10
10.5345360495
 20
30.3866989799
 30
0.0
 10
10.5036043109
 20
30.2193549905
 30
0.0
 10
10.4490438254
 20
30.0412144902
 30
0.0
 10
10.3683116457
 20
29.8497926045
 30
0.0
 10
10.2598182903
 20
29.6438603988
 30
0.0
 10
10.1231843959
 20
29.4227435964
 30
0.0
 10
9.9585973027
 20
29.1855569305
 30
0.0
 10
9.7658461091
 20
28.9305405055
 30
0.0
 10
9.5439215531
 20
28.6550507301
 30
0.0
 10
9.2916959566
 20
28.3566452168
 30
0.0
 10
9.0117423348
 20
28.0373241564
 30
0.0
 10
8.7174633832
 20
27.7107368851
 30
0.0
 10
8.4289641043
 20
27.3967902822
 30
0.0
 10
8.1643858061
 20
27.1127637419
 30
0.0
 10
7.9310212261
 20
26.8646238858
 30
0.0
 10
7.7291141776
 20
26.651336239
 30
0.0
 10
7.604616874
 20
26.5205658117
 30
0.0
 10
7.5472940591
 20
26.4604400192
 30
0.0
  0
SPLINE
  5
327
100
AcDbEntity
  8
0
100
AcDbSpline
 62
7
  6
BYLAYER
 70
0
 71
3
 72
10
 73
6
 74
0
 42
0.0000001
 43
0.0000001
 44
0.0000000001
 40
0.0
 40
0.0
 40
0.0
 40
0.0
 40
0.36994613
 40
0.697221757
 40
1.0
 40
1.0
 40
1.0
 40
1.0
 10
10.1997020172
 20
31.5478724341
 30
0.0
 10
10.2684865255
 20
31.435426849
 30
0.0
 10
10.3886954111
 20
31.2172419979
 30
0.0
 10
10.5123386909
 20
30.8810075927
 30
0.0
 10
10.5412168068
 20
30.6557553209
 30
0.0
 10
10.5412168068
 20
30.5478724341
 30
0.0
  0
SPLINE
  5
328
100
AcDbEntity
  8
0
100
AcDbSpline
 62
7
  6
BYLAYER
 70
0
 71
3
 72
12
 73
8
 74
0
 42
0.0000001
 43
0.0000001
 44
0.0000000001
 40
0.0
 40
0.0
 40
0.0
 40
0.0
 40
0.2570176832
 40
0.4955359438
 40
0.7006169878
 40
0.865618529
 40
1.0
 40
1.0
 40
1.0
 40
1.0
 10
9.0086141606
 20
14.2478724341
 30
0.0
 10
9.0086141606
 20
14.2168739875
 30
0.0
 10
9.0040408669
 20
14.1570019855
 30
0.0
 10
8.9839232372
 20
14.074456442
 30
0.0
 10
8.9522283907
 20
14.0075921673
 30
0.0
 10
8.9110456837
 20
13.960951467
 30
0.0
 10
8.8748216713
 20
13.9478724341
 30
0.0
 10
8.8586141606
 20
13.9478724341
 30
0.0
  0
SPLINE
  5
329
100
AcDbEntity
  8
0
100
AcDbSpline
 62
7
  6
BYLAYER
 70
0
 71
3
 72
12
 73
8
 74
0
 42
0.0000001
 43
0.0000001
 44
0.0000000001
 40
0.0
 40
0.0
 40
0.0
 40
0.0
 40
0.2570176832
 40
0.4955359438
 40
0.7006169878
 40
0.865618529
 40
1.0
 40
1.0
 40
1.0
 40
1.0
 10
14.7086141606
 20
14.2478724341
 30
0.0
 10
14.7086141606
 20
14.2168739875
 30
0.0
 10
14.7131874544
 20
14.1570019855
 30
0.0
 10
14.7333050841
 20
14.074456442
 30
0.0
 10
14.7649999306
 20
14.0075921673
 30
0.0
 10
14.8061826376
 20
13.960951467
 30
0.0
 10
14.8424066499
 20
13.9478724341
 30
0.0
 10
14.8586141606
 20
13.9478724341
 30
0.0
  0
SPLINE
  5
32A
100
AcDbEntity
  8
0
100
AcDbSpline
 62
7
  6
BYLAYER
 70
0
 71
3
 72
12
 73
8
 74
0
 42
0.0000001
 43
0.0000001
 44
0.0000000001
 40
0.0
 40
0.0
 40
0.0
 40
0.0
 40
0.2570176832
 40
0.4955359438
 40
0.7006169878
 40
0.865618529
 40
1.0
 40
1.0
 40
1.0
 40
1.0
 10
9.0086141606
 20
14.2978724341
 30
0.0
 10
9.0086141606
 20
14.3288708806
 30
0.0
 10
9.0040408669
 20
14.3887428826
 30
0.0
 10
8.9839232372
 20
14.4712884261
 30
0.0
 10
8.9522283907
 20
14.5381527008
 30
0.0
 10
8.9110456837
 20
14.5847934011
 30
0.0
 10
8.8748216713
 20
14.5978724341
 30
0.0
 10
8.8586141606
 20
14.5978724341
 30
0.0
  0
SPLINE
  5
32B
100
AcDbEntity
  8
0
100
AcDbSpline
 62
7
  6
BYLAYER
 70
0
 71
3
 72
12
 73
8
 74
0
 42
0.0000001
 43
0.0000001
 44
0.0000000001
 40
0.0
 40
0.0
 40
0.0
 40
0.0
 40
0.2570176832
 40
0.4955359438
 40
0.7006169878
 40
0.865618529
 40
1.0
 40
1.0
 40
1.0
 40
1.0
 10
14.7086141606
 20
14.2978724341
 30
0.0
 10
14.7086141606
 20
14.3288708806
 30
0.0
 10
14.7131874544
 20
14.3887428826
 30
0.0
 10
14.7333050841
 20
14.4712884261
 30
0.0
 10
14.7649999306
 20
14.5381527008
 30
0.0
 10
14.8061826376
 20
14.5847934011
 30
0.0
 10
14.8424066499
 20
14.5978724341
 30
0.0
 10
14.8586141606
 20
14.5978724341
 30
0.0
  0
SPLINE
  5
32C
100
AcDbEntity
  8
0
100
AcDbSpline
 62
7
  6
BYLAYER
 70
0
 71
3
 72
38
 73
34
 74
0
 42
0.0000001
 43
0.0000001
 44
0.0000000001
 40
0.0
 40
0.0
 40
0.0
 40
0.0
 40
0.0039265388
 40
0.0079936083
 40
0.012539884
 40
0.0177892988
 40
0.0241477
 40
0.0314701246
 40
0.0397718863
 40
0.0490437065
 40
0.0601226509
 40
0.0722502752
 40
0.0853602733
 40
0.0993836402
 40
0.1143082421
 40
0.1300880802
 40
0.1641884684
 40
0.1888933281
 40
0.2151598714
 40
0.2477624753
 40
0.2985592058
 40
0.354135419
 40
0.4074727241
 40
0.4620628253
 40
0.5782294229
 40
0.6276822839
 40
0.6774636096
 40
0.6989554685
 40
0.7258618589
 40
0.752846483
 40
0.8066275212
 40
0.9101940413
 40
1.0
 40
1.0
 40
1.0
 40
1.0
 10
8.2102545418
 20
31.5479148544
 30
0.0
 10
8.2106049646
 20
31.5477471468
 30
0.0
 10
8.2113830585
 20
31.5475239894
 30
0.0
 10
8.2126409683
 20
31.5476069446
 30
0.0
 10
8.2139435402
 20
31.5480781329
 30
0.0
 10
8.2153074485
 20
31.5489272675
 30
0.0
 10
8.2167250246
 20
31.5501606161
 30
0.0
 10
8.2181858919
 20
31.5517770779
 30
0.0
 10
8.2196624127
 20
31.5537522032
 30
0.0
 10
8.2211853258
 20
31.5561458485
 30
0.0
 10
8.2227286998
 20
31.5589667595
 30
0.0
 10
8.2242708283
 20
31.5622138984
 30
0.0
 10
8.2257596751
 20
31.5658035309
 30
0.0
 10
8.2271612375
 20
31.5697228164
 30
0.0
 10
8.2285304635
 20
31.5739311596
 30
0.0
 10
8.2304397752
 20
31.5800521515
 30
0.0
 10
8.2324572523
 20
31.587151999
 30
0.0
 10
8.234543491
 20
31.5953068085
 30
0.0
 10
8.2364112482
 20
31.6033626049
 30
0.0
 10
8.2385958996
 20
31.6139917808
 30
0.0
 10
8.2409274366
 20
31.6275465719
 30
0.0
 10
8.2429807212
 20
31.6432178162
 30
0.0
 10
8.2446032408
 20
31.6593144229
 30
0.0
 10
8.2464050102
 20
31.6814137672
 30
0.0
 10
8.2475361095
 20
31.7031772323
 30
0.0
 10
8.248182837
 20
31.7244790713
 30
0.0
 10
8.2483988673
 20
31.736421906
 30
0.0
 10
8.2485129252
 20
31.7461350173
 30
0.0
 10
8.2485257785
 20
31.7535935542
 30
0.0
 10
8.2483842333
 20
31.7642458588
 30
0.0
 10
8.2478245721
 20
31.7824763097
 30
0.0
 10
8.2464678323
 20
31.8068936626
 30
0.0
 10
8.2452448631
 20
31.825986628
 30
0.0
 10
8.2447777895
 20
31.8348596317
 30
0.0
  0
SPLINE
  5
32D
100
AcDbEntity
  8
0
100
AcDbSpline
 62
7
  6
BYLAYER
 70
0
 71
3
 72
10
 73
6
 74
0
 42
0.0000001
 43
0.0000001
 44
0.0000000001
 40
0.0
 40
0.0
 40
0.0
 40
0.0
 40
0.3428781152
 40
0.6769874076
 40
1.0
 40
1.0
 40
1.0
 40
1.0
 10
5.8586141606
 20
31.7286024109
 30
0.0
 10
5.8875872491
 20
31.7516807067
 30
0.0
 10
5.94977875
 20
31.7915305583
 30
0.0
 10
6.0525084707
 20
31.8276358322
 30
0.0
 10
6.1237190823
 20
31.8359692128
 30
0.0
 10
6.1586141606
 20
31.8359458286
 30
0.0
  0
SPLINE
  5
32E
100
AcDbEntity
  8
0
100
AcDbSpline
 62
7
  6
BYLAYER
 70
0
 71
3
 72
11
 73
7
 74
0
 42
0.0000001
 43
0.0000001
 44
0.0000000001
 40
0.0
 40
0.0
 40
0.0
 40
0.0
 40
0.2510528967
 40
0.5017535965
 40
0.7515938201
 40
1.0
 40
1.0
 40
1.0
 40
1.0
 10
8.1586141606
 20
31.8359458286
 30
0.0
 10
8.1658253063
 20
31.8359160005
 30
0.0
 10
8.1802373084
 20
31.8358243019
 30
0.0
 10
8.2018252084
 20
31.8356146197
 30
0.0
 10
8.2233341787
 20
31.8352237192
 30
0.0
 10
8.2376454792
 20
31.8350564754
 30
0.0
 10
8.244778017
 20
31.8348621881
 30
0.0
  0
SPLINE
  5
32F
100
AcDbEntity
  8
0
100
AcDbSpline
 62
7
  6
BYLAYER
 70
0
 71
3
 72
12
 73
8
 74
0
 42
0.0000001
 43
0.0000001
 44
0.0000000001
 40
0.0
 40
0.0
 40
0.0
 40
0.0
 40
0.076586849
 40
0.2252620735
 40
0.4431448079
 40
0.7107738231
 40
1.0
 40
1.0
 40
1.0
 40
1.0
 10
8.6586141606
 20
31.7478724341
 30
0.0
 10
8.6586141606
 20
31.7611477372
 30
0.0
 10
8.6200850789
 20
31.7895059805
 30
0.0
 10
8.549314974
 20
31.8060197443
 30
0.0
 10
8.4388299683
 20
31.8244757258
 30
0.0
 10
8.3054498032
 20
31.8338268497
 30
0.0
 10
8.2087475872
 20
31.8360183615
 30
0.0
 10
8.1586141606
 20
31.8359458286
 30
0.0
  0
SPLINE
  5
330
100
AcDbEntity
  8
0
100
AcDbSpline
 62
7
  6
BYLAYER
 70
0
 71
3
 72
11
 73
7
 74
0
 42
0.0000001
 43
0.0000001
 44
0.0000000001
 40
0.0
 40
0.0
 40
0.0
 40
0.0
 40
0.1786056823
 40
0.4145530791
 40
0.6942558384
 40
1.0
 40
1.0
 40
1.0
 40
1.0
 10
19.517413498
 20
29.155280036
 30
0.0
 10
19.4939028429
 20
29.1705483249
 30
0.0
 10
19.4328047577
 20
29.1952931089
 30
0.0
 10
19.3267032325
 20
29.2203008709
 30
0.0
 10
19.198520017
 20
29.2363719305
 30
0.0
 10
19.1066028274
 20
29.2400301037
 30
0.0
 10
19.0586141606
 20
29.2400301037
 30
0.0
  0
SPLINE
  5
331
100
AcDbEntity
  8
0
100
AcDbSpline
 62
7
  6
BYLAYER
 70
0
 71
3
 72
10
 73
6
 74
0
 42
0.0000001
 43
0.0000001
 44
0.0000000001
 40
0.0
 40
0.0
 40
0.0
 40
0.0
 40
0.3102662497
 40
0.6435286351
 40
1.0
 40
1.0
 40
1.0
 40
1.0
 10
19.5586141606
 20
27.2428641456
 30
0.0
 10
19.5586141606
 20
27.2480550841
 30
0.0
 10
19.5580281895
 20
27.2588267562
 30
0.0
 10
19.5555949388
 20
27.2753976185
 30
0.0
 10
19.5530098778
 20
27.286657286
 30
0.0
 10
19.5514784626
 20
27.2924212946
 30
0.0
  0
LINE
  5
332
100
AcDbEntity
  8
0
100
AcDbLine
 62
7
  6
BYLAYER
 10
19.5585918509
 20
28.9586818925
 11
19.5586088516
 21
28.9467482666
  0
SPLINE
  5
333
100
AcDbEntity
  8
0
100
AcDbSpline
 62
7
  6
BYLAYER
 70
0
 71
3
 72
11
 73
7
 74
0
 42
0.0000001
 43
0.0000001
 44
0.0000000001
 40
0.0
 40
0.0
 40
0.0
 40
0.0
 40
0.1716811847
 40
0.3964056823
 40
0.6784820431
 40
1.0
 40
1.0
 40
1.0
 40
1.0
 10
19.517413498
 20
29.155280036
 30
0.0
 10
19.5273267418
 20
29.1488421775
 30
0.0
 10
19.5441082604
 20
29.1252478995
 30
0.0
 10
19.5542564822
 20
29.0793525424
 30
0.0
 10
19.5583265772
 20
29.0223801268
 30
0.0
 10
19.5585588069
 20
28.9808183707
 30
0.0
 10
19.5586023744
 20
28.9586818925
 30
0.0
  0
SPLINE
  5
334
100
AcDbEntity
  8
0
100
AcDbSpline
 62
7
  6
BYLAYER
 70
0
 71
3
 72
12
 73
8
 74
0
 42
0.0000001
 43
0.0000001
 44
0.0000000001
 40
0.0
 40
0.0
 40
0.0
 40
0.0
 40
0.1824880469
 40
0.3743859959
 40
0.5731350451
 40
0.7820616787
 40
1.0
 40
1.0
 40
1.0
 40
1.0
 10
19.5514784626
 20
27.2924212946
 30
0.0
 10
19.5436284232
 20
27.3314026346
 30
0.0
 10
19.5141030782
 20
27.4091742377
 30
0.0
 10
19.4354619919
 20
27.5083969979
 30
0.0
 10
19.3280522835
 20
27.5854820138
 30
0.0
 10
19.1995349936
 20
27.6348388243
 30
0.0
 10
19.1061026314
 20
27.646204249
 30
0.0
 10
19.0586141606
 20
27.646204249
 30
0.0
  0
SPLINE
  5
335
100
AcDbEntity
  8
0
100
AcDbSpline
 62
7
  6
BYLAYER
 70
0
 71
3
 72
12
 73
8
 74
0
 42
0.0000001
 43
0.0000001
 44
0.0000000001
 40
0.0
 40
0.0
 40
0.0
 40
0.0
 40
0.2238764071
 40
0.4312665163
 40
0.628217374
 40
0.8165688055
 40
1.0
 40
1.0
 40
1.0
 40
1.0
 10
4.8777246287
 20
19.2478724341
 30
0.0
 10
4.8413787121
 20
19.2478724341
 30
0.0
 10
4.7708257882
 20
19.2589298486
 30
0.0
 10
4.6783788419
 20
19.3055143333
 30
0.0
 10
4.6085644061
 20
19.374058984
 30
0.0
 10
4.5653376905
 20
19.4573205634
 30
0.0
 10
4.5554878124
 20
19.5180927222
 30
0.0
 10
4.5554878124
 20
19.5478724341
 30
0.0
  0
SPLINE
  5
336
100
AcDbEntity
  8
0
100
AcDbSpline
 62
7
  6
BYLAYER
 70
0
 71
3
 72
12
 73
8
 74
0
 42
0.0000001
 43
0.0000001
 44
0.0000000001
 40
0.0
 40
0.0
 40
0.0
 40
0.0
 40
0.1946623577
 40
0.3900146712
 40
0.5873005678
 40
0.7879345606
 40
1.0
 40
1.0
 40
1.0
 40
1.0
 10
4.495445764
 20
19.5478724341
 30
0.0
 10
4.495445764
 20
19.5181685143
 30
0.0
 10
4.5039343429
 20
19.4583220262
 30
0.0
 10
4.5414366154
 20
19.3755941296
 30
0.0
 10
4.6025444967
 20
19.3067937615
 30
0.0
 10
4.6844857671
 20
19.2593369808
 30
0.0
 10
4.748046894
 20
19.2478724341
 30
0.0
 10
4.7804063849
 20
19.2478724341
 30
0.0
  0
SPLINE
  5
337
100
AcDbEntity
  8
0
100
AcDbSpline
 62
7
  6
BYLAYER
 70
0
 71
3
 72
25
 73
21
 74
0
 42
0.0000001
 43
0.0000001
 44
0.0000000001
 40
0.0
 40
0.0
 40
0.0
 40
0.0
 40
0.2886787132
 40
0.4204963436
 40
0.54040541
 40
0.6466453388
 40
0.7397390699
 40
0.8167966719
 40
0.850336113
 40
0.8804810247
 40
0.9093743158
 40
0.934156892
 40
0.9548027945
 40
0.9713008738
 40
0.9828885474
 40
0.991063696
 40
0.9939775206
 40
0.996243611
 40
0.9981118583
 40
1.0
 40
1.0
 40
1.0
 40
1.0
 10
5.0676779394
 20
20.5548480063
 30
0.0
 10
5.0766640877
 20
20.5546265625
 30
0.0
 10
5.0897523315
 20
20.5542455698
 30
0.0
 10
5.1065668178
 20
20.5535900057
 30
0.0
 10
5.117701193
 20
20.5530703958
 30
0.0
 10
5.1276264521
 20
20.5525154877
 30
0.0
 10
5.1362133972
 20
20.551935917
 30
0.0
 10
5.1425348092
 20
20.5514140951
 30
0.0
 10
5.1468960148
 20
20.5509824577
 30
0.0
 10
5.1497608831
 20
20.5506615111
 30
0.0
 10
5.1523495835
 20
20.5503276842
 30
0.0
 10
5.1546378273
 20
20.5499791589
 30
0.0
 10
5.1565339583
 20
20.549628154
 30
0.0
 10
5.158013499
 20
20.5492835504
 30
0.0
 10
5.1590903475
 20
20.5489455811
 30
0.0
 10
5.1597410541
 20
20.5486557364
 30
0.0
 10
5.160074205
 20
20.5484036294
 30
0.0
 10
5.1602151556
 20
20.5482304075
 30
0.0
 10
5.1602650896
 20
20.5480414914
 30
0.0
 10
5.1602287351
 20
20.5479241591
 30
0.0
 10
5.1602010714
 20
20.547872281
 30
0.0
  0
SPLINE
  5
338
100
AcDbEntity
  8
0
100
AcDbSpline
 62
7
  6
BYLAYER
 70
0
 71
3
 72
14
 73
10
 74
0
 42
0.0000001
 43
0.0000001
 44
0.0000000001
 40
0.0
 40
0.0
 40
0.0
 40
0.0
 40
0.1703228992
 40
0.2501299026
 40
0.3360624334
 40
0.5000032533
 40
0.6608504338
 40
0.8496901885
 40
1.0
 40
1.0
 40
1.0
 40
1.0
 10
5.2211777969
 20
21.0478724334
 30
0.0
 10
5.2198393806
 20
20.9456825981
 30
0.0
 10
5.2200539893
 20
20.7955900441
 30
0.0
 10
5.2178516085
 20
20.5939542146
 30
0.0
 10
5.2151283039
 20
20.396155273
 30
0.0
 10
5.2127400096
 20
20.1497222583
 30
0.0
 10
5.2095413932
 20
19.8415477137
 30
0.0
 10
5.2065943487
 20
19.5415497898
 30
0.0
 10
5.2047419449
 20
19.3380588074
 30
0.0
 10
5.2038977082
 20
19.2478725827
 30
0.0
  0
LINE
  5
339
100
AcDbEntity
  8
0
100
AcDbLine
 62
7
  6
BYLAYER
 10
5.0676779394
 20
20.5548480063
 11
5.0672311325
 21
21.0478724341
  0
SPLINE
  5
33A
100
AcDbEntity
  8
0
100
AcDbSpline
 62
7
  6
BYLAYER
 70
0
 71
3
 72
12
 73
8
 74
0
 42
0.0000001
 43
0.0000001
 44
0.0000000001
 40
0.0
 40
0.0
 40
0.0
 40
0.0
 40
0.2115608057
 40
0.4120484801
 40
0.6094255119
 40
0.8049464465
 40
1.0
 40
1.0
 40
1.0
 40
1.0
 10
4.7804063849
 20
19.2478724341
 30
0.0
 10
4.7480841757
 20
19.2478724341
 30
0.0
 10
4.6845531545
 20
19.2593212709
 30
0.0
 10
4.6025230714
 20
19.3066512706
 30
0.0
 10
4.5411210645
 20
19.3753478638
 30
0.0
 10
4.5031786364
 20
19.4581001517
 30
0.0
 10
4.4943996025
 20
19.5180724186
 30
0.0
 10
4.4942851937
 20
19.5478724341
 30
0.0
  0
SPLINE
  5
33B
100
AcDbEntity
  8
0
100
AcDbSpline
 62
7
  6
BYLAYER
 70
0
 71
3
 72
12
 73
8
 74
0
 42
0.0000001
 43
0.0000001
 44
0.0000000001
 40
0.0
 40
0.0
 40
0.0
 40
0.0
 40
0.1842413078
 40
0.3718874441
 40
0.5678195036
 40
0.7748489745
 40
1.0
 40
1.0
 40
1.0
 40
1.0
 10
4.5573903602
 20
19.5478724341
 30
0.0
 10
4.5572000729
 20
19.5180235165
 30
0.0
 10
4.566683124
 20
19.4572886548
 30
0.0
 10
4.6093725809
 20
19.3741329882
 30
0.0
 10
4.6785427217
 20
19.3056997038
 30
0.0
 10
4.7706769354
 20
19.2589777047
 30
0.0
 10
4.8412471903
 20
19.2478724341
 30
0.0
 10
4.8777246287
 20
19.2478724341
 30
0.0
  0
SPLINE
  5
33C
100
AcDbEntity
  8
0
100
AcDbSpline
 62
7
  6
BYLAYER
 70
0
 71
3
 72
12
 73
8
 74
0
 42
0.0000001
 43
0.0000001
 44
0.0000000001
 40
0.0
 40
0.0
 40
0.0
 40
0.0
 40
0.1882889224
 40
0.3773267864
 40
0.5771477683
 40
0.7861912723
 40
1.0
 40
1.0
 40
1.0
 40
1.0
 10
5.1654563036
 20
19.2478724341
 30
0.0
 10
5.1393966142
 20
19.2478724341
 30
0.0
 10
5.0865738381
 20
19.2601618797
 30
0.0
 10
5.0211079003
 20
19.3087711217
 30
0.0
 10
4.9730536221
 20
19.3776029308
 30
0.0
 10
4.9437772638
 20
19.4595383066
 30
0.0
 10
4.9371914736
 20
19.5182807355
 30
0.0
 10
4.9371914736
 20
19.5478724341
 30
0.0
  0
SPLINE
  5
33D
100
AcDbEntity
  8
0
100
AcDbSpline
 62
7
  6
BYLAYER
 70
0
 71
3
 72
12
 73
8
 74
0
 42
0.0000001
 43
0.0000001
 44
0.0000000001
 40
0.0
 40
0.0
 40
0.0
 40
0.0
 40
0.1791823266
 40
0.3643963792
 40
0.5607777725
 40
0.7707379876
 40
1.0
 40
1.0
 40
1.0
 40
1.0
 10
5.1132258525
 20
19.5478724341
 30
0.0
 10
5.1132258525
 20
19.5180497356
 30
0.0
 10
5.1236523671
 20
19.4569534721
 30
0.0
 10
5.1691519853
 20
19.3736613203
 30
0.0
 10
5.2422836657
 20
19.3053153717
 30
0.0
 10
5.3389933112
 20
19.258876501
 30
0.0
 10
5.4126211104
 20
19.2478724341
 30
0.0
 10
5.4507789577
 20
19.2478724341
 30
0.0
  0
SPLINE
  5
33E
100
AcDbEntity
  8
0
100
AcDbSpline
 62
7
  6
BYLAYER
 70
0
 71
3
 72
12
 73
8
 74
0
 42
0.0000001
 43
0.0000001
 44
0.0000000001
 40
0.0
 40
0.0
 40
0.0
 40
0.0
 40
0.2285048439
 40
0.4384808813
 40
0.6352621689
 40
0.8208561957
 40
1.0
 40
1.0
 40
1.0
 40
1.0
 10
18.2664493635
 20
19.2478724341
 30
0.0
 10
18.3044812073
 20
19.2478724341
 30
0.0
 10
18.3779801597
 20
19.2588205806
 30
0.0
 10
18.4746876471
 20
19.3051300656
 30
0.0
 10
18.5479821929
 20
19.3735071742
 30
0.0
 10
18.5935688858
 20
19.4569031659
 30
0.0
 10
18.6040024688
 20
19.5180561332
 30
0.0
 10
18.6040024688
 20
19.5478724341
 30
0.0
  0
SPLINE
  5
33F
100
AcDbEntity
  8
0
100
AcDbSpline
 62
7
  6
BYLAYER
 70
0
 71
3
 72
12
 73
8
 74
0
 42
0.0000001
 43
0.0000001
 44
0.0000000001
 40
0.0
 40
0.0
 40
0.0
 40
0.0
 40
0.2138552422
 40
0.4224861565
 40
0.621967265
 40
0.8110695139
 40
1.0
 40
1.0
 40
1.0
 40
1.0
 10
18.7800368477
 20
19.5478724341
 30
0.0
 10
18.7800368477
 20
19.5182744807
 30
0.0
 10
18.7734553397
 20
19.4595828088
 30
0.0
 10
18.7442275855
 20
19.3777392945
 30
0.0
 10
18.6962836974
 20
19.3089563625
 30
0.0
 10
18.6308446942
 20
19.2602313582
 30
0.0
 10
18.5779203397
 20
19.2478724341
 30
0.0
 10
18.5517720177
 20
19.2478724341
 30
0.0
  0
SPLINE
  5
340
100
AcDbEntity
  8
0
100
AcDbSpline
 62
7
  6
BYLAYER
 70
0
 71
3
 72
12
 73
8
 74
0
 42
0.0000001
 43
0.0000001
 44
0.0000000001
 40
0.0
 40
0.0
 40
0.0
 40
0.0
 40
0.2238764071
 40
0.4312665163
 40
0.628217374
 40
0.8165688055
 40
1.0
 40
1.0
 40
1.0
 40
1.0
 10
18.8395036926
 20
19.2478724341
 30
0.0
 10
18.8758496091
 20
19.2478724341
 30
0.0
 10
18.9464025331
 20
19.2589298486
 30
0.0
 10
19.0388494794
 20
19.3055143333
 30
0.0
 10
19.1086639152
 20
19.374058984
 30
0.0
 10
19.1518906308
 20
19.4573205634
 30
0.0
 10
19.1617405089
 20
19.5180927222
 30
0.0
 10
19.1617405089
 20
19.5478724341
 30
0.0
  0
SPLINE
  5
341
100
AcDbEntity
  8
0
100
AcDbSpline
 62
7
  6
BYLAYER
 70
0
 71
3
 72
12
 73
8
 74
0
 42
0.0000001
 43
0.0000001
 44
0.0000000001
 40
0.0
 40
0.0
 40
0.0
 40
0.0
 40
0.1946623577
 40
0.3900146712
 40
0.5873005678
 40
0.7879345606
 40
1.0
 40
1.0
 40
1.0
 40
1.0
 10
19.2217825573
 20
19.5478724341
 30
0.0
 10
19.2217825573
 20
19.5181685143
 30
0.0
 10
19.2132939783
 20
19.4583220262
 30
0.0
 10
19.1757917059
 20
19.3755941296
 30
0.0
 10
19.1146838246
 20
19.3067937615
 30
0.0
 10
19.0327425542
 20
19.2593369808
 30
0.0
 10
18.9691814273
 20
19.2478724341
 30
0.0
 10
18.9368219364
 20
19.2478724341
 30
0.0
  0
SPLINE
  5
342
100
AcDbEntity
  8
0
100
AcDbSpline
 62
7
  6
BYLAYER
 70
0
 71
3
 72
12
 73
8
 74
0
 42
0.0000001
 43
0.0000001
 44
0.0000000001
 40
0.0
 40
0.0
 40
0.0
 40
0.0
 40
0.2115608057
 40
0.4120484801
 40
0.6094255119
 40
0.8049464465
 40
1.0
 40
1.0
 40
1.0
 40
1.0
 10
18.9368219364
 20
19.2478724341
 30
0.0
 10
18.9691441456
 20
19.2478724341
 30
0.0
 10
19.0326751668
 20
19.2593212709
 30
0.0
 10
19.1147052499
 20
19.3066512706
 30
0.0
 10
19.1761072568
 20
19.3753478638
 30
0.0
 10
19.2140496849
 20
19.4581001517
 30
0.0
 10
19.2228287188
 20
19.5180724186
 30
0.0
 10
19.2229431276
 20
19.5478724341
 30
0.0
  0
SPLINE
  5
343
100
AcDbEntity
  8
0
100
AcDbSpline
 62
7
  6
BYLAYER
 70
0
 71
3
 72
12
 73
8
 74
0
 42
0.0000001
 43
0.0000001
 44
0.0000000001
 40
0.0
 40
0.0
 40
0.0
 40
0.0
 40
0.1842413078
 40
0.3718874441
 40
0.5678195036
 40
0.7748489745
 40
1.0
 40
1.0
 40
1.0
 40
1.0
 10
19.1598379611
 20
19.5478724341
 30
0.0
 10
19.1600282484
 20
19.5180235165
 30
0.0
 10
19.1505451972
 20
19.4572886548
 30
0.0
 10
19.1078557404
 20
19.3741329882
 30
0.0
 10
19.0386855996
 20
19.3056997038
 30
0.0
 10
18.9465513859
 20
19.2589777047
 30
0.0
 10
18.875981131
 20
19.2478724341
 30
0.0
 10
18.8395036926
 20
19.2478724341
 30
0.0
  0
SPLINE
  5
344
100
AcDbEntity
  8
0
100
AcDbSpline
 62
7
  6
BYLAYER
 70
0
 71
3
 72
14
 73
10
 74
0
 42
0.0000001
 43
0.0000001
 44
0.0000000001
 40
0.0
 40
0.0
 40
0.0
 40
0.0
 40
0.1703594802
 40
0.2001074209
 40
0.3393661577
 40
0.4999983762
 40
0.662662162
 40
0.8371433863
 40
1.0
 40
1.0
 40
1.0
 40
1.0
 10
18.4954582442
 20
21.0478724339
 30
0.0
 10
18.4967947771
 20
20.9456606153
 30
0.0
 10
18.4966684042
 20
20.8255847953
 30
0.0
 10
18.4982971321
 20
20.6219617862
 30
0.0
 10
18.5012368372
 20
20.4241892475
 30
0.0
 10
18.5038927411
 20
20.1466556919
 30
0.0
 10
18.5071561248
 20
19.8479929077
 30
0.0
 10
18.5098881853
 20
19.5479899882
 30
0.0
 10
18.5118253671
 20
19.3455869303
 30
0.0
 10
18.5127400157
 20
19.2478725887
 30
0.0
  0
ELLIPSE
  5
345
100
AcDbEntity
  8
0
100
AcDbEllipse
 62
7
  6
BYLAYER
 10
11.8586141606
 20
-76.2344160923
 30
0.0
 11
-2.2276934463
 21
211.9082613085
 31
0.0
 40
0.0333008537
 41
1.0934898902
 42
1.1014414045
  0
ELLIPSE
  5
346
100
AcDbEntity
  8
0
100
AcDbEllipse
 62
7
  6
BYLAYER
 10
11.8586141606
 20
-76.2344160923
 30
0.0
 11
-3.9794671203
 21
211.908241905
 31
0.0
 40
0.0294415045
 41
1.0932870788
 42
1.1012385931
  0
ELLIPSE
  5
347
100
AcDbEntity
  8
0
100
AcDbEllipse
 62
7
  6
BYLAYER
 10
11.8586141606
 20
-76.2344160923
 30
0.0
 11
3.9794671203
 21
211.908241905
 31
0.0
 40
0.0294415045
 41
-1.1012385931
 42
-1.0932870788
  0
ELLIPSE
  5
348
100
AcDbEntity
  8
0
100
AcDbEllipse
 62
7
  6
BYLAYER
 10
11.8586141606
 20
-76.2344160923
 30
0.0
 11
2.2276934463
 21
211.9082613085
 31
0.0
 40
0.0333008537
 41
-1.1014414045
 42
-1.0934898902
  0
ENDSEC
  0
SECTION
  2
OBJECTS
  0
DICTIONARY
  5
C
100
AcDbDictionary
280
0
281
1
  3
ACAD_GROUP
350
D
  3
ACAD_MLINESTYLE
350
17
  3
ACAD_LAYOUT
350
1A
  3
ACAD_PLOTSETTINGS
350
19
  3
ACAD_PLOTSTYLENAME
350
E
  0
DICTIONARY
  5
D
102
{ACAD_REACTORS
330
C
102
}
100
AcDbDictionary
280
0
281
1
  0
ACDBDICTIONARYWDFLT
  5
E
102
{ACAD_REACTORS
330
C
102
}
100
AcDbDictionary
281
1
  3
Normal
350
F
100
AcDbDictionaryWithDefault
340
F
  0
DICTIONARY
  5
17
102
{ACAD_REACTORS
330
C
102
}
100
AcDbDictionary
280
0
281
1
  3
Standard
350
18
  0
DICTIONARY
  5
19
102
{ACAD_REACTORS
330
C
102
}
100
AcDbDictionary
281
1
  0
DICTIONARY
  5
1A
102
{ACAD_REACTORS
330
C
102
}
100
AcDbDictionary
281
1
  3
Model
350
349
  3
Layout1
350
34A
  0
ACDBPLACEHOLDER
  5
F
102
{ACAD_REACTORS
330
E
102
}
  0
MLINESTYLE
  5
18
102
{ACAD_REACTORS
330
17
102
}
100
AcDbMlineStyle
  2
STANDARD
 70
0
  3

 62
256
 51
90.0
 52
90.0
 71
2
 49
0.5
 62
256
  6
BYLAYER
 49
-0.5
 62
256
  6
BYLAYER
  0
LAYOUT
  5
349
102
{ACAD_REACTORS
330
1A
102
}
100
AcDbPlotSettings
  1

  2
none_device
  4

  6

 40
0.0
 41
0.0
 42
0.0
 43
0.0
 44
210.0
 45
297.0
 46
0.0
 47
0.0
 48
0.0
 49
0.0
140
0.0
141
0.0
142
1.0
143
1.0
 70
1024
 72
1
 73
0
 74
0
  7

 75
0
147
1.0
148
0.0
149
0.0
100
AcDbLayout
  1
Model
 70
0
 71
0
 10
0.0
 20
0.0
 11
210.0
 21
297.0
 12
0.0
 22
0.0
 32
0.0
 14
0.0
 24
0.0
 34
0.0
 15
0.0
 25
0.0
 35
0.0
146
0.0
 13
0.0
 23
0.0
 33
0.0
 16
1.0
 26
0.0
 36
0.0
 17
0.0
 27
1.0
 37
0.0
 76
0
330
210
345
0
346
0
  0
LAYOUT
  5
34A
102
{ACAD_REACTORS
330
1A
102
}
100
AcDbPlotSettings
  1

  2
none_device
  4

  6

 40
0.0
 41
0.0
 42
0.0
 43
0.0
 44
210.0
 45
297.0
 46
0.0
 47
0.0
 48
0.0
 49
0.0
140
0.0
141
0.0
142
1.0
143
1.0
 70
0
 72
1
 73
0
 74
0
  7

 75
0
147
1.0
148
0.0
149
0.0
100
AcDbLayout
  1
Layout1
 70
0
 71
1
 10
0.0
 20
0.0
 11
210.0
 21
297.0
 12
0.0
 22
0.0
 32
0.0
 14
0.0
 24
0.0
 34
0.0
 15
0.0
 25
0.0
 35
0.0
146
0.0
 13
0.0
 23
0.0
 33
0.0
 16
1.0
 26
0.0
 36
0.0
 17
0.0
 27
1.0
 37
0.0
 76
0
330
211
345
0
346
0
  0
ENDSEC
  0
EOF
