999
DXF file: C:\Users\sesa63760\Dev\_Creo\CAD\MCADUE0002064_3D-CAD\drw0001_6.dxf
999
Pro/ENGINEER 2019471 by Parametric Technology Corporation
  0
SECTION
  2
HEADER
  9
$ACADVER
  1
AC1024
  9
$DWGCODEPAGE
  3
ANSI_1252
  9
$EXTMAX
 10
278.0938487722
 20
393.3041575492
 30
0.0
  9
$EXTMIN
 10
0.0
 20
0.0
 30
0.0
  9
$LIMMIN
 10
0.0
 20
0.0
  9
$LIMMAX
 10
278.0938487722
 20
393.3041575492
  9
$VIEWCTR
 10
139.0469243861
 20
196.6520787746
  9
$VIEWSIZE
 40
393.3041575492
  9
$CLAYER
  8
0
  9
$LTSCALE
 40
25.637604344
  9
$CELTYPE
  6
BYLAYER
  9
$DIMSCALE
 40
1.0
  9
$DIMASZ
 40
3.3106410568
  9
$DIMEXO
 40
1.0
  9
$DIMDLI
 40
17.7132539104
  9
$DIMEXE
 40
1.0
  9
$DIMCEN
 40
4.1952443472
  9
$DIMLFAC
 40
1.0
  9
$DIMBLK
  1
_FILLED
  9
$DIMALT
 70
0
  9
$DIMALTF
 40
0.0393700787
  9
$DIMTXT
 40
4.6348974795
  9
$DIMTOL
 70
1
  9
$DIMLIM
 70
0
  9
$DIMTFAC
 40
1.0
  9
$DIMTP
 40
0.01
  9
$DIMTM
 40
0.01
  9
$DIMGAP
 40
0.625
  9
$DIMDSEP
 70
46
  9
$AUNITS
 70
0
  9
$PDMODE
 70
3
  9
$PDSIZE
 40
0.3125
  9
$HANDSEED
  5
292
  9
$TILEMODE
 70
1
  9
$MEASUREMENT
 70
1
  9
$INSUNITS
 70
4
  0
ENDSEC
  0
SECTION
  2
CLASSES
  0
CLASS
  1
ACDBDICTIONARYWDFLT
  2
AcDbDictionaryWithDefault
  3
AutoCAD 2000
 90
0
 91
1
280
0
281
0
  0
CLASS
  1
ACDBPLACEHOLDER
  2
AcDbPlaceHolder
  3
AutoCAD 2000
 90
0
 91
1
280
0
281
0
  0
CLASS
  1
LAYOUT
  2
AcDbLayout
  3
AutoCAD 2000
 90
0
 91
0
280
0
281
0
  0
ENDSEC
  0
SECTION
  2
TABLES
  0
TABLE
  2
VPORT
  5
8
100
AcDbSymbolTable
 70
2
  0
VPORT
  5
1F4
100
AcDbSymbolTableRecord
100
AcDbViewportTableRecord
  2
*ACTIVE
 70
0
 10
0.0
 20
0.0
 11
1.0
 21
1.0
 12
139.0469243861
 22
196.6520787746
 13
0.0
 23
0.0
 14
1.0
 24
1.0
 15
0.0
 25
0.0
 16
0.0
 26
0.0
 36
1.0
 17
0.0
 27
0.0
 37
0.0
 40
393.3041575492
 41
0.7070707071
 42
50.0
 43
0.0
 44
0.0
 50
0.0
 51
0.0
 71
0
 72
100
 73
1
 74
1
 75
0
 76
0
 77
0
 78
0
  0
ENDTAB
  0
TABLE
  2
LTYPE
  5
5
100
AcDbSymbolTable
 70
6
  0
LTYPE
  5
14
100
AcDbSymbolTableRecord
100
AcDbLinetypeTableRecord
  2
BYBLOCK
 70
0
  3

 72
65
 73
0
 40
0.0
  0
LTYPE
  5
15
100
AcDbSymbolTableRecord
100
AcDbLinetypeTableRecord
  2
BYLAYER
 70
0
  3

 72
65
 73
0
 40
0.0
  0
LTYPE
  5
16
100
AcDbSymbolTableRecord
100
AcDbLinetypeTableRecord
  2
CONTINUOUS
 70
64
  3
Solid line
 72
65
 73
0
 40
0.0
  0
LTYPE
  5
1F5
100
AcDbSymbolTableRecord
100
AcDbLinetypeTableRecord
  2
CENTER
 70
64
  3
____ _ ____ _ ____ _ ____ _ ____ _ ____ _ ____
 72
65
 73
4
 40
0.6
 49
0.375
 74
0
 49
-0.075
 74
0
 49
0.075
 74
0
 49
-0.075
 74
0
  0
LTYPE
  5
1F6
100
AcDbSymbolTableRecord
100
AcDbLinetypeTableRecord
  2
HIDDEN
 70
64
  3
- - - - - - - - - - - - - - - - - - - -
 72
65
 73
2
 40
0.2
 49
0.1
 74
0
 49
-0.1
 74
0
  0
LTYPE
  5
1F7
100
AcDbSymbolTableRecord
100
AcDbLinetypeTableRecord
  2
PHANTOM
 70
64
  3
_____ _ _ _____ _ _ _____ _ _ _____
 72
65
 73
6
 40
0.8
 49
0.45
 74
0
 49
-0.05
 74
0
 49
0.1
 74
0
 49
-0.05
 74
0
 49
0.1
 74
0
 49
-0.05
 74
0
  0
LTYPE
  5
1F8
100
AcDbSymbolTableRecord
100
AcDbLinetypeTableRecord
  2
DOT
 70
64
  3
. . . . . . . . . . . . . . . . . . . .
 72
65
 73
2
 40
0.2
 49
0.1
 74
0
 49
-0.1
 74
0
  0
LTYPE
  5
1F9
100
AcDbSymbolTableRecord
100
AcDbLinetypeTableRecord
  2
DASHED
 70
64
  3
- - - - - - - - - - - - - - - - - - - -
 72
65
 73
2
 40
0.2
 49
0.1
 74
0
 49
-0.1
 74
0
  0
ENDTAB
  0
TABLE
  2
LAYER
  5
2
100
AcDbSymbolTable
 70
36
  0
LAYER
  5
10
100
AcDbSymbolTableRecord
100
AcDbLayerTableRecord
  2
0
 70
0
 62
7
  6
CONTINUOUS
370
-3
390
F
  0
LAYER
  5
1FA
100
AcDbSymbolTableRecord
100
AcDbLayerTableRecord
  2
DEFAULT_1
 70
0
 62
7
  6
CENTER
370
-3
390
F
  0
LAYER
  5
1FB
100
AcDbSymbolTableRecord
100
AcDbLayerTableRecord
  2
DEFAULT_2
 70
0
 62
8
  6
HIDDEN
370
-3
390
F
  0
LAYER
  5
1FC
100
AcDbSymbolTableRecord
100
AcDbLayerTableRecord
  2
DEFAULT_3
 70
0
 62
7
  6
PHANTOM
370
-3
390
F
  0
LAYER
  5
1FD
100
AcDbSymbolTableRecord
100
AcDbLayerTableRecord
  2
00_COMPONENTS
 70
0
 62
7
  6
CONTINUOUS
370
-3
390
F
  0
LAYER
  5
1FE
100
AcDbSymbolTableRecord
100
AcDbLayerTableRecord
  2
01_1_DEFAULT_DATUMS
 70
0
 62
7
  6
CONTINUOUS
370
-3
390
F
  0
LAYER
  5
1FF
100
AcDbSymbolTableRecord
100
AcDbLayerTableRecord
  2
01_PLANES
 70
0
 62
7
  6
CONTINUOUS
370
-3
390
F
  0
LAYER
  5
200
100
AcDbSymbolTableRecord
100
AcDbLayerTableRecord
  2
02_COORD_SYS
 70
0
 62
7
  6
CONTINUOUS
370
-3
390
F
  0
LAYER
  5
201
100
AcDbSymbolTableRecord
100
AcDbLayerTableRecord
  2
03_AXES
 70
0
 62
7
  6
CONTINUOUS
370
-3
390
F
  0
LAYER
  5
202
100
AcDbSymbolTableRecord
100
AcDbLayerTableRecord
  2
04_POINTS
 70
0
 62
7
  6
CONTINUOUS
370
-3
390
F
  0
LAYER
  5
203
100
AcDbSymbolTableRecord
100
AcDbLayerTableRecord
  2
05_CURVES
 70
0
 62
7
  6
CONTINUOUS
370
-3
390
F
  0
LAYER
  5
204
100
AcDbSymbolTableRecord
100
AcDbLayerTableRecord
  2
06_SURFS
 70
0
 62
7
  6
CONTINUOUS
370
-3
390
F
  0
LAYER
  5
205
100
AcDbSymbolTableRecord
100
AcDbLayerTableRecord
  2
07_COSMETICS
 70
0
 62
7
  6
CONTINUOUS
370
-3
390
F
  0
LAYER
  5
206
100
AcDbSymbolTableRecord
100
AcDbLayerTableRecord
  2
10_NOTES
 70
0
 62
7
  6
CONTINUOUS
370
-3
390
F
  0
LAYER
  5
207
100
AcDbSymbolTableRecord
100
AcDbLayerTableRecord
  2
11_NOTES_PUB
 70
0
 62
7
  6
CONTINUOUS
370
-3
390
F
  0
LAYER
  5
208
100
AcDbSymbolTableRecord
100
AcDbLayerTableRecord
  2
13_REF_GTOL
 70
0
 62
7
  6
CONTINUOUS
370
-3
390
F
  0
LAYER
  5
209
100
AcDbSymbolTableRecord
100
AcDbLayerTableRecord
  2
16_MISC
 70
0
 62
7
  6
CONTINUOUS
370
-3
390
F
  0
LAYER
  5
20A
100
AcDbSymbolTableRecord
100
AcDbLayerTableRecord
  2
17_NO_PRINT
 70
0
 62
7
  6
CONTINUOUS
370
-3
390
F
  0
LAYER
  5
20B
100
AcDbSymbolTableRecord
100
AcDbLayerTableRecord
  2
18_DATUM_CAMS_JOINTS
 70
0
 62
7
  6
CONTINUOUS
370
-3
390
F
  0
LAYER
  5
20C
100
AcDbSymbolTableRecord
100
AcDbLayerTableRecord
  2
19_DATUM_FUNCTIONAL
 70
0
 62
7
  6
CONTINUOUS
370
-3
390
F
  0
LAYER
  5
20D
100
AcDbSymbolTableRecord
100
AcDbLayerTableRecord
  2
20_DATUM_KINEMATIC_SCHEME
 70
0
 62
7
  6
CONTINUOUS
370
-3
390
F
  0
ENDTAB
  0
TABLE
  2
STYLE
  5
3
100
AcDbSymbolTable
 70
1
  0
STYLE
  5
11
100
AcDbSymbolTableRecord
100
AcDbTextStyleTableRecord
  2
STANDARD
 70
0
 40
0.0
 41
0.8
 50
0.0
 71
0
 42
0.2
  3
txt
  4

  0
STYLE
  5
20E
100
AcDbSymbolTableRecord
100
AcDbTextStyleTableRecord
  2
TEXTSTYLE_1
 70
0
 40
0.0
 41
0.8
 50
0.0
 71
0
 42
0.2
  3
gdt
  4

  0
ENDTAB
  0
TABLE
  2
VIEW
  5
6
100
AcDbSymbolTable
 70
0
  0
ENDTAB
  0
TABLE
  2
UCS
  5
7
100
AcDbSymbolTable
 70
0
  0
ENDTAB
  0
TABLE
  2
APPID
  5
9
100
AcDbSymbolTable
 70
1
  0
APPID
  5
20F
100
AcDbSymbolTableRecord
100
AcDbRegAppTableRecord
  2
ACAD
 70
0
  0
ENDTAB
  0
TABLE
  2
BLOCK_RECORD
  5
1
100
AcDbSymbolTable
 70
0
  0
BLOCK_RECORD
  5
210
100
AcDbSymbolTableRecord
100
AcDbBlockTableRecord
  2
*Model_Space
  0
BLOCK_RECORD
  5
211
100
AcDbSymbolTableRecord
100
AcDbBlockTableRecord
  2
*Paper_Space
  0
BLOCK_RECORD
  5
212
100
AcDbSymbolTableRecord
100
AcDbBlockTableRecord
  2
_FILLED
  0
ENDTAB
  0
TABLE
  2
DIMSTYLE
  5
A
100
AcDbSymbolTable
 70
1
100
AcDbDimStyleTable
 71
0
  0
DIMSTYLE
105
213
100
AcDbSymbolTableRecord
100
AcDbDimStyleTableRecord
  2
STANDARD
 70
0
  3

  4

 40
1.0
 41
3.3106410568
 42
1.0
 43
0.38
 44
1.0
 45
0.0
 46
0.0
 47
0.01
 48
0.01
140
4.6348974795
141
0.09
142
0.0
143
25.4
144
1.0
145
0.0
146
1.0
147
0.625
 71
1
 72
0
 73
0
 74
0
 75
0
 76
0
 77
1
 78
8
 79
2
170
0
171
1
172
0
173
0
174
0
175
0
176
0
177
0
178
0
270
2
179
2
271
2
272
2
273
2
274
2
275
0
280
0
281
0
282
0
283
1
284
8
285
0
286
0
287
3
288
0
340
11
278
46
341
212
342
212
343
212
344
212
  0
ENDTAB
  0
ENDSEC
  0
SECTION
  2
BLOCKS
  0
BLOCK
  5
20
100
AcDbEntity
  8
0
100
AcDbBlockBegin
  2
*Model_Space
 70
0
 10
0.0
 20
0.0
 30
0.0
  3
*Model_Space
  1

  0
ENDBLK
  5
21
100
AcDbEntity
  8
0
100
AcDbBlockEnd
  0
BLOCK
  5
1C
100
AcDbEntity
  8
0
100
AcDbBlockBegin
  2
*Paper_Space
 70
0
 10
0.0
 20
0.0
 30
0.0
  3
*Paper_Space
  1

  0
ENDBLK
  5
1D
100
AcDbEntity
  8
0
100
AcDbBlockEnd
  0
BLOCK
  5
214
100
AcDbEntity
  8
0
100
AcDbBlockBegin
  2
_FILLED
 70
64
 10
0.0
 20
0.0
  3
_FILLED
  1

  0
SOLID
  5
215
100
AcDbEntity
  8
0
  6
BYBLOCK
 62
0
100
AcDbTrace
 10
0.0
 20
0.0
 11
-1.0
 21
0.25
 12
-1.0
 22
-0.25
 13
-1.0
 23
-0.25
  0
ENDBLK
  5
216
100
AcDbEntity
  8
0
  6
BYBLOCK
 62
0
100
AcDbBlockEnd
  0
ENDSEC
  0
SECTION
  2
ENTITIES
  0
LINE
  5
217
100
AcDbEntity
  8
0
100
AcDbLine
 62
7
  6
CONTINUOUS
 10
31.4539265743
 20
187.4020787746
 11
31.4539265743
 21
185.9020787746
  0
LINE
  5
218
100
AcDbEntity
  8
0
100
AcDbLine
 62
7
  6
CONTINUOUS
 10
32.9539265743
 20
190.4020787746
 11
32.9539265743
 21
187.4020787746
  0
LINE
  5
219
100
AcDbEntity
  8
0
100
AcDbLine
 62
7
  6
CONTINUOUS
 10
46.4539265743
 20
194.4020787746
 11
46.4539265743
 21
190.4020787746
  0
LINE
  5
21A
100
AcDbEntity
  8
0
100
AcDbLine
 62
7
  6
CONTINUOUS
 10
50.0011498245
 20
194.4020787746
 11
50.0011498245
 21
198.2020787746
  0
LINE
  5
21B
100
AcDbEntity
  8
0
100
AcDbLine
 62
7
  6
CONTINUOUS
 10
50.0279447438
 20
194.4020787746
 11
50.0279447438
 21
198.2020787746
  0
LINE
  5
21C
100
AcDbEntity
  8
0
100
AcDbLine
 62
7
  6
CONTINUOUS
 10
51.9043331186
 20
198.2020787746
 11
51.9043331186
 21
194.4020787746
  0
LINE
  5
21D
100
AcDbEntity
  8
0
100
AcDbLine
 62
7
  6
CONTINUOUS
 10
51.9539265743
 20
206.9020787746
 11
51.9539265743
 21
199.3020787746
  0
LINE
  5
21E
100
AcDbEntity
  8
0
100
AcDbLine
 62
7
  6
CONTINUOUS
 10
52.0775381994
 20
194.4020787746
 11
52.0775381994
 21
198.3020787746
  0
LINE
  5
21F
100
AcDbEntity
  8
0
100
AcDbLine
 62
7
  6
CONTINUOUS
 10
55.8303149491
 20
198.3020787746
 11
55.8303149491
 21
194.4020787746
  0
LINE
  5
220
100
AcDbEntity
  8
0
100
AcDbLine
 62
7
  6
CONTINUOUS
 10
55.9539265743
 20
206.9020787746
 11
55.9539265743
 21
199.3020787746
  0
LINE
  5
221
100
AcDbEntity
  8
0
100
AcDbLine
 62
7
  6
CONTINUOUS
 10
56.0035200299
 20
194.4020787746
 11
56.0035200299
 21
198.2020787746
  0
LINE
  5
222
100
AcDbEntity
  8
0
100
AcDbLine
 62
7
  6
CONTINUOUS
 10
56.4539265743
 20
185.9020787746
 11
56.4539265743
 21
194.4020787746
  0
LINE
  5
223
100
AcDbEntity
  8
0
100
AcDbLine
 62
7
  6
CONTINUOUS
 10
57.8799084047
 20
198.2020787746
 11
57.8799084048
 21
194.4020787746
  0
LINE
  5
224
100
AcDbEntity
  8
0
100
AcDbLine
 62
7
  6
CONTINUOUS
 10
57.906703324
 20
194.4020787746
 11
57.906703324
 21
198.2020787746
  0
LINE
  5
225
100
AcDbEntity
  8
0
100
AcDbLine
 62
7
  6
CONTINUOUS
 10
52.4539265743
 20
207.4020787746
 11
51.9539265743
 21
206.9020787747
  0
LINE
  5
226
100
AcDbEntity
  8
0
100
AcDbLine
 62
7
  6
CONTINUOUS
 10
87.5011498245
 20
194.4020787746
 11
87.5011498245
 21
198.2020787746
  0
LINE
  5
227
100
AcDbEntity
  8
0
100
AcDbLine
 62
7
  6
CONTINUOUS
 10
87.5279447438
 20
194.4020787746
 11
87.5279447438
 21
198.2020787746
  0
LINE
  5
228
100
AcDbEntity
  8
0
100
AcDbLine
 62
7
  6
CONTINUOUS
 10
89.4043331186
 20
198.2020787746
 11
89.4043331186
 21
194.4020787746
  0
LINE
  5
229
100
AcDbEntity
  8
0
100
AcDbLine
 62
7
  6
CONTINUOUS
 10
89.4539265743
 20
206.9020787746
 11
89.4539265743
 21
199.3020787746
  0
LINE
  5
22A
100
AcDbEntity
  8
0
100
AcDbLine
 62
7
  6
CONTINUOUS
 10
89.5775381994
 20
194.4020787746
 11
89.5775381994
 21
198.3020787746
  0
LINE
  5
22B
100
AcDbEntity
  8
0
100
AcDbLine
 62
7
  6
CONTINUOUS
 10
55.4539265743
 20
207.4020787746
 11
55.9539265743
 21
206.9020787747
  0
LINE
  5
22C
100
AcDbEntity
  8
0
100
AcDbLine
 62
7
  6
CONTINUOUS
 10
93.3303149491
 20
198.3020787746
 11
93.3303149491
 21
194.4020787746
  0
LINE
  5
22D
100
AcDbEntity
  8
0
100
AcDbLine
 62
7
  6
CONTINUOUS
 10
93.4539265743
 20
206.9020787746
 11
93.4539265743
 21
199.3020787746
  0
LINE
  5
22E
100
AcDbEntity
  8
0
100
AcDbLine
 62
7
  6
CONTINUOUS
 10
93.5035200299
 20
194.4020787746
 11
93.5035200299
 21
198.2020787746
  0
LINE
  5
22F
100
AcDbEntity
  8
0
100
AcDbLine
 62
7
  6
CONTINUOUS
 10
95.3799084047
 20
198.2020787746
 11
95.3799084048
 21
194.4020787746
  0
LINE
  5
230
100
AcDbEntity
  8
0
100
AcDbLine
 62
7
  6
CONTINUOUS
 10
95.406703324
 20
194.4020787746
 11
95.406703324
 21
198.2020787746
  0
LINE
  5
231
100
AcDbEntity
  8
0
100
AcDbLine
 62
7
  6
CONTINUOUS
 10
89.9539265743
 20
207.4020787746
 11
89.4539265743
 21
206.9020787747
  0
LINE
  5
232
100
AcDbEntity
  8
0
100
AcDbLine
 62
7
  6
CONTINUOUS
 10
92.9539265743
 20
207.4020787746
 11
93.4539265743
 21
206.9020787747
  0
LINE
  5
233
100
AcDbEntity
  8
0
100
AcDbLine
 62
7
  6
CONTINUOUS
 10
251.4539265743
 20
185.9020787746
 11
31.4539265743
 21
185.9020787746
  0
LINE
  5
234
100
AcDbEntity
  8
0
100
AcDbLine
 62
7
  6
CONTINUOUS
 10
31.4539265743
 20
187.4020787746
 11
251.4539265743
 21
187.4020787746
  0
LINE
  5
235
100
AcDbEntity
  8
0
100
AcDbLine
 62
7
  6
CONTINUOUS
 10
32.9539265743
 20
190.4020787746
 11
249.9539265743
 21
190.4020787746
  0
LINE
  5
236
100
AcDbEntity
  8
0
100
AcDbLine
 62
7
  6
CONTINUOUS
 10
236.4539265743
 20
192.4020787746
 11
46.4539265743
 21
192.4020787746
  0
LINE
  5
237
100
AcDbEntity
  8
0
100
AcDbLine
 62
7
  6
CONTINUOUS
 10
46.4539265743
 20
194.4020787746
 11
236.4539265743
 21
194.4020787746
  0
LINE
  5
238
100
AcDbEntity
  8
0
100
AcDbLine
 62
7
  6
CONTINUOUS
 10
50.0011498245
 20
198.2020787746
 11
57.906703324
 21
198.2020787746
  0
LINE
  5
239
100
AcDbEntity
  8
0
100
AcDbLine
 62
7
  6
CONTINUOUS
 10
87.5011498245
 20
198.2020787746
 11
95.406703324
 21
198.2020787746
  0
LINE
  5
23A
100
AcDbEntity
  8
0
100
AcDbLine
 62
7
  6
CONTINUOUS
 10
187.5011498245
 20
198.2020787746
 11
195.406703324
 21
198.2020787746
  0
LINE
  5
23B
100
AcDbEntity
  8
0
100
AcDbLine
 62
7
  6
CONTINUOUS
 10
225.0011498245
 20
198.2020787746
 11
232.906703324
 21
198.2020787746
  0
LINE
  5
23C
100
AcDbEntity
  8
0
100
AcDbLine
 62
7
  6
CONTINUOUS
 10
50.1011842865
 20
198.3020787746
 11
57.8066688621
 21
198.3020787746
  0
LINE
  5
23D
100
AcDbEntity
  8
0
100
AcDbLine
 62
7
  6
CONTINUOUS
 10
87.6011842865
 20
198.3020787746
 11
95.3066688621
 21
198.3020787746
  0
LINE
  5
23E
100
AcDbEntity
  8
0
100
AcDbLine
 62
7
  6
CONTINUOUS
 10
187.6011842865
 20
198.3020787746
 11
195.3067033239
 21
198.3020787746
  0
LINE
  5
23F
100
AcDbEntity
  8
0
100
AcDbLine
 62
7
  6
CONTINUOUS
 10
225.1011842865
 20
198.3020787746
 11
232.8067033239
 21
198.3020787746
  0
LINE
  5
240
100
AcDbEntity
  8
0
100
AcDbLine
 62
7
  6
CONTINUOUS
 10
51.6702097169
 20
199.3020787746
 11
56.2376434317
 21
199.3020787746
  0
LINE
  5
241
100
AcDbEntity
  8
0
100
AcDbLine
 62
7
  6
CONTINUOUS
 10
89.1702097169
 20
199.3020787746
 11
93.7376434317
 21
199.3020787746
  0
LINE
  5
242
100
AcDbEntity
  8
0
100
AcDbLine
 62
7
  6
CONTINUOUS
 10
189.1702097169
 20
199.3020787746
 11
193.7376434317
 21
199.3020787746
  0
LINE
  5
243
100
AcDbEntity
  8
0
100
AcDbLine
 62
7
  6
CONTINUOUS
 10
226.6702097169
 20
199.3020787746
 11
231.2376434317
 21
199.3020787746
  0
LINE
  5
244
100
AcDbEntity
  8
0
100
AcDbLine
 62
7
  6
CONTINUOUS
 10
51.9539265743
 20
206.9020787746
 11
55.9539265743
 21
206.9020787746
  0
LINE
  5
245
100
AcDbEntity
  8
0
100
AcDbLine
 62
7
  6
CONTINUOUS
 10
89.4539265743
 20
206.9020787746
 11
93.4539265743
 21
206.9020787746
  0
LINE
  5
246
100
AcDbEntity
  8
0
100
AcDbLine
 62
7
  6
CONTINUOUS
 10
189.4539265743
 20
206.9020787746
 11
193.4539265743
 21
206.9020787746
  0
LINE
  5
247
100
AcDbEntity
  8
0
100
AcDbLine
 62
7
  6
CONTINUOUS
 10
226.9539265743
 20
206.9020787746
 11
230.9539265743
 21
206.9020787746
  0
LINE
  5
248
100
AcDbEntity
  8
0
100
AcDbLine
 62
7
  6
CONTINUOUS
 10
52.4539293772
 20
207.4020787746
 11
55.4539237713
 21
207.4020787746
  0
LINE
  5
249
100
AcDbEntity
  8
0
100
AcDbLine
 62
7
  6
CONTINUOUS
 10
89.9539293772
 20
207.4020787746
 11
92.9539237713
 21
207.4020787746
  0
LINE
  5
24A
100
AcDbEntity
  8
0
100
AcDbLine
 62
7
  6
CONTINUOUS
 10
189.9539293772
 20
207.4020787746
 11
192.9539237713
 21
207.4020787746
  0
LINE
  5
24B
100
AcDbEntity
  8
0
100
AcDbLine
 62
7
  6
CONTINUOUS
 10
227.4539293772
 20
207.4020787746
 11
230.4539237713
 21
207.4020787746
  0
LINE
  5
24C
100
AcDbEntity
  8
0
100
AcDbLine
 62
7
  6
CONTINUOUS
 10
189.9539265743
 20
207.4020787746
 11
189.4539265743
 21
206.9020787747
  0
LINE
  5
24D
100
AcDbEntity
  8
0
100
AcDbLine
 62
7
  6
CONTINUOUS
 10
192.9539265743
 20
207.4020787746
 11
193.4539265743
 21
206.9020787747
  0
LINE
  5
24E
100
AcDbEntity
  8
0
100
AcDbLine
 62
7
  6
CONTINUOUS
 10
187.5011498245
 20
194.4020787746
 11
187.5011498245
 21
198.2020787746
  0
LINE
  5
24F
100
AcDbEntity
  8
0
100
AcDbLine
 62
7
  6
CONTINUOUS
 10
187.5279447438
 20
194.4020787746
 11
187.5279447438
 21
198.2020787746
  0
LINE
  5
250
100
AcDbEntity
  8
0
100
AcDbLine
 62
7
  6
CONTINUOUS
 10
189.4043331186
 20
198.2020787746
 11
189.4043331186
 21
194.4020787746
  0
LINE
  5
251
100
AcDbEntity
  8
0
100
AcDbLine
 62
7
  6
CONTINUOUS
 10
189.4539265743
 20
206.9020787746
 11
189.4539265743
 21
199.3020787746
  0
LINE
  5
252
100
AcDbEntity
  8
0
100
AcDbLine
 62
7
  6
CONTINUOUS
 10
189.5775381994
 20
194.4020787746
 11
189.5775381994
 21
198.3020787746
  0
LINE
  5
253
100
AcDbEntity
  8
0
100
AcDbLine
 62
7
  6
CONTINUOUS
 10
193.3303149491
 20
198.3020787746
 11
193.3303149491
 21
194.4020787746
  0
LINE
  5
254
100
AcDbEntity
  8
0
100
AcDbLine
 62
7
  6
CONTINUOUS
 10
193.4539265743
 20
206.9020787746
 11
193.4539265743
 21
199.3020787746
  0
LINE
  5
255
100
AcDbEntity
  8
0
100
AcDbLine
 62
7
  6
CONTINUOUS
 10
193.5035200299
 20
194.4020787746
 11
193.5035200299
 21
198.2020787746
  0
LINE
  5
256
100
AcDbEntity
  8
0
100
AcDbLine
 62
7
  6
CONTINUOUS
 10
195.3799084047
 20
198.2020787746
 11
195.3799084048
 21
194.4020787746
  0
LINE
  5
257
100
AcDbEntity
  8
0
100
AcDbLine
 62
7
  6
CONTINUOUS
 10
195.406703324
 20
194.4020787746
 11
195.406703324
 21
198.2020787746
  0
LINE
  5
258
100
AcDbEntity
  8
0
100
AcDbLine
 62
7
  6
CONTINUOUS
 10
227.4539265743
 20
207.4020787746
 11
226.9539265743
 21
206.9020787747
  0
LINE
  5
259
100
AcDbEntity
  8
0
100
AcDbLine
 62
7
  6
CONTINUOUS
 10
230.4539265743
 20
207.4020787746
 11
230.9539265743
 21
206.9020787747
  0
LINE
  5
25A
100
AcDbEntity
  8
0
100
AcDbLine
 62
7
  6
CONTINUOUS
 10
225.0011498245
 20
194.4020787746
 11
225.0011498245
 21
198.2020787746
  0
LINE
  5
25B
100
AcDbEntity
  8
0
100
AcDbLine
 62
7
  6
CONTINUOUS
 10
225.0279447438
 20
194.4020787746
 11
225.0279447438
 21
198.2020787746
  0
LINE
  5
25C
100
AcDbEntity
  8
0
100
AcDbLine
 62
7
  6
CONTINUOUS
 10
226.4539265743
 20
194.4020787746
 11
226.4539265743
 21
185.9020787746
  0
LINE
  5
25D
100
AcDbEntity
  8
0
100
AcDbLine
 62
7
  6
CONTINUOUS
 10
226.9043331186
 20
198.2020787746
 11
226.9043331186
 21
194.4020787746
  0
LINE
  5
25E
100
AcDbEntity
  8
0
100
AcDbLine
 62
7
  6
CONTINUOUS
 10
226.9539265743
 20
206.9020787746
 11
226.9539265743
 21
199.3020787746
  0
LINE
  5
25F
100
AcDbEntity
  8
0
100
AcDbLine
 62
7
  6
CONTINUOUS
 10
227.0775381994
 20
194.4020787746
 11
227.0775381994
 21
198.3020787746
  0
LINE
  5
260
100
AcDbEntity
  8
0
100
AcDbLine
 62
7
  6
CONTINUOUS
 10
230.8303149491
 20
198.3020787746
 11
230.8303149491
 21
194.4020787746
  0
LINE
  5
261
100
AcDbEntity
  8
0
100
AcDbLine
 62
7
  6
CONTINUOUS
 10
230.9539265743
 20
206.9020787746
 11
230.9539265743
 21
199.3020787746
  0
LINE
  5
262
100
AcDbEntity
  8
0
100
AcDbLine
 62
7
  6
CONTINUOUS
 10
231.0035200299
 20
194.4020787746
 11
231.0035200299
 21
198.2020787746
  0
LINE
  5
263
100
AcDbEntity
  8
0
100
AcDbLine
 62
7
  6
CONTINUOUS
 10
232.8799084047
 20
198.2020787746
 11
232.8799084048
 21
194.4020787746
  0
LINE
  5
264
100
AcDbEntity
  8
0
100
AcDbLine
 62
7
  6
CONTINUOUS
 10
232.906703324
 20
194.4020787746
 11
232.906703324
 21
198.2020787746
  0
LINE
  5
265
100
AcDbEntity
  8
0
100
AcDbLine
 62
7
  6
CONTINUOUS
 10
236.4539265743
 20
190.4020787746
 11
236.4539265743
 21
194.4020787746
  0
LINE
  5
266
100
AcDbEntity
  8
0
100
AcDbLine
 62
7
  6
CONTINUOUS
 10
249.9539265743
 20
187.4020787746
 11
249.9539265743
 21
190.4020787746
  0
LINE
  5
267
100
AcDbEntity
  8
0
100
AcDbLine
 62
7
  6
CONTINUOUS
 10
251.4539265743
 20
185.9020787746
 11
251.4539265743
 21
187.4020787746
  0
ARC
  5
268
100
AcDbEntity
  8
0
100
AcDbCircle
 62
7
  6
CONTINUOUS
 10
51.6702097169
 20
198.3020787746
 40
1.0
100
AcDbArc
 50
89.9999999999
 51
180.0
  0
ARC
  5
269
100
AcDbEntity
  8
0
100
AcDbCircle
 62
7
  6
CONTINUOUS
 10
56.2376434317
 20
198.3020787746
 40
1.0
100
AcDbArc
 50
0.0
 51
90.0000000001
  0
ARC
  5
26A
100
AcDbEntity
  8
0
100
AcDbCircle
 62
7
  6
CONTINUOUS
 10
226.6702097169
 20
198.3020787746
 40
1.0
100
AcDbArc
 50
89.9999999999
 51
180.0
  0
ARC
  5
26B
100
AcDbEntity
  8
0
100
AcDbCircle
 62
7
  6
CONTINUOUS
 10
231.2376434317
 20
198.3020787746
 40
1.0
100
AcDbArc
 50
0.0
 51
90.0000000001
  0
ARC
  5
26C
100
AcDbEntity
  8
0
100
AcDbCircle
 62
7
  6
CONTINUOUS
 10
189.1702097169
 20
198.3020787746
 40
1.0
100
AcDbArc
 50
89.9999999999
 51
180.0
  0
ARC
  5
26D
100
AcDbEntity
  8
0
100
AcDbCircle
 62
7
  6
CONTINUOUS
 10
193.7376434317
 20
198.3020787746
 40
1.0
100
AcDbArc
 50
0.0
 51
90.0000000001
  0
ARC
  5
26E
100
AcDbEntity
  8
0
100
AcDbCircle
 62
7
  6
CONTINUOUS
 10
89.1702097169
 20
198.3020787746
 40
1.0
100
AcDbArc
 50
89.9999999999
 51
180.0
  0
ARC
  5
26F
100
AcDbEntity
  8
0
100
AcDbCircle
 62
7
  6
CONTINUOUS
 10
93.7376434317
 20
198.3020787746
 40
1.0
100
AcDbArc
 50
0.0
 51
90.0000000001
  0
ARC
  5
270
100
AcDbEntity
  8
0
100
AcDbCircle
 62
7
  6
CONTINUOUS
 10
50.1011498246
 20
198.2020787746
 40
0.1
100
AcDbArc
 50
90.0
 51
179.9999999505
  0
ARC
  5
271
100
AcDbEntity
  8
0
100
AcDbCircle
 62
7
  6
CONTINUOUS
 10
57.806703324
 20
198.2020787746
 40
0.1
100
AcDbArc
 50
0.0000000495
 51
90.0
  0
ARC
  5
272
100
AcDbEntity
  8
0
100
AcDbCircle
 62
7
  6
CONTINUOUS
 10
225.1011498246
 20
198.2020787746
 40
0.1
100
AcDbArc
 50
90.0
 51
179.9999999506
  0
ARC
  5
273
100
AcDbEntity
  8
0
100
AcDbCircle
 62
7
  6
CONTINUOUS
 10
232.806703324
 20
198.2020787746
 40
0.1
100
AcDbArc
 50
0.0000000499
 51
90.0
  0
ARC
  5
274
100
AcDbEntity
  8
0
100
AcDbCircle
 62
7
  6
CONTINUOUS
 10
187.6011498246
 20
198.2020787746
 40
0.1
100
AcDbArc
 50
90.0
 51
179.9999999507
  0
ARC
  5
275
100
AcDbEntity
  8
0
100
AcDbCircle
 62
7
  6
CONTINUOUS
 10
195.306703324
 20
198.2020787746
 40
0.1
100
AcDbArc
 50
0.0000000487
 51
90.0
  0
ARC
  5
276
100
AcDbEntity
  8
0
100
AcDbCircle
 62
7
  6
CONTINUOUS
 10
87.6011498246
 20
198.2020787746
 40
0.1
100
AcDbArc
 50
90.0
 51
179.9999999508
  0
ARC
  5
277
100
AcDbEntity
  8
0
100
AcDbCircle
 62
7
  6
CONTINUOUS
 10
95.306703324
 20
198.2020787746
 40
0.1
100
AcDbArc
 50
0.0000000495
 51
90.0
  0
ARC
  5
278
100
AcDbEntity
  8
0
100
AcDbCircle
 62
7
  6
CONTINUOUS
 10
57.7932610257
 20
198.2268280386
 40
0.0752507493
100
AcDbArc
 50
80.6878234328
 51
89.9658664351
  0
ARC
  5
279
100
AcDbEntity
  8
0
100
AcDbCircle
 62
7
  6
CONTINUOUS
 10
50.1145921229
 20
198.2268280391
 40
0.0752507489
100
AcDbArc
 50
90.0341357727
 51
99.3121764797
  0
ARC
  5
27A
100
AcDbEntity
  8
0
100
AcDbCircle
 62
7
  6
CONTINUOUS
 10
232.7932610257
 20
198.2268280387
 40
0.0752507493
100
AcDbArc
 50
80.6878234323
 51
89.9658664356
  0
ARC
  5
27B
100
AcDbEntity
  8
0
100
AcDbCircle
 62
7
  6
CONTINUOUS
 10
225.1145921229
 20
198.2268280391
 40
0.0752507489
100
AcDbArc
 50
90.0341357726
 51
99.31217648
  0
ARC
  5
27C
100
AcDbEntity
  8
0
100
AcDbCircle
 62
7
  6
CONTINUOUS
 10
195.2932610257
 20
198.2268280387
 40
0.0752507493
100
AcDbArc
 50
80.6878234325
 51
89.9658664353
  0
ARC
  5
27D
100
AcDbEntity
  8
0
100
AcDbCircle
 62
7
  6
CONTINUOUS
 10
187.6145921229
 20
198.2268280391
 40
0.0752507489
100
AcDbArc
 50
90.0341357726
 51
99.3121764799
  0
ARC
  5
27E
100
AcDbEntity
  8
0
100
AcDbCircle
 62
7
  6
CONTINUOUS
 10
95.2932610257
 20
198.2268280387
 40
0.0752507493
100
AcDbArc
 50
80.6878234325
 51
89.9658664352
  0
ARC
  5
27F
100
AcDbEntity
  8
0
100
AcDbCircle
 62
7
  6
CONTINUOUS
 10
87.6145921229
 20
198.2268280391
 40
0.0752507489
100
AcDbArc
 50
90.0341357726
 51
99.31217648
  0
SPLINE
  5
280
100
AcDbEntity
  8
0
100
AcDbSpline
 62
7
  6
CONTINUOUS
 70
0
 71
3
 72
11
 73
7
 74
0
 42
0.0000001
 43
0.0000001
 44
0.0000000001
 40
0.0
 40
0.0
 40
0.0
 40
0.0
 40
0.233960482
 40
0.4785822374
 40
0.7353800619
 40
1.0
 40
1.0
 40
1.0
 40
1.0
 10
57.8054376162
 20
198.3010870847
 30
0.0
 10
57.8157402367
 20
198.2994012042
 30
0.0
 10
57.8362830781
 20
198.2914227824
 30
0.0
 10
57.8605947519
 20
198.268344614
 30
0.0
 10
57.8763179056
 20
198.2373218342
 30
0.0
 10
57.8799084048
 20
198.2138864873
 30
0.0
 10
57.8799084048
 20
198.2020787746
 30
0.0
  0
SPLINE
  5
281
100
AcDbEntity
  8
0
100
AcDbSpline
 62
7
  6
CONTINUOUS
 70
0
 71
3
 72
11
 73
7
 74
0
 42
0.0000001
 43
0.0000001
 44
0.0000000001
 40
0.0
 40
0.0
 40
0.0
 40
0.0
 40
0.2332466122
 40
0.4766038321
 40
0.7336388477
 40
1.0
 40
1.0
 40
1.0
 40
1.0
 10
51.9909356647
 20
198.3020787746
 30
0.0
 10
51.9795995697
 20
198.3020787755
 30
0.0
 10
51.9561403536
 20
198.2965744394
 30
0.0
 10
51.9274362768
 20
198.2737980771
 30
0.0
 10
51.9086433846
 20
198.2406869253
 30
0.0
 10
51.9043331186
 20
198.2150242803
 30
0.0
 10
51.9043331186
 20
198.2020787746
 30
0.0
  0
SPLINE
  5
282
100
AcDbEntity
  8
0
100
AcDbSpline
 62
7
  6
CONTINUOUS
 70
0
 71
3
 72
11
 73
7
 74
0
 42
0.0000001
 43
0.0000001
 44
0.0000000001
 40
0.0
 40
0.0
 40
0.0
 40
0.0
 40
0.2663611526
 40
0.5233961682
 40
0.7667533878
 40
1.0
 40
1.0
 40
1.0
 40
1.0
 10
56.0035200299
 20
198.2020787746
 30
0.0
 10
56.0035200299
 20
198.2150242805
 30
0.0
 10
55.9992097638
 20
198.2406869261
 30
0.0
 10
55.9804168709
 20
198.2737980783
 30
0.0
 10
55.9517127929
 20
198.2965744405
 30
0.0
 10
55.9282535762
 20
198.3020787759
 30
0.0
 10
55.916917481
 20
198.3020787746
 30
0.0
  0
SPLINE
  5
283
100
AcDbEntity
  8
0
100
AcDbSpline
 62
7
  6
CONTINUOUS
 70
0
 71
3
 72
11
 73
7
 74
0
 42
0.0000001
 43
0.0000001
 44
0.0000000001
 40
0.0
 40
0.0
 40
0.0
 40
0.0
 40
0.264619938
 40
0.5214177624
 40
0.7660395176
 40
1.0
 40
1.0
 40
1.0
 40
1.0
 10
50.0279447438
 20
198.2020787746
 30
0.0
 10
50.0279447438
 20
198.2138864873
 30
0.0
 10
50.031535243
 20
198.2373218342
 30
0.0
 10
50.0472583967
 20
198.2683446141
 30
0.0
 10
50.0715700706
 20
198.2914227825
 30
0.0
 10
50.092112912
 20
198.2994012042
 30
0.0
 10
50.1024155326
 20
198.3010870847
 30
0.0
  0
SPLINE
  5
284
100
AcDbEntity
  8
0
100
AcDbSpline
 62
7
  6
CONTINUOUS
 70
0
 71
3
 72
11
 73
7
 74
0
 42
0.0000001
 43
0.0000001
 44
0.0000000001
 40
0.0
 40
0.0
 40
0.0
 40
0.0
 40
0.233960482
 40
0.4785822374
 40
0.7353800619
 40
1.0
 40
1.0
 40
1.0
 40
1.0
 10
232.8054376162
 20
198.3010870847
 30
0.0
 10
232.8157402367
 20
198.2994012042
 30
0.0
 10
232.8362830781
 20
198.2914227824
 30
0.0
 10
232.8605947519
 20
198.268344614
 30
0.0
 10
232.8763179056
 20
198.2373218342
 30
0.0
 10
232.8799084048
 20
198.2138864873
 30
0.0
 10
232.8799084048
 20
198.2020787746
 30
0.0
  0
SPLINE
  5
285
100
AcDbEntity
  8
0
100
AcDbSpline
 62
7
  6
CONTINUOUS
 70
0
 71
3
 72
11
 73
7
 74
0
 42
0.0000001
 43
0.0000001
 44
0.0000000001
 40
0.0
 40
0.0
 40
0.0
 40
0.0
 40
0.2332466122
 40
0.4766038321
 40
0.7336388477
 40
1.0
 40
1.0
 40
1.0
 40
1.0
 10
226.9909356647
 20
198.3020787746
 30
0.0
 10
226.9795995697
 20
198.3020787755
 30
0.0
 10
226.9561403536
 20
198.2965744394
 30
0.0
 10
226.9274362768
 20
198.2737980771
 30
0.0
 10
226.9086433846
 20
198.2406869253
 30
0.0
 10
226.9043331186
 20
198.2150242803
 30
0.0
 10
226.9043331186
 20
198.2020787746
 30
0.0
  0
SPLINE
  5
286
100
AcDbEntity
  8
0
100
AcDbSpline
 62
7
  6
CONTINUOUS
 70
0
 71
3
 72
11
 73
7
 74
0
 42
0.0000001
 43
0.0000001
 44
0.0000000001
 40
0.0
 40
0.0
 40
0.0
 40
0.0
 40
0.2663611526
 40
0.5233961682
 40
0.7667533878
 40
1.0
 40
1.0
 40
1.0
 40
1.0
 10
231.0035200299
 20
198.2020787746
 30
0.0
 10
231.0035200299
 20
198.2150242805
 30
0.0
 10
230.9992097638
 20
198.2406869261
 30
0.0
 10
230.9804168709
 20
198.2737980783
 30
0.0
 10
230.9517127929
 20
198.2965744405
 30
0.0
 10
230.9282535762
 20
198.3020787759
 30
0.0
 10
230.916917481
 20
198.3020787746
 30
0.0
  0
SPLINE
  5
287
100
AcDbEntity
  8
0
100
AcDbSpline
 62
7
  6
CONTINUOUS
 70
0
 71
3
 72
11
 73
7
 74
0
 42
0.0000001
 43
0.0000001
 44
0.0000000001
 40
0.0
 40
0.0
 40
0.0
 40
0.0
 40
0.264619938
 40
0.5214177624
 40
0.7660395176
 40
1.0
 40
1.0
 40
1.0
 40
1.0
 10
225.0279447438
 20
198.2020787746
 30
0.0
 10
225.0279447438
 20
198.2138864873
 30
0.0
 10
225.031535243
 20
198.2373218342
 30
0.0
 10
225.0472583967
 20
198.2683446141
 30
0.0
 10
225.0715700706
 20
198.2914227825
 30
0.0
 10
225.092112912
 20
198.2994012042
 30
0.0
 10
225.1024155326
 20
198.3010870847
 30
0.0
  0
SPLINE
  5
288
100
AcDbEntity
  8
0
100
AcDbSpline
 62
7
  6
CONTINUOUS
 70
0
 71
3
 72
11
 73
7
 74
0
 42
0.0000001
 43
0.0000001
 44
0.0000000001
 40
0.0
 40
0.0
 40
0.0
 40
0.0
 40
0.233960482
 40
0.4785822374
 40
0.7353800619
 40
1.0
 40
1.0
 40
1.0
 40
1.0
 10
195.3054376162
 20
198.3010870847
 30
0.0
 10
195.3157402367
 20
198.2994012042
 30
0.0
 10
195.3362830781
 20
198.2914227824
 30
0.0
 10
195.3605947519
 20
198.268344614
 30
0.0
 10
195.3763179056
 20
198.2373218342
 30
0.0
 10
195.3799084048
 20
198.2138864873
 30
0.0
 10
195.3799084048
 20
198.2020787746
 30
0.0
  0
SPLINE
  5
289
100
AcDbEntity
  8
0
100
AcDbSpline
 62
7
  6
CONTINUOUS
 70
0
 71
3
 72
11
 73
7
 74
0
 42
0.0000001
 43
0.0000001
 44
0.0000000001
 40
0.0
 40
0.0
 40
0.0
 40
0.0
 40
0.2332466122
 40
0.4766038321
 40
0.7336388477
 40
1.0
 40
1.0
 40
1.0
 40
1.0
 10
189.4909356647
 20
198.3020787746
 30
0.0
 10
189.4795995697
 20
198.3020787755
 30
0.0
 10
189.4561403536
 20
198.2965744394
 30
0.0
 10
189.4274362768
 20
198.2737980771
 30
0.0
 10
189.4086433846
 20
198.2406869253
 30
0.0
 10
189.4043331186
 20
198.2150242803
 30
0.0
 10
189.4043331186
 20
198.2020787746
 30
0.0
  0
SPLINE
  5
28A
100
AcDbEntity
  8
0
100
AcDbSpline
 62
7
  6
CONTINUOUS
 70
0
 71
3
 72
11
 73
7
 74
0
 42
0.0000001
 43
0.0000001
 44
0.0000000001
 40
0.0
 40
0.0
 40
0.0
 40
0.0
 40
0.2663611526
 40
0.5233961682
 40
0.7667533878
 40
1.0
 40
1.0
 40
1.0
 40
1.0
 10
193.5035200299
 20
198.2020787746
 30
0.0
 10
193.5035200299
 20
198.2150242805
 30
0.0
 10
193.4992097638
 20
198.2406869261
 30
0.0
 10
193.4804168709
 20
198.2737980783
 30
0.0
 10
193.4517127929
 20
198.2965744405
 30
0.0
 10
193.4282535762
 20
198.3020787759
 30
0.0
 10
193.416917481
 20
198.3020787746
 30
0.0
  0
SPLINE
  5
28B
100
AcDbEntity
  8
0
100
AcDbSpline
 62
7
  6
CONTINUOUS
 70
0
 71
3
 72
11
 73
7
 74
0
 42
0.0000001
 43
0.0000001
 44
0.0000000001
 40
0.0
 40
0.0
 40
0.0
 40
0.0
 40
0.264619938
 40
0.5214177624
 40
0.7660395176
 40
1.0
 40
1.0
 40
1.0
 40
1.0
 10
187.5279447438
 20
198.2020787746
 30
0.0
 10
187.5279447438
 20
198.2138864873
 30
0.0
 10
187.531535243
 20
198.2373218342
 30
0.0
 10
187.5472583967
 20
198.2683446141
 30
0.0
 10
187.5715700706
 20
198.2914227825
 30
0.0
 10
187.592112912
 20
198.2994012042
 30
0.0
 10
187.6024155326
 20
198.3010870847
 30
0.0
  0
SPLINE
  5
28C
100
AcDbEntity
  8
0
100
AcDbSpline
 62
7
  6
CONTINUOUS
 70
0
 71
3
 72
11
 73
7
 74
0
 42
0.0000001
 43
0.0000001
 44
0.0000000001
 40
0.0
 40
0.0
 40
0.0
 40
0.0
 40
0.233960482
 40
0.4785822374
 40
0.7353800619
 40
1.0
 40
1.0
 40
1.0
 40
1.0
 10
95.3054376162
 20
198.3010870847
 30
0.0
 10
95.3157402367
 20
198.2994012042
 30
0.0
 10
95.3362830781
 20
198.2914227824
 30
0.0
 10
95.3605947519
 20
198.268344614
 30
0.0
 10
95.3763179056
 20
198.2373218342
 30
0.0
 10
95.3799084048
 20
198.2138864873
 30
0.0
 10
95.3799084048
 20
198.2020787746
 30
0.0
  0
SPLINE
  5
28D
100
AcDbEntity
  8
0
100
AcDbSpline
 62
7
  6
CONTINUOUS
 70
0
 71
3
 72
11
 73
7
 74
0
 42
0.0000001
 43
0.0000001
 44
0.0000000001
 40
0.0
 40
0.0
 40
0.0
 40
0.0
 40
0.2332466122
 40
0.4766038321
 40
0.7336388477
 40
1.0
 40
1.0
 40
1.0
 40
1.0
 10
89.4909356647
 20
198.3020787746
 30
0.0
 10
89.4795995697
 20
198.3020787755
 30
0.0
 10
89.4561403536
 20
198.2965744394
 30
0.0
 10
89.4274362768
 20
198.2737980771
 30
0.0
 10
89.4086433846
 20
198.2406869253
 30
0.0
 10
89.4043331186
 20
198.2150242803
 30
0.0
 10
89.4043331186
 20
198.2020787746
 30
0.0
  0
SPLINE
  5
28E
100
AcDbEntity
  8
0
100
AcDbSpline
 62
7
  6
CONTINUOUS
 70
0
 71
3
 72
11
 73
7
 74
0
 42
0.0000001
 43
0.0000001
 44
0.0000000001
 40
0.0
 40
0.0
 40
0.0
 40
0.0
 40
0.2663611526
 40
0.5233961682
 40
0.7667533878
 40
1.0
 40
1.0
 40
1.0
 40
1.0
 10
93.5035200299
 20
198.2020787746
 30
0.0
 10
93.5035200299
 20
198.2150242805
 30
0.0
 10
93.4992097638
 20
198.2406869261
 30
0.0
 10
93.4804168709
 20
198.2737980783
 30
0.0
 10
93.4517127929
 20
198.2965744405
 30
0.0
 10
93.4282535762
 20
198.3020787759
 30
0.0
 10
93.416917481
 20
198.3020787746
 30
0.0
  0
SPLINE
  5
28F
100
AcDbEntity
  8
0
100
AcDbSpline
 62
7
  6
CONTINUOUS
 70
0
 71
3
 72
11
 73
7
 74
0
 42
0.0000001
 43
0.0000001
 44
0.0000000001
 40
0.0
 40
0.0
 40
0.0
 40
0.0
 40
0.264619938
 40
0.5214177624
 40
0.7660395176
 40
1.0
 40
1.0
 40
1.0
 40
1.0
 10
87.5279447438
 20
198.2020787746
 30
0.0
 10
87.5279447438
 20
198.2138864873
 30
0.0
 10
87.531535243
 20
198.2373218342
 30
0.0
 10
87.5472583967
 20
198.2683446141
 30
0.0
 10
87.5715700706
 20
198.2914227825
 30
0.0
 10
87.592112912
 20
198.2994012042
 30
0.0
 10
87.6024155326
 20
198.3010870847
 30
0.0
  0
ENDSEC
  0
SECTION
  2
OBJECTS
  0
DICTIONARY
  5
C
100
AcDbDictionary
280
0
281
1
  3
ACAD_GROUP
350
D
  3
ACAD_MLINESTYLE
350
17
  3
ACAD_LAYOUT
350
1A
  3
ACAD_PLOTSETTINGS
350
19
  3
ACAD_PLOTSTYLENAME
350
E
  0
DICTIONARY
  5
D
102
{ACAD_REACTORS
330
C
102
}
100
AcDbDictionary
280
0
281
1
  0
ACDBDICTIONARYWDFLT
  5
E
102
{ACAD_REACTORS
330
C
102
}
100
AcDbDictionary
281
1
  3
Normal
350
F
100
AcDbDictionaryWithDefault
340
F
  0
DICTIONARY
  5
17
102
{ACAD_REACTORS
330
C
102
}
100
AcDbDictionary
280
0
281
1
  3
Standard
350
18
  0
DICTIONARY
  5
19
102
{ACAD_REACTORS
330
C
102
}
100
AcDbDictionary
281
1
  0
DICTIONARY
  5
1A
102
{ACAD_REACTORS
330
C
102
}
100
AcDbDictionary
281
1
  3
Model
350
290
  3
Layout1
350
291
  0
ACDBPLACEHOLDER
  5
F
102
{ACAD_REACTORS
330
E
102
}
  0
MLINESTYLE
  5
18
102
{ACAD_REACTORS
330
17
102
}
100
AcDbMlineStyle
  2
STANDARD
 70
0
  3

 62
256
 51
90.0
 52
90.0
 71
2
 49
0.5
 62
256
  6
BYLAYER
 49
-0.5
 62
256
  6
BYLAYER
  0
LAYOUT
  5
290
102
{ACAD_REACTORS
330
1A
102
}
100
AcDbPlotSettings
  1

  2
none_device
  4

  6

 40
0.0
 41
0.0
 42
0.0
 43
0.0
 44
210.0
 45
297.0
 46
0.0
 47
0.0
 48
0.0
 49
0.0
140
0.0
141
0.0
142
1.0
143
1.0
 70
1024
 72
1
 73
0
 74
0
  7

 75
0
147
1.0
148
0.0
149
0.0
100
AcDbLayout
  1
Model
 70
0
 71
0
 10
0.0
 20
0.0
 11
210.0
 21
297.0
 12
0.0
 22
0.0
 32
0.0
 14
0.0
 24
0.0
 34
0.0
 15
0.0
 25
0.0
 35
0.0
146
0.0
 13
0.0
 23
0.0
 33
0.0
 16
1.0
 26
0.0
 36
0.0
 17
0.0
 27
1.0
 37
0.0
 76
0
330
210
345
0
346
0
  0
LAYOUT
  5
291
102
{ACAD_REACTORS
330
1A
102
}
100
AcDbPlotSettings
  1

  2
none_device
  4

  6

 40
0.0
 41
0.0
 42
0.0
 43
0.0
 44
210.0
 45
297.0
 46
0.0
 47
0.0
 48
0.0
 49
0.0
140
0.0
141
0.0
142
1.0
143
1.0
 70
0
 72
1
 73
0
 74
0
  7

 75
0
147
1.0
148
0.0
149
0.0
100
AcDbLayout
  1
Layout1
 70
0
 71
1
 10
0.0
 20
0.0
 11
210.0
 21
297.0
 12
0.0
 22
0.0
 32
0.0
 14
0.0
 24
0.0
 34
0.0
 15
0.0
 25
0.0
 35
0.0
146
0.0
 13
0.0
 23
0.0
 33
0.0
 16
1.0
 26
0.0
 36
0.0
 17
0.0
 27
1.0
 37
0.0
 76
0
330
211
345
0
346
0
  0
ENDSEC
  0
EOF
