999
DXF file: C:\Users\sesa63760\Dev\_Creo\CAD\MCADUE0002788_3D-CAD\drw0001_7.dxf
999
Pro/ENGINEER 2019471 by Parametric Technology Corporation
  0
SECTION
  2
HEADER
  9
$ACADVER
  1
AC1024
  9
$DWGCODEPAGE
  3
ANSI_1252
  9
$EXTMAX
 10
43.917128904
 20
62.1113680213
 30
0.0
  9
$EXTMIN
 10
0.0
 20
0.0
 30
0.0
  9
$LIMMIN
 10
0.0
 20
0.0
  9
$LIMMAX
 10
43.917128904
 20
62.1113680213
  9
$VIEWCTR
 10
21.958564452
 20
31.0556840107
  9
$VIEWSIZE
 40
62.1113680213
  9
$CLAYER
  8
0
  9
$LTSCALE
 40
4.0487410266
  9
$CELTYPE
  6
BYLAYER
  9
$DIMSCALE
 40
1.0
  9
$DIMASZ
 40
0.5228229631
  9
$DIMEXO
 40
1.0
  9
$DIMDLI
 40
2.797311982
  9
$DIMEXE
 40
1.0
  9
$DIMCEN
 40
0.6625212589
  9
$DIMLFAC
 40
1.0
  9
$DIMBLK
  1
_FILLED
  9
$DIMALT
 70
0
  9
$DIMALTF
 40
0.0393700787
  9
$DIMTXT
 40
0.7319521484
  9
$DIMTOL
 70
1
  9
$DIMLIM
 70
0
  9
$DIMTFAC
 40
1.0
  9
$DIMTP
 40
0.01
  9
$DIMTM
 40
0.01
  9
$DIMGAP
 40
0.625
  9
$DIMDSEP
 70
46
  9
$AUNITS
 70
0
  9
$PDMODE
 70
3
  9
$PDSIZE
 40
0.3125
  9
$HANDSEED
  5
2BD
  9
$TILEMODE
 70
1
  9
$MEASUREMENT
 70
1
  9
$INSUNITS
 70
4
  0
ENDSEC
  0
SECTION
  2
CLASSES
  0
CLASS
  1
ACDBDICTIONARYWDFLT
  2
AcDbDictionaryWithDefault
  3
AutoCAD 2000
 90
0
 91
1
280
0
281
0
  0
CLASS
  1
ACDBPLACEHOLDER
  2
AcDbPlaceHolder
  3
AutoCAD 2000
 90
0
 91
1
280
0
281
0
  0
CLASS
  1
LAYOUT
  2
AcDbLayout
  3
AutoCAD 2000
 90
0
 91
0
280
0
281
0
  0
ENDSEC
  0
SECTION
  2
TABLES
  0
TABLE
  2
VPORT
  5
8
100
AcDbSymbolTable
 70
2
  0
VPORT
  5
1F4
100
AcDbSymbolTableRecord
100
AcDbViewportTableRecord
  2
*ACTIVE
 70
0
 10
0.0
 20
0.0
 11
1.0
 21
1.0
 12
21.958564452
 22
31.0556840107
 13
0.0
 23
0.0
 14
1.0
 24
1.0
 15
0.0
 25
0.0
 16
0.0
 26
0.0
 36
1.0
 17
0.0
 27
0.0
 37
0.0
 40
62.1113680213
 41
0.7070707071
 42
50.0
 43
0.0
 44
0.0
 50
0.0
 51
0.0
 71
0
 72
100
 73
1
 74
1
 75
0
 76
0
 77
0
 78
0
  0
ENDTAB
  0
TABLE
  2
LTYPE
  5
5
100
AcDbSymbolTable
 70
6
  0
LTYPE
  5
14
100
AcDbSymbolTableRecord
100
AcDbLinetypeTableRecord
  2
BYBLOCK
 70
0
  3

 72
65
 73
0
 40
0.0
  0
LTYPE
  5
15
100
AcDbSymbolTableRecord
100
AcDbLinetypeTableRecord
  2
BYLAYER
 70
0
  3

 72
65
 73
0
 40
0.0
  0
LTYPE
  5
16
100
AcDbSymbolTableRecord
100
AcDbLinetypeTableRecord
  2
CONTINUOUS
 70
64
  3
Solid line
 72
65
 73
0
 40
0.0
  0
LTYPE
  5
1F5
100
AcDbSymbolTableRecord
100
AcDbLinetypeTableRecord
  2
CENTER
 70
64
  3
____ _ ____ _ ____ _ ____ _ ____ _ ____ _ ____
 72
65
 73
4
 40
0.6
 49
0.375
 74
0
 49
-0.075
 74
0
 49
0.075
 74
0
 49
-0.075
 74
0
  0
LTYPE
  5
1F6
100
AcDbSymbolTableRecord
100
AcDbLinetypeTableRecord
  2
HIDDEN
 70
64
  3
- - - - - - - - - - - - - - - - - - - -
 72
65
 73
2
 40
0.2
 49
0.1
 74
0
 49
-0.1
 74
0
  0
LTYPE
  5
1F7
100
AcDbSymbolTableRecord
100
AcDbLinetypeTableRecord
  2
PHANTOM
 70
64
  3
_____ _ _ _____ _ _ _____ _ _ _____
 72
65
 73
6
 40
0.8
 49
0.45
 74
0
 49
-0.05
 74
0
 49
0.1
 74
0
 49
-0.05
 74
0
 49
0.1
 74
0
 49
-0.05
 74
0
  0
LTYPE
  5
1F8
100
AcDbSymbolTableRecord
100
AcDbLinetypeTableRecord
  2
DOT
 70
64
  3
. . . . . . . . . . . . . . . . . . . .
 72
65
 73
2
 40
0.2
 49
0.1
 74
0
 49
-0.1
 74
0
  0
LTYPE
  5
1F9
100
AcDbSymbolTableRecord
100
AcDbLinetypeTableRecord
  2
DASHED
 70
64
  3
- - - - - - - - - - - - - - - - - - - -
 72
65
 73
2
 40
0.2
 49
0.1
 74
0
 49
-0.1
 74
0
  0
ENDTAB
  0
TABLE
  2
LAYER
  5
2
100
AcDbSymbolTable
 70
36
  0
LAYER
  5
10
100
AcDbSymbolTableRecord
100
AcDbLayerTableRecord
  2
0
 70
0
 62
7
  6
CONTINUOUS
370
-3
390
F
  0
LAYER
  5
1FA
100
AcDbSymbolTableRecord
100
AcDbLayerTableRecord
  2
DEFAULT_1
 70
0
 62
7
  6
CENTER
370
-3
390
F
  0
LAYER
  5
1FB
100
AcDbSymbolTableRecord
100
AcDbLayerTableRecord
  2
DEFAULT_2
 70
0
 62
8
  6
HIDDEN
370
-3
390
F
  0
LAYER
  5
1FC
100
AcDbSymbolTableRecord
100
AcDbLayerTableRecord
  2
DEFAULT_3
 70
0
 62
7
  6
PHANTOM
370
-3
390
F
  0
LAYER
  5
1FD
100
AcDbSymbolTableRecord
100
AcDbLayerTableRecord
  2
00_COMPONENTS
 70
0
 62
7
  6
CONTINUOUS
370
-3
390
F
  0
LAYER
  5
1FE
100
AcDbSymbolTableRecord
100
AcDbLayerTableRecord
  2
01_1_DEFAULT_DATUMS
 70
0
 62
7
  6
CONTINUOUS
370
-3
390
F
  0
LAYER
  5
1FF
100
AcDbSymbolTableRecord
100
AcDbLayerTableRecord
  2
01_PLANES
 70
0
 62
7
  6
CONTINUOUS
370
-3
390
F
  0
LAYER
  5
200
100
AcDbSymbolTableRecord
100
AcDbLayerTableRecord
  2
02_COORD_SYS
 70
0
 62
7
  6
CONTINUOUS
370
-3
390
F
  0
LAYER
  5
201
100
AcDbSymbolTableRecord
100
AcDbLayerTableRecord
  2
03_AXES
 70
0
 62
7
  6
CONTINUOUS
370
-3
390
F
  0
LAYER
  5
202
100
AcDbSymbolTableRecord
100
AcDbLayerTableRecord
  2
04_POINTS
 70
0
 62
7
  6
CONTINUOUS
370
-3
390
F
  0
LAYER
  5
203
100
AcDbSymbolTableRecord
100
AcDbLayerTableRecord
  2
05_CURVES
 70
0
 62
7
  6
CONTINUOUS
370
-3
390
F
  0
LAYER
  5
204
100
AcDbSymbolTableRecord
100
AcDbLayerTableRecord
  2
06_SURFS
 70
0
 62
7
  6
CONTINUOUS
370
-3
390
F
  0
LAYER
  5
205
100
AcDbSymbolTableRecord
100
AcDbLayerTableRecord
  2
07_COSMETICS
 70
0
 62
7
  6
CONTINUOUS
370
-3
390
F
  0
LAYER
  5
206
100
AcDbSymbolTableRecord
100
AcDbLayerTableRecord
  2
10_NOTES
 70
0
 62
7
  6
CONTINUOUS
370
-3
390
F
  0
LAYER
  5
207
100
AcDbSymbolTableRecord
100
AcDbLayerTableRecord
  2
11_NOTES_PUB
 70
0
 62
7
  6
CONTINUOUS
370
-3
390
F
  0
LAYER
  5
208
100
AcDbSymbolTableRecord
100
AcDbLayerTableRecord
  2
13_REF_GTOL
 70
0
 62
7
  6
CONTINUOUS
370
-3
390
F
  0
LAYER
  5
209
100
AcDbSymbolTableRecord
100
AcDbLayerTableRecord
  2
16_MISC
 70
0
 62
7
  6
CONTINUOUS
370
-3
390
F
  0
LAYER
  5
20A
100
AcDbSymbolTableRecord
100
AcDbLayerTableRecord
  2
17_NO_PRINT
 70
0
 62
7
  6
CONTINUOUS
370
-3
390
F
  0
LAYER
  5
20B
100
AcDbSymbolTableRecord
100
AcDbLayerTableRecord
  2
18_DATUM_CAMS_JOINTS
 70
0
 62
7
  6
CONTINUOUS
370
-3
390
F
  0
LAYER
  5
20C
100
AcDbSymbolTableRecord
100
AcDbLayerTableRecord
  2
19_DATUM_FUNCTIONAL
 70
0
 62
7
  6
CONTINUOUS
370
-3
390
F
  0
LAYER
  5
20D
100
AcDbSymbolTableRecord
100
AcDbLayerTableRecord
  2
20_DATUM_KINEMATIC_SCHEME
 70
0
 62
7
  6
CONTINUOUS
370
-3
390
F
  0
ENDTAB
  0
TABLE
  2
STYLE
  5
3
100
AcDbSymbolTable
 70
1
  0
STYLE
  5
11
100
AcDbSymbolTableRecord
100
AcDbTextStyleTableRecord
  2
STANDARD
 70
0
 40
0.0
 41
0.8
 50
0.0
 71
0
 42
0.2
  3
txt
  4

  0
STYLE
  5
20E
100
AcDbSymbolTableRecord
100
AcDbTextStyleTableRecord
  2
TEXTSTYLE_1
 70
0
 40
0.0
 41
0.8
 50
0.0
 71
0
 42
0.2
  3
gdt
  4

  0
ENDTAB
  0
TABLE
  2
VIEW
  5
6
100
AcDbSymbolTable
 70
0
  0
ENDTAB
  0
TABLE
  2
UCS
  5
7
100
AcDbSymbolTable
 70
0
  0
ENDTAB
  0
TABLE
  2
APPID
  5
9
100
AcDbSymbolTable
 70
1
  0
APPID
  5
20F
100
AcDbSymbolTableRecord
100
AcDbRegAppTableRecord
  2
ACAD
 70
0
  0
ENDTAB
  0
TABLE
  2
BLOCK_RECORD
  5
1
100
AcDbSymbolTable
 70
0
  0
BLOCK_RECORD
  5
210
100
AcDbSymbolTableRecord
100
AcDbBlockTableRecord
  2
*Model_Space
  0
BLOCK_RECORD
  5
211
100
AcDbSymbolTableRecord
100
AcDbBlockTableRecord
  2
*Paper_Space
  0
BLOCK_RECORD
  5
212
100
AcDbSymbolTableRecord
100
AcDbBlockTableRecord
  2
_FILLED
  0
ENDTAB
  0
TABLE
  2
DIMSTYLE
  5
A
100
AcDbSymbolTable
 70
1
100
AcDbDimStyleTable
 71
0
  0
DIMSTYLE
105
213
100
AcDbSymbolTableRecord
100
AcDbDimStyleTableRecord
  2
STANDARD
 70
0
  3

  4

 40
1.0
 41
0.5228229631
 42
1.0
 43
0.38
 44
1.0
 45
0.0
 46
0.0
 47
0.01
 48
0.01
140
0.7319521484
141
0.09
142
0.0
143
25.4
144
1.0
145
0.0
146
1.0
147
0.625
 71
1
 72
0
 73
0
 74
0
 75
0
 76
0
 77
1
 78
8
 79
2
170
0
171
1
172
0
173
0
174
0
175
0
176
0
177
0
178
0
270
2
179
2
271
2
272
2
273
2
274
2
275
0
280
0
281
0
282
0
283
1
284
8
285
0
286
0
287
3
288
0
340
11
278
46
341
212
342
212
343
212
344
212
  0
ENDTAB
  0
ENDSEC
  0
SECTION
  2
BLOCKS
  0
BLOCK
  5
20
100
AcDbEntity
  8
0
100
AcDbBlockBegin
  2
*Model_Space
 70
0
 10
0.0
 20
0.0
 30
0.0
  3
*Model_Space
  1

  0
ENDBLK
  5
21
100
AcDbEntity
  8
0
100
AcDbBlockEnd
  0
BLOCK
  5
1C
100
AcDbEntity
  8
0
100
AcDbBlockBegin
  2
*Paper_Space
 70
0
 10
0.0
 20
0.0
 30
0.0
  3
*Paper_Space
  1

  0
ENDBLK
  5
1D
100
AcDbEntity
  8
0
100
AcDbBlockEnd
  0
BLOCK
  5
214
100
AcDbEntity
  8
0
100
AcDbBlockBegin
  2
_FILLED
 70
64
 10
0.0
 20
0.0
  3
_FILLED
  1

  0
SOLID
  5
215
100
AcDbEntity
  8
0
  6
BYBLOCK
 62
0
100
AcDbTrace
 10
0.0
 20
0.0
 11
-1.0
 21
0.25
 12
-1.0
 22
-0.25
 13
-1.0
 23
-0.25
  0
ENDBLK
  5
216
100
AcDbEntity
  8
0
  6
BYBLOCK
 62
0
100
AcDbBlockEnd
  0
ENDSEC
  0
SECTION
  2
ENTITIES
  0
LINE
  5
217
100
AcDbEntity
  8
0
100
AcDbLine
 62
7
  6
CONTINUOUS
 10
8.0296323512
 20
4.5998075765
 11
33.539486757
 21
4.5998075765
  0
LINE
  5
218
100
AcDbEntity
  8
0
100
AcDbLine
 62
7
  6
CONTINUOUS
 10
7.898729972
 20
6.0960286172
 11
33.6703891361
 21
6.0960286172
  0
LWPOLYLINE
  5
219
100
AcDbEntity
  8
0
100
AcDbPolyline
 62
7
  6
CONTINUOUS
 90
4
 70
0
 10
33.6076735092
 20
10.6160387934
 10
33.8344770423
 20
10.6704375514
 10
33.9692543819
 20
10.7706985545
 10
34.105770236
 20
11.0724573598
  0
LINE
  5
21A
100
AcDbEntity
  8
0
100
AcDbLine
 62
7
  6
CONTINUOUS
 10
7.7666220901
 20
7.6060286172
 11
33.8024970181
 21
7.6060286172
  0
LINE
  5
21B
100
AcDbEntity
  8
0
100
AcDbLine
 62
7
  6
CONTINUOUS
 10
7.6353890948
 20
9.1060286172
 11
33.9337300134
 21
9.1060286172
  0
LINE
  5
21C
100
AcDbEntity
  8
0
100
AcDbLine
 62
7
  6
CONTINUOUS
 10
7.9614455959
 20
10.6160286172
 11
33.6076735123
 21
10.6160286172
  0
LWPOLYLINE
  5
21D
100
AcDbEntity
  8
0
100
AcDbPolyline
 62
7
  6
CONTINUOUS
 90
4
 70
0
 10
7.4633488722
 20
11.0724573598
 10
7.5998646781
 20
10.7706986049
 10
7.7346419725
 20
10.6704375989
 10
7.961445599
 20
10.6160387934
  0
LINE
  5
21E
100
AcDbEntity
  8
0
100
AcDbLine
 62
7
  6
CONTINUOUS
 10
7.8923913504
 20
11.79998481
 11
33.6767277579
 21
11.7999848115
  0
LINE
  5
21F
100
AcDbEntity
  8
0
100
AcDbLine
 62
7
  6
CONTINUOUS
 10
34.2845595541
 20
13.1160286172
 11
7.2845595541
 21
13.1160286172
  0
LINE
  5
220
100
AcDbEntity
  8
0
100
AcDbLine
 62
7
  6
CONTINUOUS
 10
8.0296650103
 20
4.5994342812
 11
7.2845595541
 21
13.1160286172
  0
LINE
  5
221
100
AcDbEntity
  8
0
100
AcDbLine
 62
7
  6
CONTINUOUS
 10
12.5168182871
 20
55.6029818575
 11
11.2845727427
 21
52.3160236728
  0
LINE
  5
222
100
AcDbEntity
  8
0
100
AcDbLine
 62
7
  6
CONTINUOUS
 10
30.8545595541
 20
15.1160286172
 11
10.7145595541
 21
15.1160286172
  0
LINE
  5
223
100
AcDbEntity
  8
0
100
AcDbLine
 62
7
  6
CONTINUOUS
 10
7.8923913504
 20
11.79998481
 11
7.7772521023
 21
13.1160286172
  0
LINE
  5
224
100
AcDbEntity
  8
0
100
AcDbLine
 62
7
  6
CONTINUOUS
 10
7.8923897152
 20
11.7999848108
 11
7.9614436411
 21
10.6160286129
  0
LINE
  5
225
100
AcDbEntity
  8
0
100
AcDbLine
 62
7
  6
CONTINUOUS
 10
7.8845595541
 20
33.0160286172
 11
7.8845595541
 21
24.5160286172
  0
LINE
  5
226
100
AcDbEntity
  8
0
100
AcDbLine
 62
7
  6
CONTINUOUS
 10
7.8845595541
 20
21.5160286172
 11
7.8845595541
 21
18.5160286172
  0
LINE
  5
227
100
AcDbEntity
  8
0
100
AcDbLine
 62
7
  6
CONTINUOUS
 10
30.5845595541
 20
15.5510286172
 11
26.2488192891
 21
15.5510286172
  0
LINE
  5
228
100
AcDbEntity
  8
0
100
AcDbLine
 62
7
  6
CONTINUOUS
 10
10.9845669299
 20
15.5510286172
 11
15.3203591548
 21
15.5510286172
  0
LINE
  5
229
100
AcDbEntity
  8
0
100
AcDbLine
 62
7
  6
CONTINUOUS
 10
30.5845595541
 20
16.2560286172
 11
24.7008715948
 21
16.2560286172
  0
LINE
  5
22A
100
AcDbEntity
  8
0
100
AcDbLine
 62
7
  6
CONTINUOUS
 10
10.9845595541
 20
16.2560286172
 11
16.8682475134
 21
16.2560286172
  0
LINE
  5
22B
100
AcDbEntity
  8
0
100
AcDbLine
 62
7
  6
CONTINUOUS
 10
30.5845595541
 20
16.9660286172
 11
26.2196308508
 21
16.9660286172
  0
LINE
  5
22C
100
AcDbEntity
  8
0
100
AcDbLine
 62
7
  6
CONTINUOUS
 10
10.9845595541
 20
16.9660286172
 11
15.3494882574
 21
16.9660286172
  0
LINE
  5
22D
100
AcDbEntity
  8
0
100
AcDbLine
 62
7
  6
CONTINUOUS
 10
10.047300981
 20
17.0160286172
 11
15.2167951956
 21
17.0160286172
  0
LINE
  5
22E
100
AcDbEntity
  8
0
100
AcDbLine
 62
7
  6
CONTINUOUS
 10
26.3523238761
 20
17.0160286172
 11
31.5218180797
 21
17.0160286172
  0
LINE
  5
22F
100
AcDbEntity
  8
0
100
AcDbLine
 62
7
  6
CONTINUOUS
 10
7.8845595541
 20
18.5160286172
 11
33.6845595541
 21
18.5160286172
  0
LINE
  5
230
100
AcDbEntity
  8
0
100
AcDbLine
 62
7
  6
CONTINUOUS
 10
10.7145595541
 20
13.1160286172
 11
10.7145595541
 21
15.1160286172
  0
LINE
  5
231
100
AcDbEntity
  8
0
100
AcDbLine
 62
7
  6
CONTINUOUS
 10
10.9845595541
 20
28.6160286172
 11
10.9845595541
 21
28.1440265946
  0
LINE
  5
232
100
AcDbEntity
  8
0
100
AcDbLine
 62
7
  6
CONTINUOUS
 10
10.9845595541
 20
15.1160215399
 11
10.9845595541
 21
17.0160286172
  0
LINE
  5
233
100
AcDbEntity
  8
0
100
AcDbLine
 62
7
  6
CONTINUOUS
 10
10.9845595541
 20
21.5160286172
 11
10.9845595541
 21
24.5160286172
  0
LINE
  5
234
100
AcDbEntity
  8
0
100
AcDbLine
 62
7
  6
CONTINUOUS
 10
11.2845595541
 20
35.0160286172
 11
11.2845595541
 21
52.3160286172
  0
LINE
  5
235
100
AcDbEntity
  8
0
100
AcDbLine
 62
7
  6
CONTINUOUS
 10
11.3087899874
 20
30.6160231591
 11
11.3088010093
 21
28.6160286172
  0
LINE
  5
236
100
AcDbEntity
  8
0
100
AcDbLine
 62
7
  6
CONTINUOUS
 10
12.7845595541
 20
56.8160286172
 11
12.7845595541
 21
56.3160286172
  0
LINE
  5
237
100
AcDbEntity
  8
0
100
AcDbLine
 62
7
  6
CONTINUOUS
 10
33.6845595541
 20
21.5160286172
 11
26.7845595541
 21
21.5160286172
  0
LINE
  5
238
100
AcDbEntity
  8
0
100
AcDbLine
 62
7
  6
CONTINUOUS
 10
14.7845595541
 20
21.5160286172
 11
7.8845595541
 21
21.5160286172
  0
LINE
  5
239
100
AcDbEntity
  8
0
100
AcDbLine
 62
7
  6
CONTINUOUS
 10
30.5845595541
 20
21.8860286172
 11
25.8601250778
 21
21.8860286172
  0
LINE
  5
23A
100
AcDbEntity
  8
0
100
AcDbLine
 62
7
  6
CONTINUOUS
 10
15.7075407962
 20
21.8860286172
 11
10.9845595541
 21
21.8860286172
  0
LINE
  5
23B
100
AcDbEntity
  8
0
100
AcDbLine
 62
7
  6
CONTINUOUS
 10
30.5845595541
 20
22.5860286172
 11
26.2196308508
 21
22.5860286172
  0
LINE
  5
23C
100
AcDbEntity
  8
0
100
AcDbLine
 62
7
  6
CONTINUOUS
 10
10.9845595541
 20
22.5860286172
 11
15.3494882574
 21
22.5860286172
  0
LINE
  5
23D
100
AcDbEntity
  8
0
100
AcDbLine
 62
7
  6
CONTINUOUS
 10
30.5845595541
 20
23.2960286172
 11
25.3354216146
 21
23.2960286172
  0
LINE
  5
23E
100
AcDbEntity
  8
0
100
AcDbLine
 62
7
  6
CONTINUOUS
 10
16.2379585293
 20
23.2960286172
 11
10.9845595541
 21
23.2960286172
  0
LINE
  5
23F
100
AcDbEntity
  8
0
100
AcDbLine
 62
7
  6
CONTINUOUS
 10
14.8345595541
 20
28.7160286172
 11
14.8345595541
 21
29.2160286172
  0
LINE
  5
240
100
AcDbEntity
  8
0
100
AcDbLine
 62
7
  6
CONTINUOUS
 10
15.2752492524
 20
29.2160286172
 11
15.2752492524
 21
31.0160286172
  0
LINE
  5
241
100
AcDbEntity
  8
0
100
AcDbLine
 62
7
  6
CONTINUOUS
 10
30.5845595541
 20
23.9960286172
 11
26.2196308508
 21
23.9960286172
  0
LINE
  5
242
100
AcDbEntity
  8
0
100
AcDbLine
 62
7
  6
CONTINUOUS
 10
10.9845595541
 20
23.9960286172
 11
15.3494882574
 21
23.9960286172
  0
LINE
  5
243
100
AcDbEntity
  8
0
100
AcDbLine
 62
7
  6
CONTINUOUS
 10
7.8845595541
 20
24.5160286172
 11
14.7845595541
 21
24.5160286172
  0
LINE
  5
244
100
AcDbEntity
  8
0
100
AcDbLine
 62
7
  6
CONTINUOUS
 10
26.7845595196
 20
24.5160286172
 11
33.6845595541
 21
24.5160286172
  0
LINE
  5
245
100
AcDbEntity
  8
0
100
AcDbLine
 62
7
  6
CONTINUOUS
 10
16.7845595541
 20
31.0160286172
 11
16.7845595541
 21
29.2160286172
  0
LINE
  5
246
100
AcDbEntity
  8
0
100
AcDbLine
 62
7
  6
CONTINUOUS
 10
17.2845595541
 20
31.0160286172
 11
17.2845595541
 21
29.2160286172
  0
LINE
  5
247
100
AcDbEntity
  8
0
100
AcDbLine
 62
7
  6
CONTINUOUS
 10
17.7845595541
 20
26.9160286172
 11
17.7845595541
 21
35.7160286172
  0
LINE
  5
248
100
AcDbEntity
  8
0
100
AcDbLine
 62
7
  6
CONTINUOUS
 10
23.2845595541
 20
26.9160286172
 11
18.2845595541
 21
26.9160286172
  0
LINE
  5
249
100
AcDbEntity
  8
0
100
AcDbLine
 62
7
  6
CONTINUOUS
 10
23.7845595541
 20
26.9160286172
 11
23.2845595541
 21
26.9160286172
  0
LINE
  5
24A
100
AcDbEntity
  8
0
100
AcDbLine
 62
7
  6
CONTINUOUS
 10
18.2845595541
 20
26.9160286172
 11
17.7845595541
 21
26.9160286172
  0
LINE
  5
24B
100
AcDbEntity
  8
0
100
AcDbLine
 62
7
  6
CONTINUOUS
 10
18.7845595541
 20
57.1160286172
 11
18.7845595541
 21
56.3160286172
  0
LINE
  5
24C
100
AcDbEntity
  8
0
100
AcDbLine
 62
7
  6
CONTINUOUS
 10
32.2042794109
 20
28.0160286172
 11
9.3648396961
 21
28.0160286172
  0
LINE
  5
24D
100
AcDbEntity
  8
0
100
AcDbLine
 62
7
  6
CONTINUOUS
 10
23.2845595541
 20
28.6160286172
 11
10.9845595541
 21
28.6160286172
  0
LINE
  5
24E
100
AcDbEntity
  8
0
100
AcDbLine
 62
7
  6
CONTINUOUS
 10
14.8345595541
 20
28.7160286172
 11
23.2845595541
 21
28.7160286172
  0
LINE
  5
24F
100
AcDbEntity
  8
0
100
AcDbLine
 62
7
  6
CONTINUOUS
 10
23.2845595541
 20
29.2160286172
 11
14.8346567978
 21
29.2160286172
  0
LINE
  5
250
100
AcDbEntity
  8
0
100
AcDbLine
 62
7
  6
CONTINUOUS
 10
30.5845595541
 20
30.6160464399
 11
23.2845595541
 21
30.6160464399
  0
LINE
  5
251
100
AcDbEntity
  8
0
100
AcDbLine
 62
7
  6
CONTINUOUS
 10
9.3648397677
 20
31.0160286172
 11
32.2042793405
 21
31.0160286172
  0
LINE
  5
252
100
AcDbEntity
  8
0
100
AcDbLine
 62
7
  6
CONTINUOUS
 10
22.7845595541
 20
56.3160286172
 11
22.7845595541
 21
57.1160286172
  0
LINE
  5
253
100
AcDbEntity
  8
0
100
AcDbLine
 62
7
  6
CONTINUOUS
 10
23.2845595541
 20
28.6160286172
 11
23.2845595541
 21
31.0160286172
  0
LINE
  5
254
100
AcDbEntity
  8
0
100
AcDbLine
 62
7
  6
CONTINUOUS
 10
23.7845595541
 20
26.9160286172
 11
23.7845595541
 21
35.7160286172
  0
LINE
  5
255
100
AcDbEntity
  8
0
100
AcDbLine
 62
7
  6
CONTINUOUS
 10
33.6845595541
 20
33.0160286172
 11
7.8845595541
 21
33.0160286172
  0
LINE
  5
256
100
AcDbEntity
  8
0
100
AcDbLine
 62
7
  6
CONTINUOUS
 10
32.6845594248
 20
34.0160286172
 11
8.8845596834
 21
34.0160286172
  0
LINE
  5
257
100
AcDbEntity
  8
0
100
AcDbLine
 62
7
  6
CONTINUOUS
 10
11.2845595541
 20
35.0160286172
 11
30.2845595541
 21
35.0160286172
  0
LINE
  5
258
100
AcDbEntity
  8
0
100
AcDbLine
 62
7
  6
CONTINUOUS
 10
23.7845595541
 20
35.7160286172
 11
17.7845595541
 21
35.7160286172
  0
LINE
  5
259
100
AcDbEntity
  8
0
100
AcDbLine
 62
7
  6
CONTINUOUS
 10
30.2845595541
 20
30.9160458943
 11
30.5845595541
 21
30.6160464399
  0
LINE
  5
25A
100
AcDbEntity
  8
0
100
AcDbLine
 62
7
  6
CONTINUOUS
 10
28.7845595541
 20
56.8160286172
 11
28.7845595541
 21
56.3160286172
  0
LINE
  5
25B
100
AcDbEntity
  8
0
100
AcDbLine
 62
7
  6
CONTINUOUS
 10
30.2845595541
 20
31.0160286172
 11
30.2845595541
 21
30.9160458943
  0
LINE
  5
25C
100
AcDbEntity
  8
0
100
AcDbLine
 62
7
  6
CONTINUOUS
 10
30.2845595541
 20
35.0160286172
 11
30.2845595541
 21
47.8160286172
  0
LINE
  5
25D
100
AcDbEntity
  8
0
100
AcDbLine
 62
7
  6
CONTINUOUS
 10
30.5845595541
 20
30.6160464399
 11
30.5845595541
 21
28.1422943683
  0
LINE
  5
25E
100
AcDbEntity
  8
0
100
AcDbLine
 62
7
  6
CONTINUOUS
 10
30.5845595541
 20
15.1160215399
 11
30.5845595541
 21
17.0160286172
  0
LINE
  5
25F
100
AcDbEntity
  8
0
100
AcDbLine
 62
7
  6
CONTINUOUS
 10
30.5845595541
 20
21.5160286172
 11
30.5845595541
 21
24.5160286172
  0
LINE
  5
260
100
AcDbEntity
  8
0
100
AcDbLine
 62
7
  6
CONTINUOUS
 10
30.8545595541
 20
15.1160286172
 11
30.8545595541
 21
13.1160286172
  0
LINE
  5
261
100
AcDbEntity
  8
0
100
AcDbLine
 62
7
  6
CONTINUOUS
 10
28.1500194854
 20
52.3160286172
 11
27.5338676793
 21
55.5974370605
  0
LINE
  5
262
100
AcDbEntity
  8
0
100
AcDbLine
 62
7
  6
CONTINUOUS
 10
33.6845595541
 20
33.0160286172
 11
33.6845595541
 21
24.5160286172
  0
LINE
  5
263
100
AcDbEntity
  8
0
100
AcDbLine
 62
7
  6
CONTINUOUS
 10
33.6845595541
 20
21.5160286172
 11
33.6845595541
 21
18.5160286172
  0
LINE
  5
264
100
AcDbEntity
  8
0
100
AcDbLine
 62
7
  6
CONTINUOUS
 10
34.0524919222
 20
55.6671521087
 11
34.0524919222
 21
56.3160286172
  0
LINE
  5
265
100
AcDbEntity
  8
0
100
AcDbLine
 62
7
  6
CONTINUOUS
 10
35.4401852472
 20
49.5386481579
 11
35.4401852472
 21
49.8869557898
  0
LINE
  5
266
100
AcDbEntity
  8
0
100
AcDbLine
 62
7
  6
CONTINUOUS
 10
33.6076753653
 20
10.6160286173
 11
33.6767292063
 21
11.7999848108
  0
LINE
  5
267
100
AcDbEntity
  8
0
100
AcDbLine
 62
7
  6
CONTINUOUS
 10
33.7918670059
 20
13.1160286172
 11
33.6767277579
 21
11.7999848115
  0
LINE
  5
268
100
AcDbEntity
  8
0
100
AcDbLine
 62
7
  6
CONTINUOUS
 10
33.5394540933
 20
4.5994342292
 11
34.2845595541
 21
13.1160286172
  0
LWPOLYLINE
  5
269
100
AcDbEntity
  8
0
100
AcDbPolyline
 62
7
  6
CONTINUOUS
 90
4
 70
0
 10
35.78454428
 20
49.3160430612
 10
36.2610220432
 20
49.4368570302
 10
36.6608059239
 20
49.8342088328
 10
36.7845446121
 20
50.3160458397
  0
LINE
  5
26A
100
AcDbEntity
  8
0
100
AcDbLine
 62
7
  6
CONTINUOUS
 10
36.7845595541
 20
50.3160458397
 11
36.7845595541
 21
52.3160286172
  0
LINE
  5
26B
100
AcDbEntity
  8
0
100
AcDbLine
 62
7
  6
CONTINUOUS
 10
35.78454428
 20
49.3160286172
 11
31.7845595541
 21
49.3160286172
  0
LINE
  5
26C
100
AcDbEntity
  8
0
100
AcDbLine
 62
7
  6
CONTINUOUS
 10
35.4401852472
 20
49.5386481579
 11
30.9677473433
 21
49.5386481579
  0
LINE
  5
26D
100
AcDbEntity
  8
0
100
AcDbLine
 62
7
  6
CONTINUOUS
 10
30.2311397244
 20
49.8869557898
 11
35.44006245
 21
49.8869557899
  0
LINE
  5
26E
100
AcDbEntity
  8
0
100
AcDbLine
 62
7
  6
CONTINUOUS
 10
36.7845595541
 20
52.3160286172
 11
35.980728387
 21
52.3160286172
  0
LINE
  5
26F
100
AcDbEntity
  8
0
100
AcDbLine
 62
7
  6
CONTINUOUS
 10
11.2845595541
 20
52.3160286172
 11
34.8416930237
 21
52.3160286172
  0
LINE
  5
270
100
AcDbEntity
  8
0
100
AcDbLine
 62
7
  6
CONTINUOUS
 10
36.7845595541
 20
52.3160286172
 11
35.5281248859
 21
55.6665210656
  0
LINE
  5
271
100
AcDbEntity
  8
0
100
AcDbLine
 62
7
  6
CONTINUOUS
 10
35.5278900868
 20
55.667156078
 11
34.9532221134
 21
55.6638069773
  0
LINE
  5
272
100
AcDbEntity
  8
0
100
AcDbLine
 62
7
  6
CONTINUOUS
 10
34.0525549569
 20
55.6671521586
 11
27.5173998211
 21
55.6671520588
  0
LINE
  5
273
100
AcDbEntity
  8
0
100
AcDbLine
 62
7
  6
CONTINUOUS
 10
12.5169699954
 20
55.6029251428
 11
27.5340937132
 21
55.5975392768
  0
LINE
  5
274
100
AcDbEntity
  8
0
100
AcDbLine
 62
7
  6
CONTINUOUS
 10
36.4172177603
 20
50.5297750923
 11
36.7845595541
 21
50.3160191247
  0
LINE
  5
275
100
AcDbEntity
  8
0
100
AcDbLine
 62
7
  6
CONTINUOUS
 10
35.4401549542
 20
49.5386481579
 11
35.7845936302
 21
49.3160286172
  0
LINE
  5
276
100
AcDbEntity
  8
0
100
AcDbLine
 62
7
  6
CONTINUOUS
 10
12.7845595541
 20
56.3160286172
 11
34.5915416265
 21
56.3160340653
  0
LINE
  5
277
100
AcDbEntity
  8
0
100
AcDbLine
 62
7
  6
CONTINUOUS
 10
28.7845595541
 20
56.8160286172
 11
22.7845595541
 21
56.8160286172
  0
LINE
  5
278
100
AcDbEntity
  8
0
100
AcDbLine
 62
7
  6
CONTINUOUS
 10
18.7845595541
 20
56.8160286172
 11
12.7845595541
 21
56.8160286172
  0
LINE
  5
279
100
AcDbEntity
  8
0
100
AcDbLine
 62
7
  6
CONTINUOUS
 10
18.7845595541
 20
57.1160286172
 11
22.7845595541
 21
57.1160286172
  0
LINE
  5
27A
100
AcDbEntity
  8
0
100
AcDbLine
 62
7
  6
CONTINUOUS
 10
27.7845595541
 20
57.8160286172
 11
13.7845595541
 21
57.8160286172
  0
ARC
  5
27B
100
AcDbEntity
  8
0
100
AcDbCircle
 62
7
  6
CONTINUOUS
 10
-681.2667551413
 20
-138.5955320873
 40
742.0968314086
100
AcDbArc
 50
14.9128095733
 51
15.1751669588
  0
ARC
  5
27C
100
AcDbEntity
  8
0
100
AcDbCircle
 62
7
  6
CONTINUOUS
 10
-515.1924870203
 20
-96.7782637224
 40
570.0084344876
100
AcDbArc
 50
15.1638257343
 51
15.5122324722
  0
ARC
  5
27D
100
AcDbEntity
  8
0
100
AcDbCircle
 62
7
  6
CONTINUOUS
 10
15.3347693509
 20
46.2225237436
 40
20.4365083324
100
AcDbArc
 50
10.329462805
 51
17.3475788064
  0
ARC
  5
27E
100
AcDbEntity
  8
0
100
AcDbCircle
 62
7
  6
CONTINUOUS
 10
17.2550367025
 20
46.7937566636
 40
19.5229868768
100
AcDbArc
 50
11.0324608737
 51
16.430972512
  0
ARC
  5
27F
100
AcDbEntity
  8
0
100
AcDbCircle
 62
7
  6
CONTINUOUS
 10
24.1730244003
 20
-0.238020095
 40
19.3347894262
100
AcDbArc
 50
116.6795686885
 51
117.1521789445
  0
ARC
  5
280
100
AcDbEntity
  8
0
100
AcDbCircle
 62
7
  6
CONTINUOUS
 10
17.4021888292
 20
-0.2260591817
 40
19.3213655492
100
AcDbArc
 50
62.8477146166
 51
63.3403487328
  0
ARC
  5
281
100
AcDbEntity
  8
0
100
AcDbCircle
 62
7
  6
CONTINUOUS
 10
17.4817099761
 20
7.4429915609
 40
18.7177535243
100
AcDbArc
 50
62.1715836712
 51
63.3247067059
  0
ARC
  5
282
100
AcDbEntity
  8
0
100
AcDbCircle
 62
7
  6
CONTINUOUS
 10
24.0868013172
 20
7.4441687084
 40
18.7164287711
100
AcDbArc
 50
116.6726682536
 51
117.8284530681
  0
ARC
  5
283
100
AcDbEntity
  8
0
100
AcDbCircle
 62
7
  6
CONTINUOUS
 10
17.8658326378
 20
38.6211119959
 40
18.0806483165
100
AcDbArc
 50
295.0358945949
 51
297.5181641388
  0
ARC
  5
284
100
AcDbEntity
  8
0
100
AcDbCircle
 62
7
  6
CONTINUOUS
 10
23.7009256661
 20
38.6164101806
 40
18.0753876821
100
AcDbArc
 50
242.4815865056
 51
244.9737814147
  0
ARC
  5
285
100
AcDbEntity
  8
0
100
AcDbCircle
 62
7
  6
CONTINUOUS
 10
23.6475660836
 20
39.920053888
 40
17.9564104552
100
AcDbArc
 50
242.4757869261
 51
245.1972440933
  0
ARC
  5
286
100
AcDbEntity
  8
0
100
AcDbCircle
 62
7
  6
CONTINUOUS
 10
17.9221297638
 20
39.918905686
 40
17.955125687
100
AcDbArc
 50
294.8002035492
 51
297.5242741816
  0
ARC
  5
287
100
AcDbEntity
  8
0
100
AcDbCircle
 62
7
  6
CONTINUOUS
 10
23.5519819419
 20
7.0791385597
 40
17.5426492269
100
AcDbArc
 50
114.5130541396
 51
117.8769604331
  0
ARC
  5
288
100
AcDbEntity
  8
0
100
AcDbCircle
 62
7
  6
CONTINUOUS
 10
18.017409612
 20
7.0796772123
 40
17.5420456943
100
AcDbArc
 50
62.1230035381
 51
65.4883180088
  0
ARC
  5
289
100
AcDbEntity
  8
0
100
AcDbCircle
 62
7
  6
CONTINUOUS
 10
20.7845595541
 20
9.4326952838
 40
9.0833333333
100
AcDbArc
 50
59.844093009
 51
120.155906991
  0
ARC
  5
28A
100
AcDbEntity
  8
0
100
AcDbCircle
 62
7
  6
CONTINUOUS
 10
15.2167951913
 20
19.0160286172
 40
2.0
100
AcDbArc
 50
270.0
 51
300.155906991
  0
ARC
  5
28B
100
AcDbEntity
  8
0
100
AcDbCircle
 62
7
  6
CONTINUOUS
 10
26.3523239169
 20
19.0160286172
 40
2.0
100
AcDbArc
 50
239.844093009
 51
270.0
  0
ARC
  5
28C
100
AcDbEntity
  8
0
100
AcDbCircle
 62
7
  6
CONTINUOUS
 10
14.7845595541
 20
23.0160286172
 40
1.5
100
AcDbArc
 50
270.0
 51
90.0
  0
ARC
  5
28D
100
AcDbEntity
  8
0
100
AcDbCircle
 62
7
  6
CONTINUOUS
 10
26.7845595541
 20
23.0160286172
 40
1.5
100
AcDbArc
 50
90.0000013181
 51
270.0
  0
ARC
  5
28E
100
AcDbEntity
  8
0
100
AcDbCircle
 62
7
  6
CONTINUOUS
 10
13.5466844337
 20
55.2160320084
 40
1.0999991998
100
AcDbArc
 50
89.9880234458
 51
159.4073674214
  0
ARC
  5
28F
100
AcDbEntity
  8
0
100
AcDbCircle
 62
7
  6
CONTINUOUS
 10
13.7845595541
 20
56.8160286172
 40
1.0
100
AcDbArc
 50
90.0
 51
180.0
  0
ARC
  5
290
100
AcDbEntity
  8
0
100
AcDbCircle
 62
7
  6
CONTINUOUS
 10
27.7845595541
 20
56.8160286172
 40
1.0
100
AcDbArc
 50
0.0
 51
90.0
  0
ARC
  5
291
100
AcDbEntity
  8
0
100
AcDbCircle
 62
7
  6
CONTINUOUS
 10
31.2845595541
 20
35.0160286172
 40
1.0
100
AcDbArc
 50
180.0
 51
269.9999964333
  0
ARC
  5
292
100
AcDbEntity
  8
0
100
AcDbCircle
 62
7
  6
CONTINUOUS
 10
10.2845595541
 20
35.0160286172
 40
1.0
100
AcDbArc
 50
270.0001084655
 51
360.0
  0
ARC
  5
293
100
AcDbEntity
  8
0
100
AcDbCircle
 62
7
  6
CONTINUOUS
 10
8.8845595541
 20
33.0160286172
 40
1.0
100
AcDbArc
 50
89.9999925928
 51
180.0
  0
ARC
  5
294
100
AcDbEntity
  8
0
100
AcDbCircle
 62
7
  6
CONTINUOUS
 10
32.6845595541
 20
33.0160286172
 40
1.0
100
AcDbArc
 50
0.0
 51
90.0000074072
  0
ARC
  5
295
100
AcDbEntity
  8
0
100
AcDbCircle
 62
7
  6
CONTINUOUS
 10
34.5915608278
 20
55.3160347212
 40
0.9999993443
100
AcDbArc
 50
20.5559317336
 51
90.0
  0
ARC
  5
296
100
AcDbEntity
  8
0
100
AcDbCircle
 62
7
  6
CONTINUOUS
 10
34.8422695508
 20
53.2766292783
 40
0.9606012683
100
AcDbArc
 50
269.9669173573
 51
277.6022882131
  0
ARC
  5
297
100
AcDbEntity
  8
0
100
AcDbCircle
 62
7
  6
CONTINUOUS
 10
34.0516365085
 20
55.3851710547
 40
0.9308529035
100
AcDbArc
 50
60.6677982167
 51
89.9479936257
  0
ARC
  5
298
100
AcDbEntity
  8
0
100
AcDbCircle
 62
7
  6
CONTINUOUS
 10
14.8345595541
 20
27.8410286172
 40
0.875
100
AcDbArc
 50
64.4087944624
 51
90.0
  0
ARC
  5
299
100
AcDbEntity
  8
0
100
AcDbCircle
 62
7
  6
CONTINUOUS
 10
26.7757710686
 20
55.4551643491
 40
0.7713313137
100
AcDbArc
 50
10.6291170667
 51
15.9520940327
  0
SPLINE
  5
29A
100
AcDbEntity
  8
0
100
AcDbSpline
 62
7
  6
CONTINUOUS
 70
0
 71
3
 72
8
 73
4
 74
0
 42
0.0000001
 43
0.0000001
 44
0.0000000001
 40
0.0
 40
0.0
 40
0.0
 40
0.0
 40
1.0
 40
1.0
 40
1.0
 40
1.0
 10
11.7231101471
 20
31.01604245
 30
0.0
 10
11.5848980898
 20
30.8828118759
 30
0.0
 10
11.4467981303
 20
30.7494649485
 30
0.0
 10
11.3087899874
 20
30.6160231591
 30
0.0
  0
SPLINE
  5
29B
100
AcDbEntity
  8
0
100
AcDbSpline
 62
7
  6
CONTINUOUS
 70
0
 71
3
 72
9
 73
5
 74
0
 42
0.0000001
 43
0.0000001
 44
0.0000000001
 40
0.0
 40
0.0
 40
0.0
 40
0.0
 40
0.2500426578
 40
1.0
 40
1.0
 40
1.0
 40
1.0
 10
26.2488375037
 20
15.551019594
 30
0.0
 10
26.1227684501
 20
15.6159395013
 30
0.0
 10
25.6158211823
 20
15.8701281911
 30
0.0
 10
25.0968192432
 20
16.1007381042
 30
0.0
 10
24.7008715948
 20
16.2560286172
 30
0.0
  0
SPLINE
  5
29C
100
AcDbEntity
  8
0
100
AcDbSpline
 62
7
  6
CONTINUOUS
 70
0
 71
3
 72
9
 73
5
 74
0
 42
0.0000001
 43
0.0000001
 44
0.0000000001
 40
0.0
 40
0.0
 40
0.0
 40
0.0
 40
0.2500358669
 40
1.0
 40
1.0
 40
1.0
 40
1.0
 10
16.8682475134
 20
16.2560286172
 30
0.0
 10
16.7362434225
 20
16.2042566643
 30
0.0
 10
16.2113834527
 20
15.9893600239
 30
0.0
 10
15.698488161
 20
15.7457771261
 30
0.0
 10
15.3203776484
 20
15.5510671739
 30
0.0
  0
SPLINE
  5
29D
100
AcDbEntity
  8
0
100
AcDbSpline
 62
7
  6
CONTINUOUS
 70
0
 71
3
 72
9
 73
5
 74
0
 42
0.0000001
 43
0.0000001
 44
0.0000000001
 40
0.0
 40
0.0
 40
0.0
 40
0.0
 40
0.7499631307
 40
1.0
 40
1.0
 40
1.0
 40
1.0
 10
26.2196308508
 20
16.9660286172
 30
0.0
 10
25.8488712152
 20
16.7703739727
 30
0.0
 10
25.3457272371
 20
16.5252410265
 30
0.0
 10
24.8304816528
 20
16.308335052
 30
0.0
 10
24.7008715948
 20
16.2560286172
 30
0.0
  0
SPLINE
  5
29E
100
AcDbEntity
  8
0
100
AcDbSpline
 62
7
  6
CONTINUOUS
 70
0
 71
3
 72
11
 73
7
 74
0
 42
0.0000001
 43
0.0000001
 44
0.0000000001
 40
0.0
 40
0.0
 40
0.0
 40
0.0
 40
0.2499999179
 40
0.4999987588
 40
0.7500008667
 40
1.0
 40
1.0
 40
1.0
 40
1.0
 10
26.2488375037
 20
15.551019594
 30
0.0
 10
26.1641377579
 20
15.5123133402
 30
0.0
 10
25.9942493008
 20
15.4359632518
 30
0.0
 10
25.7377038816
 20
15.3253258825
 30
0.0
 10
25.4795845588
 20
15.2184192745
 30
0.0
 10
25.3064974212
 20
15.1496182052
 30
0.0
 10
25.2196425694
 20
15.1160265204
 30
0.0
  0
SPLINE
  5
29F
100
AcDbEntity
  8
0
100
AcDbSpline
 62
7
  6
CONTINUOUS
 70
0
 71
3
 72
11
 73
7
 74
0
 42
0.0000001
 43
0.0000001
 44
0.0000000001
 40
0.0
 40
0.0
 40
0.0
 40
0.0
 40
0.2499992426
 40
0.5000012532
 40
0.7499999933
 40
1.0
 40
1.0
 40
1.0
 40
1.0
 10
16.3497024451
 20
15.1160265204
 30
0.0
 10
16.2628360798
 20
15.1496219919
 30
0.0
 10
16.0896789372
 20
15.2183102028
 30
0.0
 10
15.8314795091
 20
15.3251208102
 30
0.0
 10
15.5749452677
 20
15.4358781165
 30
0.0
 10
15.4050885925
 20
15.5123563214
 30
0.0
 10
15.3203776484
 20
15.5510671739
 30
0.0
  0
SPLINE
  5
2A0
100
AcDbEntity
  8
0
100
AcDbSpline
 62
7
  6
CONTINUOUS
 70
0
 71
3
 72
9
 73
5
 74
0
 42
0.0000001
 43
0.0000001
 44
0.0000000001
 40
0.0
 40
0.0
 40
0.0
 40
0.0
 40
0.2500368405
 40
1.0
 40
1.0
 40
1.0
 40
1.0
 10
16.8682475134
 20
16.2560286172
 30
0.0
 10
16.7386374703
 20
16.308335046
 30
0.0
 10
16.2233918956
 20
16.5252410426
 30
0.0
 10
15.7202479071
 20
16.7703739652
 30
0.0
 10
15.3494882574
 20
16.9660286172
 30
0.0
  0
SPLINE
  5
2A1
100
AcDbEntity
  8
0
100
AcDbSpline
 62
7
  6
CONTINUOUS
 70
0
 71
3
 72
18
 73
14
 74
0
 42
0.0000001
 43
0.0000001
 44
0.0000000001
 40
0.0
 40
0.0
 40
0.0
 40
0.0
 40
0.1738311653
 40
0.3509001465
 40
0.5215507302
 40
0.6749635114
 40
0.8014437995
 40
0.8530741178
 40
0.8964725933
 40
0.9316342459
 40
0.9594821892
 40
0.9815312808
 40
1.0
 40
1.0
 40
1.0
 40
1.0
 10
33.6767260606
 20
11.7999636173
 30
0.0
 10
33.7066288968
 20
11.7974636095
 30
0.0
 10
33.7670934372
 20
11.7935663526
 30
0.0
 10
33.8571233693
 20
11.7913104056
 30
0.0
 10
33.9436483589
 20
11.7932979261
 30
0.0
 10
34.0212238739
 20
11.7994293836
 30
0.0
 10
34.0778435898
 20
11.8085346774
 30
0.0
 10
34.11486081
 20
11.8182360394
 30
0.0
 10
34.1360933148
 20
11.8257083025
 30
0.0
 10
34.1526335517
 20
11.8338340658
 30
0.0
 10
34.1646060465
 20
11.8425018446
 30
0.0
 10
34.1722790772
 20
11.8517011962
 30
0.0
 10
34.1745457055
 20
11.858564702
 30
0.0
 10
34.1748235792
 20
11.8617406847
 30
0.0
  0
SPLINE
  5
2A2
100
AcDbEntity
  8
0
100
AcDbSpline
 62
7
  6
CONTINUOUS
 70
0
 71
3
 72
18
 73
14
 74
0
 42
0.0000001
 43
0.0000001
 44
0.0000000001
 40
0.0
 40
0.0
 40
0.0
 40
0.0
 40
0.0184687175
 40
0.0405178074
 40
0.0683657496
 40
0.1035274016
 40
0.1469258767
 40
0.1985561945
 40
0.3250364829
 40
0.4784492655
 40
0.64909985
 40
0.8261688334
 40
1.0
 40
1.0
 40
1.0
 40
1.0
 10
7.394295527
 20
11.8617407079
 30
0.0
 10
7.3945734006
 20
11.8585647255
 30
0.0
 10
7.3968400289
 20
11.8517012204
 30
0.0
 10
7.4045130595
 20
11.8425018699
 30
0.0
 10
7.4164855543
 20
11.8338340921
 30
0.0
 10
7.4330257911
 20
11.82570833
 30
0.0
 10
7.4542582957
 20
11.8182360679
 30
0.0
 10
7.4912755158
 20
11.8085347071
 30
0.0
 10
7.5478952316
 20
11.7994294151
 30
0.0
 10
7.6254707464
 20
11.7932979589
 30
0.0
 10
7.711995736
 20
11.7913104395
 30
0.0
 10
7.8020256679
 20
11.7935663872
 30
0.0
 10
7.8624902084
 20
11.7974636441
 30
0.0
 10
7.8923930445
 20
11.799963652
 30
0.0
  0
SPLINE
  5
2A3
100
AcDbEntity
  8
0
100
AcDbSpline
 62
7
  6
CONTINUOUS
 70
0
 71
3
 72
11
 73
7
 74
0
 42
0.0000001
 43
0.0000001
 44
0.0000000001
 40
0.0
 40
0.0
 40
0.0
 40
0.0
 40
0.059047213
 40
0.2399303867
 40
0.551461811
 40
1.0
 40
1.0
 40
1.0
 40
1.0
 10
7.8845595541
 20
18.5160286172
 30
0.0
 10
7.9054192952
 20
18.4864103954
 30
0.0
 10
7.992007264
 20
18.3673451275
 30
0.0
 10
8.2071669011
 20
18.105666901
 30
0.0
 10
8.6209410255
 20
17.7010174956
 30
0.0
 10
9.0020492276
 20
17.4271140434
 30
0.0
 10
9.2387203311
 20
17.2867053089
 30
0.0
  0
SPLINE
  5
2A4
100
AcDbEntity
  8
0
100
AcDbSpline
 62
7
  6
CONTINUOUS
 70
0
 71
3
 72
15
 73
11
 74
0
 42
0.0000001
 43
0.0000001
 44
0.0000000001
 40
0.0
 40
0.0
 40
0.0
 40
0.0
 40
0.1166421219
 40
0.2400259229
 40
0.3687276033
 40
0.4999997541
 40
0.6312719421
 40
0.7599737233
 40
0.8833576815
 40
1.0
 40
1.0
 40
1.0
 40
1.0
 10
30.2845595541
 20
47.8160286843
 30
0.0
 10
30.2845595582
 20
47.9074829714
 30
0.0
 10
30.3020682475
 20
48.0960695967
 30
0.0
 10
30.3820523422
 20
48.3757657347
 30
0.0
 10
30.5222032642
 20
48.6439507547
 30
0.0
 10
30.7160618391
 20
48.8845255917
 30
0.0
 10
30.9566366049
 20
49.0783843825
 30
0.0
 10
31.2248217484
 20
49.2185355789
 30
0.0
 10
31.5045182063
 20
49.2985198759
 30
0.0
 10
31.6931051111
 20
49.3160286171
 30
0.0
 10
31.7845595524
 20
49.3160286172
 30
0.0
  0
SPLINE
  5
2A5
100
AcDbEntity
  8
0
100
AcDbSpline
 62
7
  6
CONTINUOUS
 70
0
 71
3
 72
13
 73
9
 74
0
 42
0.0000001
 43
0.0000001
 44
0.0000000001
 40
0.0
 40
0.0
 40
0.0
 40
0.0
 40
0.0958884232
 40
0.2043215009
 40
0.3224660346
 40
0.4481869684
 40
0.7162798993
 40
1.0
 40
1.0
 40
1.0
 40
1.0
 10
31.5218180822
 20
17.0160286172
 30
0.0
 10
31.5493206219
 20
17.0160286172
 30
0.0
 10
31.6079245768
 20
17.0203220073
 30
0.0
 10
31.6992336966
 20
17.0354878351
 30
0.0
 10
31.7976210525
 20
17.0588291148
 30
0.0
 10
31.9383151297
 20
17.1010933739
 30
0.0
 10
32.1195968854
 20
17.1721250113
 30
0.0
 10
32.2604122851
 20
17.2451847573
 30
0.0
 10
32.3303987771
 20
17.2867053089
 30
0.0
  0
SPLINE
  5
2A6
100
AcDbEntity
  8
0
100
AcDbSpline
 62
7
  6
CONTINUOUS
 70
0
 71
3
 72
11
 73
7
 74
0
 42
0.0000001
 43
0.0000001
 44
0.0000000001
 40
0.0
 40
0.0
 40
0.0
 40
0.0
 40
0.4485381723
 40
0.7600696023
 40
0.9409527837
 40
1.0
 40
1.0
 40
1.0
 40
1.0
 10
32.3303987771
 20
17.2867053089
 30
0.0
 10
32.5670698718
 20
17.4271140382
 30
0.0
 10
32.94817807
 20
17.7010174838
 30
0.0
 10
33.3619521944
 20
18.1056668867
 30
0.0
 10
33.5771118381
 20
18.367345121
 30
0.0
 10
33.6636998116
 20
18.4864103938
 30
0.0
 10
33.6845595541
 20
18.5160286172
 30
0.0
  0
SPLINE
  5
2A7
100
AcDbEntity
  8
0
100
AcDbSpline
 62
7
  6
CONTINUOUS
 70
0
 71
3
 72
13
 73
9
 74
0
 42
0.0000001
 43
0.0000001
 44
0.0000000001
 40
0.0
 40
0.0
 40
0.0
 40
0.0
 40
0.2838391826
 40
0.5518770937
 40
0.6776555329
 40
0.7958002798
 40
0.9040980953
 40
1.0
 40
1.0
 40
1.0
 40
1.0
 10
9.2387203311
 20
17.2867053089
 30
0.0
 10
9.308735822
 20
17.2451675532
 30
0.0
 10
9.4495697448
 20
17.1721033982
 30
0.0
 10
9.630893791
 20
17.1010862053
 30
0.0
 10
9.7715885946
 20
17.0588287258
 30
0.0
 10
9.8699483205
 20
17.0354646882
 30
0.0
 10
9.9612279964
 20
17.0203423714
 30
0.0
 10
10.0197947504
 20
17.0160286172
 30
0.0
 10
10.0473010093
 20
17.0160286172
 30
0.0
  0
SPLINE
  5
2A8
100
AcDbEntity
  8
0
100
AcDbSpline
 62
7
  6
CONTINUOUS
 70
0
 71
3
 72
33
 73
29
 74
0
 42
0.0000001
 43
0.0000001
 44
0.0000000001
 40
0.0
 40
0.0
 40
0.0
 40
0.0
 40
0.0222445431
 40
0.0443378949
 40
0.0666588629
 40
0.0896308903
 40
0.1136900317
 40
0.1392463741
 40
0.1666276356
 40
0.1960558849
 40
0.2276760981
 40
0.2614891012
 40
0.3352360302
 40
0.4155144498
 40
0.4993241827
 40
0.5830646231
 40
0.6631887764
 40
0.736827531
 40
0.7706480164
 40
0.8023346221
 40
0.8318942259
 40
0.859464862
 40
0.8852569837
 40
0.9095774804
 40
0.9328097378
 40
0.955363673
 40
0.9776390658
 40
1.0
 40
1.0
 40
1.0
 40
1.0
 10
11.2665288282
 20
28.0160286172
 30
0.0
 10
11.238824087
 20
28.0160286212
 30
0.0
 10
11.1835080579
 20
28.0199204369
 30
0.0
 10
11.1022022893
 20
28.0382044926
 30
0.0
 10
11.0238556344
 20
28.069257694
 30
0.0
 10
10.9491988983
 20
28.113362591
 30
0.0
 10
10.8787673447
 20
28.1705312432
 30
0.0
 10
10.8130910172
 20
28.2407791978
 30
0.0
 10
10.7525907328
 20
28.3239010973
 30
0.0
 10
10.6976141366
 20
28.4195493368
 30
0.0
 10
10.6486411574
 20
28.527237662
 30
0.0
 10
10.5899553324
 20
28.6905127459
 30
0.0
 10
10.5352664487
 20
28.9187163405
 30
0.0
 10
10.4986220318
 20
29.2131271842
 30
0.0
 10
10.4898143018
 20
29.5221020651
 30
0.0
 10
10.5087999259
 20
29.8304253937
 30
0.0
 10
10.555051936
 20
30.123061066
 30
0.0
 10
10.6170240079
 20
30.3490516782
 30
0.0
 10
10.6807471215
 20
30.5103766961
 30
0.0
 10
10.7330194481
 20
30.6167813877
 30
0.0
 10
10.7908729313
 20
30.7112738479
 30
0.0
 10
10.8538431759
 20
30.7934018542
 30
0.0
 10
10.9215799171
 20
30.8628434138
 30
0.0
 10
10.9936766403
 20
30.919409553
 30
0.0
 10
11.0696384936
 20
30.963105438
 30
0.0
 10
11.1489607531
 20
30.9939300592
 30
0.0
 10
11.2309523527
 20
31.0121292271
 30
0.0
 10
11.2866370416
 20
31.0160286172
 30
0.0
 10
11.3144867436
 20
31.0160286172
 30
0.0
  0
SPLINE
  5
2A9
100
AcDbEntity
  8
0
100
AcDbSpline
 62
7
  6
CONTINUOUS
 70
0
 71
3
 72
33
 73
29
 74
0
 42
0.0000001
 43
0.0000001
 44
0.0000000001
 40
0.0
 40
0.0
 40
0.0
 40
0.0
 40
0.0223607967
 40
0.0446361385
 40
0.0671907353
 40
0.0904247478
 40
0.1147476726
 40
0.1405426766
 40
0.1681182767
 40
0.1976825375
 40
0.2293753713
 40
0.2632042986
 40
0.3368557922
 40
0.4169890577
 40
0.5007337499
 40
0.5845426032
 40
0.6648143269
 40
0.7385482626
 40
0.772352299
 40
0.8039649957
 40
0.8333882536
 40
0.8607635501
 40
0.8863164757
 40
0.9103726008
 40
0.9333422601
 40
0.9556621474
 40
0.9777553628
 40
1.0
 40
1.0
 40
1.0
 40
1.0
 10
30.2546323646
 20
31.0160286172
 30
0.0
 10
30.2824818974
 20
31.0160286172
 30
0.0
 10
30.3381663681
 20
31.0121296303
 30
0.0
 10
30.420158628
 20
30.9939305014
 30
0.0
 10
30.4994834687
 20
30.9631042721
 30
0.0
 10
30.5754501087
 20
30.9194044865
 30
0.0
 10
30.6475530414
 20
30.8628320734
 30
0.0
 10
30.7152981511
 20
30.7933803075
 30
0.0
 10
30.7782682919
 20
30.7112325306
 30
0.0
 10
30.8361311491
 20
30.6167229418
 30
0.0
 10
30.8884084615
 20
30.5102934885
 30
0.0
 10
30.9521289203
 20
30.3489307827
 30
0.0
 10
31.0141022578
 20
30.122901516
 30
0.0
 10
31.0603379338
 20
29.8302299895
 30
0.0
 10
31.079308589
 20
29.5218903907
 30
0.0
 10
31.0704835619
 20
29.212919848
 30
0.0
 10
31.0338205301
 20
28.9185373184
 30
0.0
 10
30.979128081
 20
28.6903712475
 30
0.0
 10
30.9204390201
 20
28.527136082
 30
0.0
 10
30.8714667667
 20
28.4194773192
 30
0.0
 10
30.8165028436
 20
28.3238480137
 30
0.0
 10
30.7559998218
 20
28.2407501851
 30
0.0
 10
30.6903329502
 20
28.1705151949
 30
0.0
 10
30.6199087339
 20
28.1133547669
 30
0.0
 10
30.5452581767
 20
28.0692554148
 30
0.0
 10
30.4669154992
 20
28.0382044191
 30
0.0
 10
30.3856111022
 20
28.0199207777
 30
0.0
 10
30.3302951421
 20
28.0160286213
 30
0.0
 10
30.3025902815
 20
28.0160286172
 30
0.0
  0
SPLINE
  5
2AA
100
AcDbEntity
  8
0
100
AcDbSpline
 62
7
  6
CONTINUOUS
 70
0
 71
3
 72
31
 73
27
 74
0
 42
0.0000001
 43
0.0000001
 44
0.0000000001
 40
0.0
 40
0.0
 40
0.0
 40
0.0
 40
0.217033275
 40
0.412195148
 40
0.5008737721
 40
0.5832438777
 40
0.6590267616
 40
0.7279455747
 40
0.7897235475
 40
0.8440838778
 40
0.8907498069
 40
0.9111133664
 40
0.9294572677
 40
0.9457523487
 40
0.9599694411
 40
0.9720793697
 40
0.9820529533
 40
0.986229495
 40
0.9898610046
 40
0.9929438329
 40
0.99547433
 40
0.9974488459
 40
0.9988637301
 40
0.9993601695
 40
0.9997153318
 40
1.0
 40
1.0
 40
1.0
 40
1.0
 10
30.9677472619
 20
49.5386481579
 30
0.0
 10
31.0267080034
 20
49.522065419
 30
0.0
 10
31.1387282501
 20
49.4907148179
 30
0.0
 10
31.2749495634
 20
49.4529834354
 30
0.0
 10
31.3746058111
 20
49.4256103812
 30
0.0
 10
31.4418024831
 20
49.4072584178
 30
0.0
 10
31.503645145
 20
49.3904686559
 30
0.0
 10
31.5599026352
 20
49.3752866903
 30
0.0
 10
31.6103445135
 20
49.3617585988
 30
0.0
 10
31.6547402927
 20
49.3499300842
 30
0.0
 10
31.6878584029
 20
49.3411700285
 30
0.0
 10
31.7111601425
 20
49.3350462694
 30
0.0
 10
31.7261763986
 20
49.3311159064
 30
0.0
 10
31.7395180422
 20
49.3276378616
 30
0.0
 10
31.7511601938
 20
49.3246148483
 30
0.0
 10
31.7610782162
 20
49.3220496927
 30
0.0
 10
31.768254384
 20
49.3202006291
 30
0.0
 10
31.773115111
 20
49.3189523587
 30
0.0
 10
31.7760913703
 20
49.3181887087
 30
0.0
 10
31.7786216568
 20
49.3175430778
 30
0.0
 10
31.7806887172
 20
49.3170100525
 30
0.0
 10
31.7823273595
 20
49.3166054007
 30
0.0
 10
31.7833489432
 20
49.3163182166
 30
0.0
 10
31.7840243328
 20
49.3161832612
 30
0.0
 10
31.7842375814
 20
49.3160646645
 30
0.0
 10
31.7846015174
 20
49.3160971215
 30
0.0
 10
31.7845595541
 20
49.3160286172
 30
0.0
  0
SPLINE
  5
2AB
100
AcDbEntity
  8
0
100
AcDbSpline
 62
7
  6
CONTINUOUS
 70
0
 71
3
 72
14
 73
10
 74
0
 42
0.0000001
 43
0.0000001
 44
0.0000000001
 40
0.0
 40
0.0
 40
0.0
 40
0.0
 40
0.2425756626
 40
0.3742111558
 40
0.5080435234
 40
0.6404726726
 40
0.7682424722
 40
0.8884397289
 40
1.0
 40
1.0
 40
1.0
 40
1.0
 10
29.7693613766
 20
48.2828287781
 30
0.0
 10
29.7804821265
 20
48.4347518023
 30
0.0
 10
29.8384012912
 20
48.6683839357
 30
0.0
 10
29.9905557118
 20
48.9499947802
 30
0.0
 10
30.1456349312
 20
49.1477799293
 30
0.0
 10
30.3330838215
 20
49.3114032212
 30
0.0
 10
30.539379478
 20
49.4346155018
 30
0.0
 10
30.7531134142
 20
49.5113821024
 30
0.0
 10
30.8978170123
 20
49.5344523026
 30
0.0
 10
30.9677474134
 20
49.5386481368
 30
0.0
  0
SPLINE
  5
2AC
100
AcDbEntity
  8
0
100
AcDbSpline
 62
7
  6
CONTINUOUS
 70
0
 71
3
 72
11
 73
7
 74
0
 42
0.0000001
 43
0.0000001
 44
0.0000000001
 40
0.0
 40
0.0
 40
0.0
 40
0.0
 40
0.2568128095
 40
0.5095782551
 40
0.7575461599
 40
1.0
 40
1.0
 40
1.0
 40
1.0
 10
28.1500194854
 20
52.3160286172
 30
0.0
 10
28.3549645321
 20
52.1328361291
 30
0.0
 10
28.7531566362
 20
51.7596528143
 30
0.0
 10
29.3104847238
 20
51.1698148842
 30
0.0
 10
29.8115792774
 20
50.5508951302
 30
0.0
 10
30.10186705
 20
50.1119826424
 30
0.0
 10
30.2311397244
 20
49.8869557898
 30
0.0
  0
SPLINE
  5
2AD
100
AcDbEntity
  8
0
100
AcDbSpline
 62
7
  6
CONTINUOUS
 70
0
 71
3
 72
15
 73
11
 74
0
 42
0.0000001
 43
0.0000001
 44
0.0000000001
 40
0.0
 40
0.0
 40
0.0
 40
0.0
 40
0.1018385525
 40
0.2166760486
 40
0.3424834853
 40
0.4756496746
 40
0.6120438424
 40
0.7474205113
 40
0.877705888
 40
1.0
 40
1.0
 40
1.0
 40
1.0
 10
29.2531276522
 20
49.1817339644
 30
0.0
 10
29.2742559504
 20
49.217652859
 30
0.0
 10
29.3251115433
 20
49.2906491113
 30
0.0
 10
29.4181630165
 20
49.3957742679
 30
0.0
 10
29.530915286
 20
49.4994884039
 30
0.0
 10
29.6591399898
 20
49.5984452763
 30
0.0
 10
29.7982849088
 20
49.6887245411
 30
0.0
 10
29.9425849283
 20
49.7680464665
 30
0.0
 10
30.0869594776
 20
49.8343633153
 30
0.0
 10
30.1837192849
 20
49.8709695426
 30
0.0
 10
30.2311397202
 20
49.8869558643
 30
0.0
  0
SPLINE
  5
2AE
100
AcDbEntity
  8
0
100
AcDbSpline
 62
7
  6
CONTINUOUS
 70
0
 71
3
 72
11
 73
7
 74
0
 42
0.0000001
 43
0.0000001
 44
0.0000000001
 40
0.0
 40
0.0
 40
0.0
 40
0.0
 40
0.2308464394
 40
0.4732952141
 40
0.7300968383
 40
1.0
 40
1.0
 40
1.0
 40
1.0
 10
30.9677474078
 20
49.5386481667
 30
0.0
 10
30.9048224136
 20
49.5468501279
 30
0.0
 10
30.7771418194
 20
49.5754197539
 30
0.0
 10
30.5899820035
 20
49.64967399
 30
0.0
 10
30.4051475181
 20
49.7534758489
 30
0.0
 10
30.2882292154
 20
49.8395693114
 30
0.0
 10
30.2311397706
 20
49.8869558225
 30
0.0
  0
SPLINE
  5
2AF
100
AcDbEntity
  8
0
100
AcDbSpline
 62
7
  6
CONTINUOUS
 70
0
 71
3
 72
15
 73
11
 74
0
 42
0.0000001
 43
0.0000001
 44
0.0000000001
 40
0.0
 40
0.0
 40
0.0
 40
0.0
 40
0.1265413735
 40
0.2527684043
 40
0.3788527137
 40
0.5047734587
 40
0.6301463282
 40
0.7545433305
 40
0.8778033383
 40
1.0
 40
1.0
 40
1.0
 40
1.0
 10
28.1500194854
 20
52.3160286172
 30
0.0
 10
28.2042970279
 20
52.1867446851
 30
0.0
 10
28.3107804219
 20
51.9276787274
 30
0.0
 10
28.4638426597
 20
51.5367625106
 30
0.0
 10
28.609153458
 20
51.1436261228
 30
0.0
 10
28.7467193291
 20
50.7487252184
 30
0.0
 10
28.8787080651
 20
50.3539103533
 30
0.0
 10
29.0072996339
 20
49.9610806069
 30
0.0
 10
29.1326892913
 20
49.5709108833
 30
0.0
 10
29.2135943249
 20
49.3112357774
 30
0.0
 10
29.253127601
 20
49.1817343048
 30
0.0
  0
SPLINE
  5
2B0
100
AcDbEntity
  8
0
100
AcDbSpline
 62
7
  6
CONTINUOUS
 70
0
 71
3
 72
14
 73
10
 74
0
 42
0.0000001
 43
0.0000001
 44
0.0000000001
 40
0.0
 40
0.0
 40
0.0
 40
0.0
 40
0.3172226029
 40
0.4605271538
 40
0.5925088482
 40
0.7126175909
 40
0.8205748545
 40
0.9162881119
 40
1.0
 40
1.0
 40
1.0
 40
1.0
 10
29.253127601
 20
49.1817343048
 30
0.0
 10
29.286268571
 20
49.0758358194
 30
0.0
 10
29.3420913561
 20
48.9242631994
 30
0.0
 10
29.4304513778
 20
48.7366861499
 30
0.0
 10
29.4969166735
 20
48.6152845037
 30
0.0
 10
29.5646593518
 20
48.5089928046
 30
0.0
 10
29.6325890632
 20
48.4182093817
 30
0.0
 10
29.6997056554
 20
48.3431920053
 30
0.0
 10
29.746341758
 20
48.3009270097
 30
0.0
 10
29.7693612185
 20
48.2828288441
 30
0.0
  0
SPLINE
  5
2B1
100
AcDbEntity
  8
0
100
AcDbSpline
 62
7
  6
CONTINUOUS
 70
0
 71
3
 72
16
 73
12
 74
0
 42
0.0000001
 43
0.0000001
 44
0.0000000001
 40
0.0
 40
0.0
 40
0.0
 40
0.0
 40
0.4159119757
 40
0.5869237052
 40
0.7308816879
 40
0.8459314021
 40
0.9303163026
 40
0.9604604077
 40
0.9822738194
 40
0.9955299573
 40
1.0
 40
1.0
 40
1.0
 40
1.0
 10
29.769361223
 20
48.2828288989
 30
0.0
 10
29.8452005093
 20
48.2232025202
 30
0.0
 10
29.9500777102
 20
48.1362586847
 30
0.0
 10
30.0761687736
 20
48.0229217279
 30
0.0
 10
30.1487886053
 20
47.9545315229
 30
0.0
 10
30.2056030219
 20
47.8986999365
 30
0.0
 10
30.2428592649
 20
47.860644639
 30
0.0
 10
30.2646078282
 20
47.8376855322
 30
0.0
 10
30.2749418867
 20
47.826637373
 30
0.0
 10
30.2810884945
 20
47.8198322058
 30
0.0
 10
30.2838891691
 20
47.8168196435
 30
0.0
 10
30.2845595541
 20
47.816028678
 30
0.0
  0
SPLINE
  5
2B2
100
AcDbEntity
  8
0
100
AcDbSpline
 62
7
  6
CONTINUOUS
 70
0
 71
3
 72
15
 73
11
 74
0
 42
0.0000001
 43
0.0000001
 44
0.0000000001
 40
0.0
 40
0.0
 40
0.0
 40
0.0
 40
0.1421580609
 40
0.283637851
 40
0.4215579952
 40
0.5537681808
 40
0.6784299415
 40
0.7943233519
 40
0.901277722
 40
1.0
 40
1.0
 40
1.0
 40
1.0
 10
35.4401852472
 20
49.8869554606
 30
0.0
 10
35.4983508691
 20
49.8931825554
 30
0.0
 10
35.6137947173
 20
49.9122303734
 30
0.0
 10
35.7811117019
 20
49.9593221895
 30
0.0
 10
35.9381815929
 20
50.0237768528
 30
0.0
 10
36.0801576658
 20
50.1036525927
 30
0.0
 10
36.2029112299
 20
50.1965085056
 30
0.0
 10
36.3027336533
 20
50.2998605412
 30
0.0
 10
36.3763777119
 20
50.4107498891
 30
0.0
 10
36.4074827478
 20
50.4904416246
 30
0.0
 10
36.4172598998
 20
50.5298717159
 30
0.0
  0
SPLINE
  5
2B3
100
AcDbEntity
  8
0
100
AcDbSpline
 62
7
  6
CONTINUOUS
 70
0
 71
3
 72
14
 73
10
 74
0
 42
0.0000001
 43
0.0000001
 44
0.0000000001
 40
0.0
 40
0.0
 40
0.0
 40
0.0
 40
0.2413692889
 40
0.3711950909
 40
0.5032626122
 40
0.6347249049
 40
0.7629028042
 40
0.8850851997
 40
1.0
 40
1.0
 40
1.0
 40
1.0
 10
36.4172510668
 20
50.5298715591
 30
0.0
 10
36.4138301258
 20
50.4069346258
 30
0.0
 10
36.3731569837
 20
50.2165561507
 30
0.0
 10
36.2515858164
 20
49.9895509882
 30
0.0
 10
36.1249640729
 20
49.8323935496
 30
0.0
 10
35.9698748765
 20
49.7047416909
 30
0.0
 10
35.7980539033
 20
49.6109097455
 30
0.0
 10
35.619390056
 20
49.5549734315
 30
0.0
 10
35.4987123871
 20
49.5403235891
 30
0.0
 10
35.4401842106
 20
49.5386408806
 30
0.0
  0
SPLINE
  5
2B4
100
AcDbEntity
  8
0
100
AcDbSpline
 62
7
  6
CONTINUOUS
 70
0
 71
3
 72
11
 73
7
 74
0
 42
0.0000001
 43
0.0000001
 44
0.0000000001
 40
0.0
 40
0.0
 40
0.0
 40
0.0
 40
0.2020500485
 40
0.4393084316
 40
0.7071029813
 40
1.0
 40
1.0
 40
1.0
 40
1.0
 10
35.9805611146
 20
52.3160304305
 30
0.0
 10
35.9696828915
 20
52.3160295668
 30
0.0
 10
35.9461320561
 20
52.3210050083
 30
0.0
 10
35.9110369502
 20
52.3358595996
 30
0.0
 10
35.8734688078
 20
52.3568528874
 30
0.0
 10
35.8481848984
 20
52.3733650558
 30
0.0
 10
35.8351719541
 20
52.3822721239
 30
0.0
  0
SPLINE
  5
2B5
100
AcDbEntity
  8
0
100
AcDbSpline
 62
7
  6
CONTINUOUS
 70
0
 71
3
 72
17
 73
13
 74
0
 42
0.0000001
 43
0.0000001
 44
0.0000000001
 40
0.0
 40
0.0
 40
0.0
 40
0.0
 40
0.0412510071
 40
0.0833771123
 40
0.1277741698
 40
0.1752831492
 40
0.2811383431
 40
0.402058985
 40
0.5368901848
 40
0.6835632705
 40
0.8392367112
 40
1.0
 40
1.0
 40
1.0
 40
1.0
 10
35.8351719541
 20
52.3822721239
 30
0.0
 10
35.8251860244
 20
52.3891048971
 30
0.0
 10
35.803541156
 20
52.4008824389
 30
0.0
 10
35.7677532046
 20
52.4125353092
 30
0.0
 10
35.728902061
 20
52.4191948823
 30
0.0
 10
35.6709283136
 20
52.4228307031
 30
0.0
 10
35.590403871
 20
52.4182522288
 30
0.0
 10
35.4851532207
 20
52.4051248293
 30
0.0
 10
35.3685295904
 20
52.3867868892
 30
0.0
 10
35.2420341027
 20
52.3657697726
 30
0.0
 10
35.1079244782
 20
52.3441406748
 30
0.0
 10
35.0160738156
 20
52.3307274656
 30
0.0
 10
34.9693360473
 20
52.3244656918
 30
0.0
  0
SPLINE
  5
2B6
100
AcDbEntity
  8
0
100
AcDbSpline
 62
7
  6
CONTINUOUS
 70
0
 71
3
 72
33
 73
29
 74
0
 42
0.0000001
 43
0.0000001
 44
0.0000000001
 40
0.0
 40
0.0
 40
0.0
 40
0.0
 40
0.019960939
 40
0.0400047995
 40
0.0606496611
 40
0.0824121295
 40
0.1309780275
 40
0.1585376454
 40
0.1884763059
 40
0.2208486376
 40
0.2555784061
 40
0.331429051
 40
0.3720309342
 40
0.4139482221
 40
0.5000175322
 40
0.5860845762
 40
0.6279985925
 40
0.6685981386
 40
0.7444407153
 40
0.7791658512
 40
0.811533671
 40
0.8414693737
 40
0.8690257686
 40
0.9175883855
 40
0.9393500816
 40
0.9599948368
 40
0.9800389241
 40
1.0
 40
1.0
 40
1.0
 40
1.0
 10
32.2042794109
 20
28.0160286172
 30
0.0
 10
32.2280310557
 20
28.0160286214
 30
0.0
 10
32.2757520001
 20
28.0201995418
 30
0.0
 10
32.3456770635
 20
28.0395448625
 30
0.0
 10
32.412917953
 20
28.0721017237
 30
0.0
 10
32.5012794841
 20
28.1354047749
 30
0.0
 10
32.5785752457
 20
28.2247524401
 30
0.0
 10
32.6446408281
 20
28.3323565745
 30
0.0
 10
32.6917130641
 20
28.4285746875
 30
0.0
 10
32.7337896622
 20
28.5362130259
 30
0.0
 10
32.7845628963
 20
28.6986757075
 30
0.0
 10
32.8221953402
 20
28.8750155238
 30
0.0
 10
32.8488307576
 20
29.0615975621
 30
0.0
 10
32.8684934939
 20
29.2612980031
 30
0.0
 10
32.8780675479
 20
29.516088697
 30
0.0
 10
32.868488247
 20
29.7708755884
 30
0.0
 10
32.848815321
 20
29.9705655584
 30
0.0
 10
32.8221799935
 20
30.1571311192
 30
0.0
 10
32.7845464201
 20
30.333452403
 30
0.0
 10
32.7337750138
 20
30.495894286
 30
0.0
 10
32.6916982824
 20
30.6035169671
 30
0.0
 10
32.6446321675
 20
30.6997239611
 30
0.0
 10
32.5785657309
 20
30.807314433
 30
0.0
 10
32.501275698
 20
30.8966547641
 30
0.0
 10
32.412917831
 20
30.9599545373
 30
0.0
 10
32.3456775938
 20
30.9925108262
 30
0.0
 10
32.2757525224
 20
31.0118570894
 30
0.0
 10
32.2280311482
 20
31.0160286172
 30
0.0
 10
32.2042793405
 20
31.0160286172
 30
0.0
  0
SPLINE
  5
2B7
100
AcDbEntity
  8
0
100
AcDbSpline
 62
7
  6
CONTINUOUS
 70
0
 71
3
 72
33
 73
29
 74
0
 42
0.0000001
 43
0.0000001
 44
0.0000000001
 40
0.0
 40
0.0
 40
0.0
 40
0.0
 40
0.0199609284
 40
0.0400047524
 40
0.0606495462
 40
0.0824119277
 40
0.1309777716
 40
0.1585373812
 40
0.1884759946
 40
0.2208481538
 40
0.2555777367
 40
0.3314282952
 40
0.372030289
 40
0.4139477614
 40
0.5000175163
 40
0.5860849066
 40
0.6279990629
 40
0.6685987426
 40
0.7444414008
 40
0.7791664713
 40
0.8115341621
 40
0.8414696935
 40
0.8690258307
 40
0.9175882858
 40
0.9393499995
 40
0.9599947834
 40
0.9800389045
 40
1.0
 40
1.0
 40
1.0
 40
1.0
 10
9.3648397677
 20
31.0160286172
 30
0.0
 10
9.3410881346
 20
31.0160286172
 30
0.0
 10
9.2933672455
 20
31.0118577321
 30
0.0
 10
9.2234422822
 20
30.9925125508
 30
0.0
 10
9.1562015604
 20
30.9599558799
 30
0.0
 10
9.0678399886
 20
30.8966532995
 30
0.0
 10
8.9905443916
 20
30.8073056773
 30
0.0
 10
8.9244787744
 20
30.6997017224
 30
0.0
 10
8.8774066764
 20
30.6034838376
 30
0.0
 10
8.8353300695
 20
30.4958460203
 30
0.0
 10
8.7845568126
 20
30.3333838941
 30
0.0
 10
8.7469239981
 20
30.1570443419
 30
0.0
 10
8.7202886686
 20
29.9704620225
 30
0.0
 10
8.7006264014
 20
29.7707606453
 30
0.0
 10
8.6910516916
 20
29.5159688458
 30
0.0
 10
8.7006302514
 20
29.2611807646
 30
0.0
 10
8.720303951
 20
29.061490116
 30
0.0
 10
8.7469395554
 20
28.8749241723
 30
0.0
 10
8.7845729379
 20
28.6986026516
 30
0.0
 10
8.8353446176
 20
28.5361609743
 30
0.0
 10
8.8774215332
 20
28.428538837
 30
0.0
 10
8.9244873865
 20
28.3323324433
 30
0.0
 10
8.990554024
 20
28.2247429058
 30
0.0
 10
9.0678434884
 20
28.1354028642
 30
0.0
 10
9.1562008764
 20
28.0721026198
 30
0.0
 10
9.223441226
 20
28.0395462868
 30
0.0
 10
9.2933664256
 20
28.0202001095
 30
0.0
 10
9.3410878642
 20
28.0160286214
 30
0.0
 10
9.3648396961
 20
28.0160286172
 30
0.0
  0
SPLINE
  5
2B8
100
AcDbEntity
  8
0
100
AcDbSpline
 62
7
  6
CONTINUOUS
 70
0
 71
3
 72
15
 73
11
 74
0
 42
0.0000001
 43
0.0000001
 44
0.0000000001
 40
0.0
 40
0.0
 40
0.0
 40
0.0
 40
0.0734446734
 40
0.1644272799
 40
0.2739550734
 40
0.4004111516
 40
0.5409233862
 40
0.6909900831
 40
0.8456295819
 40
1.0
 40
1.0
 40
1.0
 40
1.0
 10
34.9532445506
 20
55.6637848644
 30
0.0
 10
34.9346410457
 20
55.6764297225
 30
0.0
 10
34.8889407107
 20
55.6987436195
 30
0.0
 10
34.8079242065
 20
55.7215590944
 30
0.0
 10
34.708542157
 20
55.7356658343
 30
0.0
 10
34.5931945755
 20
55.7405783449
 30
0.0
 10
34.4654497934
 20
55.7355614874
 30
0.0
 10
34.3297516086
 20
55.7213304495
 30
0.0
 10
34.1909502502
 20
55.6984706926
 30
0.0
 10
34.0984297083
 20
55.6783372237
 30
0.0
 10
34.0524925706
 20
55.6671516044
 30
0.0
  0
SPLINE
  5
2B9
100
AcDbEntity
  8
0
100
AcDbSpline
 62
7
  6
CONTINUOUS
 70
0
 71
3
 72
15
 73
11
 74
0
 42
0.0000001
 43
0.0000001
 44
0.0000000001
 40
0.0
 40
0.0
 40
0.0
 40
0.0
 40
0.1651384861
 40
0.3187224348
 40
0.4591729375
 40
0.5864810965
 40
0.7016925722
 40
0.8068838024
 40
0.9051422848
 40
1.0
 40
1.0
 40
1.0
 40
1.0
 10
27.5173998042
 20
55.6671521087
 30
0.0
 10
27.503287397
 20
55.7164835377
 30
0.0
 10
27.4720686184
 20
55.8106313567
 30
0.0
 10
27.4142149358
 20
55.9413163316
 30
0.0
 10
27.3479489175
 20
56.0545982301
 30
0.0
 10
27.2746083861
 20
56.1488184747
 30
0.0
 10
27.1953946775
 20
56.2230461027
 30
0.0
 10
27.1113077673
 20
56.276587125
 30
0.0
 10
27.0236136854
 20
56.3088396462
 30
0.0
 10
26.9633809095
 20
56.3160227001
 30
0.0
 10
26.9339075829
 20
56.3160286172
 30
0.0
  0
SPLINE
  5
2BA
100
AcDbEntity
  8
0
100
AcDbSpline
 62
7
  6
CONTINUOUS
 70
0
 71
3
 72
11
 73
7
 74
0
 42
0.0000001
 43
0.0000001
 44
0.0000000001
 40
0.0
 40
0.0
 40
0.0
 40
0.0
 40
0.252438834
 40
0.5034670762
 40
0.7525836533
 40
1.0
 40
1.0
 40
1.0
 40
1.0
 10
34.9532221134
 20
55.6638069773
 30
0.0
 10
34.9332019758
 20
55.7199898113
 30
0.0
 10
34.8833463129
 20
55.8287843699
 30
0.0
 10
34.7815091176
 20
55.9756560439
 30
0.0
 10
34.6558980086
 20
56.1011438068
 30
0.0
 10
34.5586366607
 20
56.1681159975
 30
0.0
 10
34.5076357484
 20
56.1966831133
 30
0.0
  0
ENDSEC
  0
SECTION
  2
OBJECTS
  0
DICTIONARY
  5
C
100
AcDbDictionary
280
0
281
1
  3
ACAD_GROUP
350
D
  3
ACAD_MLINESTYLE
350
17
  3
ACAD_LAYOUT
350
1A
  3
ACAD_PLOTSETTINGS
350
19
  3
ACAD_PLOTSTYLENAME
350
E
  0
DICTIONARY
  5
D
102
{ACAD_REACTORS
330
C
102
}
100
AcDbDictionary
280
0
281
1
  0
ACDBDICTIONARYWDFLT
  5
E
102
{ACAD_REACTORS
330
C
102
}
100
AcDbDictionary
281
1
  3
Normal
350
F
100
AcDbDictionaryWithDefault
340
F
  0
DICTIONARY
  5
17
102
{ACAD_REACTORS
330
C
102
}
100
AcDbDictionary
280
0
281
1
  3
Standard
350
18
  0
DICTIONARY
  5
19
102
{ACAD_REACTORS
330
C
102
}
100
AcDbDictionary
281
1
  0
DICTIONARY
  5
1A
102
{ACAD_REACTORS
330
C
102
}
100
AcDbDictionary
281
1
  3
Model
350
2BB
  3
Layout1
350
2BC
  0
ACDBPLACEHOLDER
  5
F
102
{ACAD_REACTORS
330
E
102
}
  0
MLINESTYLE
  5
18
102
{ACAD_REACTORS
330
17
102
}
100
AcDbMlineStyle
  2
STANDARD
 70
0
  3

 62
256
 51
90.0
 52
90.0
 71
2
 49
0.5
 62
256
  6
BYLAYER
 49
-0.5
 62
256
  6
BYLAYER
  0
LAYOUT
  5
2BB
102
{ACAD_REACTORS
330
1A
102
}
100
AcDbPlotSettings
  1

  2
none_device
  4

  6

 40
0.0
 41
0.0
 42
0.0
 43
0.0
 44
210.0
 45
297.0
 46
0.0
 47
0.0
 48
0.0
 49
0.0
140
0.0
141
0.0
142
1.0
143
1.0
 70
1024
 72
1
 73
0
 74
0
  7

 75
0
147
1.0
148
0.0
149
0.0
100
AcDbLayout
  1
Model
 70
0
 71
0
 10
0.0
 20
0.0
 11
210.0
 21
297.0
 12
0.0
 22
0.0
 32
0.0
 14
0.0
 24
0.0
 34
0.0
 15
0.0
 25
0.0
 35
0.0
146
0.0
 13
0.0
 23
0.0
 33
0.0
 16
1.0
 26
0.0
 36
0.0
 17
0.0
 27
1.0
 37
0.0
 76
0
330
210
345
0
346
0
  0
LAYOUT
  5
2BC
102
{ACAD_REACTORS
330
1A
102
}
100
AcDbPlotSettings
  1

  2
none_device
  4

  6

 40
0.0
 41
0.0
 42
0.0
 43
0.0
 44
210.0
 45
297.0
 46
0.0
 47
0.0
 48
0.0
 49
0.0
140
0.0
141
0.0
142
1.0
143
1.0
 70
0
 72
1
 73
0
 74
0
  7

 75
0
147
1.0
148
0.0
149
0.0
100
AcDbLayout
  1
Layout1
 70
0
 71
1
 10
0.0
 20
0.0
 11
210.0
 21
297.0
 12
0.0
 22
0.0
 32
0.0
 14
0.0
 24
0.0
 34
0.0
 15
0.0
 25
0.0
 35
0.0
146
0.0
 13
0.0
 23
0.0
 33
0.0
 16
1.0
 26
0.0
 36
0.0
 17
0.0
 27
1.0
 37
0.0
 76
0
330
211
345
0
346
0
  0
ENDSEC
  0
EOF
