999
DXF file: C:\Users\sesa63760\Dev\_Creo\CAD\MCADPD0005319_3D-CAD\drw0001_5.dxf
999
Pro/ENGINEER 2019471 by Parametric Technology Corporation
  0
SECTION
  2
HEADER
  9
$ACADVER
  1
AC1024
  9
$DWGCODEPAGE
  3
ANSI_1252
  9
$EXTMAX
 10
298.775097918
 20
422.5533527697
 30
0.0
  9
$EXTMIN
 10
0.0
 20
0.0
 30
0.0
  9
$LIMMIN
 10
0.0
 20
0.0
  9
$LIMMAX
 10
298.775097918
 20
422.5533527697
  9
$VIEWCTR
 10
149.387548959
 20
211.2766763848
  9
$VIEWSIZE
 40
422.5533527697
  9
$CLAYER
  8
0
  9
$LTSCALE
 40
27.5442185509
  9
$CELTYPE
  6
BYLAYER
  9
$DIMSCALE
 40
1.0
  9
$DIMASZ
 40
3.5568464038
  9
$DIMEXO
 40
1.0
  9
$DIMDLI
 40
19.0305509988
  9
$DIMEXE
 40
1.0
  9
$DIMCEN
 40
4.5072357629
  9
$DIMLFAC
 40
1.0
  9
$DIMBLK
  1
_FILLED
  9
$DIMALT
 70
0
  9
$DIMALTF
 40
0.0393700787
  9
$DIMTXT
 40
4.9795849653
  9
$DIMTOL
 70
1
  9
$DIMLIM
 70
0
  9
$DIMTFAC
 40
1.0
  9
$DIMTP
 40
0.01
  9
$DIMTM
 40
0.01
  9
$DIMGAP
 40
0.625
  9
$DIMDSEP
 70
46
  9
$AUNITS
 70
0
  9
$PDMODE
 70
3
  9
$PDSIZE
 40
0.3125
  9
$HANDSEED
  5
299
  9
$TILEMODE
 70
1
  9
$MEASUREMENT
 70
1
  9
$INSUNITS
 70
4
  0
ENDSEC
  0
SECTION
  2
CLASSES
  0
CLASS
  1
ACDBDICTIONARYWDFLT
  2
AcDbDictionaryWithDefault
  3
AutoCAD 2000
 90
0
 91
1
280
0
281
0
  0
CLASS
  1
ACDBPLACEHOLDER
  2
AcDbPlaceHolder
  3
AutoCAD 2000
 90
0
 91
1
280
0
281
0
  0
CLASS
  1
LAYOUT
  2
AcDbLayout
  3
AutoCAD 2000
 90
0
 91
0
280
0
281
0
  0
ENDSEC
  0
SECTION
  2
TABLES
  0
TABLE
  2
VPORT
  5
8
100
AcDbSymbolTable
 70
2
  0
VPORT
  5
1F4
100
AcDbSymbolTableRecord
100
AcDbViewportTableRecord
  2
*ACTIVE
 70
0
 10
0.0
 20
0.0
 11
1.0
 21
1.0
 12
149.387548959
 22
211.2766763848
 13
0.0
 23
0.0
 14
1.0
 24
1.0
 15
0.0
 25
0.0
 16
0.0
 26
0.0
 36
1.0
 17
0.0
 27
0.0
 37
0.0
 40
422.5533527697
 41
0.7070707071
 42
50.0
 43
0.0
 44
0.0
 50
0.0
 51
0.0
 71
0
 72
100
 73
1
 74
1
 75
0
 76
0
 77
0
 78
0
  0
ENDTAB
  0
TABLE
  2
LTYPE
  5
5
100
AcDbSymbolTable
 70
6
  0
LTYPE
  5
14
100
AcDbSymbolTableRecord
100
AcDbLinetypeTableRecord
  2
BYBLOCK
 70
0
  3

 72
65
 73
0
 40
0.0
  0
LTYPE
  5
15
100
AcDbSymbolTableRecord
100
AcDbLinetypeTableRecord
  2
BYLAYER
 70
0
  3

 72
65
 73
0
 40
0.0
  0
LTYPE
  5
16
100
AcDbSymbolTableRecord
100
AcDbLinetypeTableRecord
  2
CONTINUOUS
 70
64
  3
Solid line
 72
65
 73
0
 40
0.0
  0
LTYPE
  5
1F5
100
AcDbSymbolTableRecord
100
AcDbLinetypeTableRecord
  2
CENTER
 70
64
  3
____ _ ____ _ ____ _ ____ _ ____ _ ____ _ ____
 72
65
 73
4
 40
0.6
 49
0.375
 74
0
 49
-0.075
 74
0
 49
0.075
 74
0
 49
-0.075
 74
0
  0
LTYPE
  5
1F6
100
AcDbSymbolTableRecord
100
AcDbLinetypeTableRecord
  2
HIDDEN
 70
64
  3
- - - - - - - - - - - - - - - - - - - -
 72
65
 73
2
 40
0.2
 49
0.1
 74
0
 49
-0.1
 74
0
  0
LTYPE
  5
1F7
100
AcDbSymbolTableRecord
100
AcDbLinetypeTableRecord
  2
PHANTOM
 70
64
  3
_____ _ _ _____ _ _ _____ _ _ _____
 72
65
 73
6
 40
0.8
 49
0.45
 74
0
 49
-0.05
 74
0
 49
0.1
 74
0
 49
-0.05
 74
0
 49
0.1
 74
0
 49
-0.05
 74
0
  0
LTYPE
  5
1F8
100
AcDbSymbolTableRecord
100
AcDbLinetypeTableRecord
  2
DOT
 70
64
  3
. . . . . . . . . . . . . . . . . . . .
 72
65
 73
2
 40
0.2
 49
0.1
 74
0
 49
-0.1
 74
0
  0
LTYPE
  5
1F9
100
AcDbSymbolTableRecord
100
AcDbLinetypeTableRecord
  2
DASHED
 70
64
  3
- - - - - - - - - - - - - - - - - - - -
 72
65
 73
2
 40
0.2
 49
0.1
 74
0
 49
-0.1
 74
0
  0
ENDTAB
  0
TABLE
  2
LAYER
  5
2
100
AcDbSymbolTable
 70
36
  0
LAYER
  5
10
100
AcDbSymbolTableRecord
100
AcDbLayerTableRecord
  2
0
 70
0
 62
7
  6
CONTINUOUS
370
-3
390
F
  0
LAYER
  5
1FA
100
AcDbSymbolTableRecord
100
AcDbLayerTableRecord
  2
DEFAULT_1
 70
0
 62
7
  6
CENTER
370
-3
390
F
  0
LAYER
  5
1FB
100
AcDbSymbolTableRecord
100
AcDbLayerTableRecord
  2
DEFAULT_2
 70
0
 62
7
  6
HIDDEN
370
-3
390
F
  0
LAYER
  5
1FC
100
AcDbSymbolTableRecord
100
AcDbLayerTableRecord
  2
DEFAULT_3
 70
0
 62
7
  6
PHANTOM
370
-3
390
F
  0
LAYER
  5
1FD
100
AcDbSymbolTableRecord
100
AcDbLayerTableRecord
  2
00_COMPONENTS
 70
0
 62
7
  6
CONTINUOUS
370
-3
390
F
  0
LAYER
  5
1FE
100
AcDbSymbolTableRecord
100
AcDbLayerTableRecord
  2
01_1_DEFAULT_DATUMS
 70
0
 62
7
  6
CONTINUOUS
370
-3
390
F
  0
LAYER
  5
1FF
100
AcDbSymbolTableRecord
100
AcDbLayerTableRecord
  2
01_PLANES
 70
0
 62
7
  6
CONTINUOUS
370
-3
390
F
  0
LAYER
  5
200
100
AcDbSymbolTableRecord
100
AcDbLayerTableRecord
  2
02_COORD_SYS
 70
0
 62
7
  6
CONTINUOUS
370
-3
390
F
  0
LAYER
  5
201
100
AcDbSymbolTableRecord
100
AcDbLayerTableRecord
  2
03_AXES
 70
0
 62
7
  6
CONTINUOUS
370
-3
390
F
  0
LAYER
  5
202
100
AcDbSymbolTableRecord
100
AcDbLayerTableRecord
  2
04_POINTS
 70
0
 62
7
  6
CONTINUOUS
370
-3
390
F
  0
LAYER
  5
203
100
AcDbSymbolTableRecord
100
AcDbLayerTableRecord
  2
05_CURVES
 70
0
 62
7
  6
CONTINUOUS
370
-3
390
F
  0
LAYER
  5
204
100
AcDbSymbolTableRecord
100
AcDbLayerTableRecord
  2
06_SURFS
 70
0
 62
7
  6
CONTINUOUS
370
-3
390
F
  0
LAYER
  5
205
100
AcDbSymbolTableRecord
100
AcDbLayerTableRecord
  2
07_COSMETICS
 70
0
 62
7
  6
CONTINUOUS
370
-3
390
F
  0
LAYER
  5
206
100
AcDbSymbolTableRecord
100
AcDbLayerTableRecord
  2
10_NOTES
 70
0
 62
7
  6
CONTINUOUS
370
-3
390
F
  0
LAYER
  5
207
100
AcDbSymbolTableRecord
100
AcDbLayerTableRecord
  2
11_NOTES_PUB
 70
0
 62
7
  6
CONTINUOUS
370
-3
390
F
  0
LAYER
  5
208
100
AcDbSymbolTableRecord
100
AcDbLayerTableRecord
  2
13_REF_GTOL
 70
0
 62
7
  6
CONTINUOUS
370
-3
390
F
  0
LAYER
  5
209
100
AcDbSymbolTableRecord
100
AcDbLayerTableRecord
  2
16_MISC
 70
0
 62
7
  6
CONTINUOUS
370
-3
390
F
  0
LAYER
  5
20A
100
AcDbSymbolTableRecord
100
AcDbLayerTableRecord
  2
17_NO_PRINT
 70
0
 62
7
  6
CONTINUOUS
370
-3
390
F
  0
LAYER
  5
20B
100
AcDbSymbolTableRecord
100
AcDbLayerTableRecord
  2
18_DATUM_CAMS_JOINTS
 70
0
 62
7
  6
CONTINUOUS
370
-3
390
F
  0
LAYER
  5
20C
100
AcDbSymbolTableRecord
100
AcDbLayerTableRecord
  2
19_DATUM_FUNCTIONAL
 70
0
 62
7
  6
CONTINUOUS
370
-3
390
F
  0
LAYER
  5
20D
100
AcDbSymbolTableRecord
100
AcDbLayerTableRecord
  2
20_DATUM_KINEMATIC_SCHEME
 70
0
 62
7
  6
CONTINUOUS
370
-3
390
F
  0
ENDTAB
  0
TABLE
  2
STYLE
  5
3
100
AcDbSymbolTable
 70
1
  0
STYLE
  5
11
100
AcDbSymbolTableRecord
100
AcDbTextStyleTableRecord
  2
STANDARD
 70
0
 40
0.0
 41
1.0
 50
0.0
 71
0
 42
0.2
  3
ARIAL.TTF
  4

  0
STYLE
  5
20E
100
AcDbSymbolTableRecord
100
AcDbTextStyleTableRecord
  2
TEXTSTYLE_1
 70
0
 40
0.0
 41
0.8
 50
0.0
 71
0
 42
0.2
  3
gdt
  4

  0
ENDTAB
  0
TABLE
  2
VIEW
  5
6
100
AcDbSymbolTable
 70
0
  0
ENDTAB
  0
TABLE
  2
UCS
  5
7
100
AcDbSymbolTable
 70
0
  0
ENDTAB
  0
TABLE
  2
APPID
  5
9
100
AcDbSymbolTable
 70
1
  0
APPID
  5
20F
100
AcDbSymbolTableRecord
100
AcDbRegAppTableRecord
  2
ACAD
 70
0
  0
ENDTAB
  0
TABLE
  2
BLOCK_RECORD
  5
1
100
AcDbSymbolTable
 70
0
  0
BLOCK_RECORD
  5
210
100
AcDbSymbolTableRecord
100
AcDbBlockTableRecord
  2
*Model_Space
  0
BLOCK_RECORD
  5
211
100
AcDbSymbolTableRecord
100
AcDbBlockTableRecord
  2
*Paper_Space
  0
BLOCK_RECORD
  5
212
100
AcDbSymbolTableRecord
100
AcDbBlockTableRecord
  2
_FILLED
  0
ENDTAB
  0
TABLE
  2
DIMSTYLE
  5
A
100
AcDbSymbolTable
 70
1
100
AcDbDimStyleTable
 71
0
  0
DIMSTYLE
105
213
100
AcDbSymbolTableRecord
100
AcDbDimStyleTableRecord
  2
STANDARD
 70
0
  3

  4

 40
1.0
 41
3.5568464038
 42
1.0
 43
0.38
 44
1.0
 45
0.0
 46
0.0
 47
0.01
 48
0.01
140
4.9795849653
141
0.09
142
0.0
143
25.4
144
1.0
145
0.0
146
1.0
147
0.625
 71
1
 72
0
 73
0
 74
0
 75
0
 76
0
 77
1
 78
8
 79
2
170
0
171
1
172
0
173
0
174
0
175
0
176
0
177
0
178
0
270
2
179
2
271
2
272
2
273
2
274
2
275
0
280
0
281
0
282
0
283
1
284
8
285
0
286
0
287
3
288
0
340
11
278
46
341
212
342
212
343
212
344
212
  0
ENDTAB
  0
ENDSEC
  0
SECTION
  2
BLOCKS
  0
BLOCK
  5
20
100
AcDbEntity
  8
0
100
AcDbBlockBegin
  2
*Model_Space
 70
0
 10
0.0
 20
0.0
 30
0.0
  3
*Model_Space
  1

  0
ENDBLK
  5
21
100
AcDbEntity
  8
0
100
AcDbBlockEnd
  0
BLOCK
  5
1C
100
AcDbEntity
  8
0
100
AcDbBlockBegin
  2
*Paper_Space
 70
0
 10
0.0
 20
0.0
 30
0.0
  3
*Paper_Space
  1

  0
ENDBLK
  5
1D
100
AcDbEntity
  8
0
100
AcDbBlockEnd
  0
BLOCK
  5
214
100
AcDbEntity
  8
0
100
AcDbBlockBegin
  2
_FILLED
 70
64
 10
0.0
 20
0.0
  3
_FILLED
  1

  0
SOLID
  5
215
100
AcDbEntity
  8
0
  6
BYBLOCK
 62
0
100
AcDbTrace
 10
0.0
 20
0.0
 11
-1.0
 21
0.25
 12
-1.0
 22
-0.25
 13
-1.0
 23
-0.25
  0
ENDBLK
  5
216
100
AcDbEntity
  8
0
  6
BYBLOCK
 62
0
100
AcDbBlockEnd
  0
ENDSEC
  0
SECTION
  2
ENTITIES
  0
LINE
  5
217
100
AcDbEntity
  8
0
100
AcDbLine
 62
7
  6
BYLAYER
 10
123.5251582884
 20
34.393877551
 11
183.5251582884
 21
34.393877551
  0
LINE
  5
218
100
AcDbEntity
  8
0
100
AcDbLine
 62
7
  6
BYLAYER
 10
150.4881420635
 20
38.893877551
 11
136.5621745133
 21
38.893877551
  0
LINE
  5
219
100
AcDbEntity
  8
0
100
AcDbLine
 62
7
  6
BYLAYER
 10
158.0251582884
 20
38.893877551
 11
169.0251582884
 21
38.893877551
  0
LINE
  5
21A
100
AcDbEntity
  8
0
100
AcDbLine
 62
7
  6
BYLAYER
 10
133.2304950874
 20
40.893877551
 11
153.8198214894
 21
40.893877551
  0
LINE
  5
21B
100
AcDbEntity
  8
0
100
AcDbLine
 62
7
  6
BYLAYER
 10
123.5251582884
 20
46.093877551
 11
183.5251582884
 21
46.093877551
  0
LINE
  5
21C
100
AcDbEntity
  8
0
100
AcDbLine
 62
7
  6
BYLAYER
 10
127.5251582884
 20
52.593877551
 11
139.5251582884
 21
52.593877551
  0
LINE
  5
21D
100
AcDbEntity
  8
0
100
AcDbLine
 62
7
  6
BYLAYER
 10
147.5251582884
 20
52.593877551
 11
159.5251582884
 21
52.593877551
  0
LINE
  5
21E
100
AcDbEntity
  8
0
100
AcDbLine
 62
7
  6
BYLAYER
 10
167.5251582884
 20
52.593877551
 11
179.5251582884
 21
52.593877551
  0
LINE
  5
21F
100
AcDbEntity
  8
0
100
AcDbLine
 62
7
  6
BYLAYER
 10
130.3277718744
 20
68.093877551
 11
136.7226014639
 21
68.093877551
  0
LINE
  5
220
100
AcDbEntity
  8
0
100
AcDbLine
 62
7
  6
BYLAYER
 10
150.3277718744
 20
68.093877551
 11
156.7226014639
 21
68.093877551
  0
LINE
  5
221
100
AcDbEntity
  8
0
100
AcDbLine
 62
7
  6
BYLAYER
 10
170.3277718744
 20
68.093877551
 11
176.7226014639
 21
68.093877551
  0
LINE
  5
222
100
AcDbEntity
  8
0
100
AcDbLine
 62
7
  6
BYLAYER
 10
123.5251582884
 20
71.593877551
 11
183.5251582884
 21
71.593877551
  0
LINE
  5
223
100
AcDbEntity
  8
0
100
AcDbLine
 62
7
  6
BYLAYER
 10
123.5251582884
 20
86.593877551
 11
183.5251582884
 21
86.593877551
  0
LINE
  5
224
100
AcDbEntity
  8
0
100
AcDbLine
 62
7
  6
BYLAYER
 10
123.5751582884
 20
90.693877551
 11
135.4751582884
 21
90.693877551
  0
LINE
  5
225
100
AcDbEntity
  8
0
100
AcDbLine
 62
7
  6
BYLAYER
 10
171.5589220158
 20
90.693877551
 11
183.4751582884
 21
90.693877551
  0
LINE
  5
226
100
AcDbEntity
  8
0
100
AcDbLine
 62
7
  6
BYLAYER
 10
183.4751582884
 20
99.493877551
 11
123.5751582884
 21
99.493877551
  0
LINE
  5
227
100
AcDbEntity
  8
0
100
AcDbLine
 62
7
  6
BYLAYER
 10
173.0251582884
 20
102.693877551
 11
134.0251582884
 21
102.693877551
  0
LINE
  5
228
100
AcDbEntity
  8
0
100
AcDbLine
 62
7
  6
BYLAYER
 10
160.5251582884
 20
103.593877551
 11
146.5251582884
 21
103.593877551
  0
LINE
  5
229
100
AcDbEntity
  8
0
100
AcDbLine
 62
7
  6
BYLAYER
 10
113.5251582884
 20
339.593877551
 11
113.5251582884
 21
342.593877551
  0
LINE
  5
22A
100
AcDbEntity
  8
0
100
AcDbLine
 62
7
  6
BYLAYER
 10
114.5251582884
 20
327.593877551
 11
114.5251582884
 21
339.593877551
  0
LINE
  5
22B
100
AcDbEntity
  8
0
100
AcDbLine
 62
7
  6
BYLAYER
 10
147.7751582884
 20
165.793877551
 11
159.2751582884
 21
165.793877551
  0
LINE
  5
22C
100
AcDbEntity
  8
0
100
AcDbLine
 62
7
  6
BYLAYER
 10
147.2751582884
 20
166.293877551
 11
159.7751582884
 21
166.293877551
  0
LINE
  5
22D
100
AcDbEntity
  8
0
100
AcDbLine
 62
7
  6
BYLAYER
 10
159.7751582884
 20
167.093877551
 11
147.2751582884
 21
167.093877551
  0
LINE
  5
22E
100
AcDbEntity
  8
0
100
AcDbLine
 62
7
  6
BYLAYER
 10
134.5252162852
 20
167.593877551
 11
172.5251002917
 21
167.593877551
  0
LINE
  5
22F
100
AcDbEntity
  8
0
100
AcDbLine
 62
7
  6
BYLAYER
 10
172.5251002917
 20
168.593877551
 11
134.5252162852
 21
168.593877551
  0
LINE
  5
230
100
AcDbEntity
  8
0
100
AcDbLine
 62
7
  6
BYLAYER
 10
119.5251582884
 20
342.593877551
 11
119.5251582884
 21
339.593877551
  0
LINE
  5
231
100
AcDbEntity
  8
0
100
AcDbLine
 62
7
  6
BYLAYER
 10
122.0251582884
 20
342.593877551
 11
122.0251582884
 21
343.893877551
  0
LINE
  5
232
100
AcDbEntity
  8
0
100
AcDbLine
 62
7
  6
BYLAYER
 10
123.5251582884
 20
348.393877551
 11
123.5251582884
 21
343.893877551
  0
LINE
  5
233
100
AcDbEntity
  8
0
100
AcDbLine
 62
7
  6
BYLAYER
 10
123.5251582884
 20
34.393877551
 11
123.5251582884
 21
99.493877551
  0
LINE
  5
234
100
AcDbEntity
  8
0
100
AcDbLine
 62
7
  6
BYLAYER
 10
123.5751582884
 20
90.693877551
 11
123.5751582884
 21
99.493877551
  0
LINE
  5
235
100
AcDbEntity
  8
0
100
AcDbLine
 62
7
  6
BYLAYER
 10
124.424137774
 20
339.593877551
 11
124.4241382966
 21
327.593877551
  0
LINE
  5
236
100
AcDbEntity
  8
0
100
AcDbLine
 62
7
  6
BYLAYER
 10
126.5251582884
 20
349.393877551
 11
126.5251582884
 21
343.893877551
  0
LINE
  5
237
100
AcDbEntity
  8
0
100
AcDbLine
 62
7
  6
BYLAYER
 10
127.5251582884
 20
63.093877551
 11
127.5251582884
 21
46.093877551
  0
LINE
  5
238
100
AcDbEntity
  8
0
100
AcDbLine
 62
7
  6
BYLAYER
 10
129.0016798053
 20
90.693877551
 11
129.0016798053
 21
99.493877551
  0
LINE
  5
239
100
AcDbEntity
  8
0
100
AcDbLine
 62
7
  6
BYLAYER
 10
129.6251582884
 20
343.893877551
 11
129.6251582884
 21
342.593877551
  0
LINE
  5
23A
100
AcDbEntity
  8
0
100
AcDbLine
 62
7
  6
BYLAYER
 10
129.7830703474
 20
99.493877551
 11
129.7830703474
 21
90.693877551
  0
LINE
  5
23B
100
AcDbEntity
  8
0
100
AcDbLine
 62
7
  6
BYLAYER
 10
131.0251582884
 20
349.393877551
 11
131.0251582884
 21
387.193877551
  0
LINE
  5
23C
100
AcDbEntity
  8
0
100
AcDbLine
 62
7
  6
BYLAYER
 10
131.3723685416
 20
387.193877551
 11
131.3723685416
 21
371.3938773485
  0
LINE
  5
23D
100
AcDbEntity
  8
0
100
AcDbLine
 62
7
  6
BYLAYER
 10
133.2304950874
 20
34.393877551
 11
133.2304950874
 21
40.893877551
  0
LINE
  5
23E
100
AcDbEntity
  8
0
100
AcDbLine
 62
7
  6
BYLAYER
 10
133.8337896209
 20
389.193877551
 11
133.8337896209
 21
371.3938775564
  0
LINE
  5
23F
100
AcDbEntity
  8
0
100
AcDbLine
 62
7
  6
BYLAYER
 10
134.0251582884
 20
99.493877551
 11
134.0251582884
 21
102.693877551
  0
LINE
  5
240
100
AcDbEntity
  8
0
100
AcDbLine
 62
7
  6
BYLAYER
 10
134.5251582884
 20
167.593877551
 11
134.5251582884
 21
168.593877551
  0
LINE
  5
241
100
AcDbEntity
  8
0
100
AcDbLine
 62
7
  6
BYLAYER
 10
135.1762982403
 20
90.693877551
 11
135.1762982403
 21
99.493877551
  0
LINE
  5
242
100
AcDbEntity
  8
0
100
AcDbLine
 62
7
  6
BYLAYER
 10
135.4751582884
 20
99.493877551
 11
135.4751582884
 21
90.693877551
  0
LINE
  5
243
100
AcDbEntity
  8
0
100
AcDbLine
 62
7
  6
BYLAYER
 10
137.5251582884
 20
34.393877551
 11
137.5251582884
 21
38.893877551
  0
LINE
  5
244
100
AcDbEntity
  8
0
100
AcDbLine
 62
7
  6
BYLAYER
 10
137.9912599833
 20
102.693877551
 11
137.9912599833
 21
99.493877551
  0
LINE
  5
245
100
AcDbEntity
  8
0
100
AcDbLine
 62
7
  6
BYLAYER
 10
139.5251582884
 20
63.093877551
 11
139.5251582884
 21
46.093877551
  0
LINE
  5
246
100
AcDbEntity
  8
0
100
AcDbLine
 62
7
  6
BYLAYER
 10
139.6251582884
 20
387.193877551
 11
139.6251582884
 21
389.193877551
  0
LINE
  5
247
100
AcDbEntity
  8
0
100
AcDbLine
 62
7
  6
BYLAYER
 10
140.0251582884
 20
389.193877551
 11
140.0251582884
 21
387.193877551
  0
LINE
  5
248
100
AcDbEntity
  8
0
100
AcDbLine
 62
7
  6
BYLAYER
 10
140.0251582884
 20
99.493877551
 11
140.0251582884
 21
102.693877551
  0
LINE
  5
249
100
AcDbEntity
  8
0
100
AcDbLine
 62
7
  6
BYLAYER
 10
141.0251582884
 20
102.693877551
 11
141.0251582884
 21
99.493877551
  0
LINE
  5
24A
100
AcDbEntity
  8
0
100
AcDbLine
 62
7
  6
BYLAYER
 10
145.5251582884
 20
278.593877551
 11
145.5251582884
 21
327.593877551
  0
LINE
  5
24B
100
AcDbEntity
  8
0
100
AcDbLine
 62
7
  6
BYLAYER
 10
146.5251582884
 20
103.593877551
 11
146.5251582884
 21
102.693877551
  0
LINE
  5
24C
100
AcDbEntity
  8
0
100
AcDbLine
 62
7
  6
BYLAYER
 10
147.2751582884
 20
166.293877551
 11
147.2751582884
 21
167.093877551
  0
LINE
  5
24D
100
AcDbEntity
  8
0
100
AcDbLine
 62
7
  6
BYLAYER
 10
147.5251582884
 20
63.093877551
 11
147.5251582884
 21
46.093877551
  0
LINE
  5
24E
100
AcDbEntity
  8
0
100
AcDbLine
 62
7
  6
BYLAYER
 10
149.2751582884
 20
165.793877551
 11
149.2751582884
 21
167.593877551
  0
LINE
  5
24F
100
AcDbEntity
  8
0
100
AcDbLine
 62
7
  6
BYLAYER
 10
149.5251582884
 20
278.593877551
 11
149.5251582884
 21
168.593877551
  0
LINE
  5
250
100
AcDbEntity
  8
0
100
AcDbLine
 62
7
  6
BYLAYER
 10
149.5251582884
 20
165.793877551
 11
149.5251582884
 21
103.593877551
  0
LINE
  5
251
100
AcDbEntity
  8
0
100
AcDbLine
 62
7
  6
BYLAYER
 10
149.5251582884
 20
38.893877551
 11
149.5251582884
 21
34.393877551
  0
LINE
  5
252
100
AcDbEntity
  8
0
100
AcDbLine
 62
7
  6
BYLAYER
 10
153.8198214894
 20
40.893877551
 11
153.8198214894
 21
34.393877551
  0
LINE
  5
253
100
AcDbEntity
  8
0
100
AcDbLine
 62
7
  6
BYLAYER
 10
157.5251582884
 20
278.593877551
 11
157.5251582884
 21
168.593877551
  0
LINE
  5
254
100
AcDbEntity
  8
0
100
AcDbLine
 62
7
  6
BYLAYER
 10
157.5251582884
 20
165.793877551
 11
157.5251582884
 21
103.593877551
  0
LINE
  5
255
100
AcDbEntity
  8
0
100
AcDbLine
 62
7
  6
BYLAYER
 10
157.7751582884
 20
165.793877551
 11
157.7751582884
 21
167.593877551
  0
LINE
  5
256
100
AcDbEntity
  8
0
100
AcDbLine
 62
7
  6
BYLAYER
 10
158.0251582884
 20
38.893877551
 11
158.0251582884
 21
34.393877551
  0
LINE
  5
257
100
AcDbEntity
  8
0
100
AcDbLine
 62
7
  6
BYLAYER
 10
159.5251582884
 20
63.093877551
 11
159.5251582884
 21
46.093877551
  0
LINE
  5
258
100
AcDbEntity
  8
0
100
AcDbLine
 62
7
  6
BYLAYER
 10
159.7751582884
 20
166.293877551
 11
159.7751582884
 21
167.093877551
  0
LINE
  5
259
100
AcDbEntity
  8
0
100
AcDbLine
 62
7
  6
BYLAYER
 10
160.5251582884
 20
103.593877551
 11
160.5251582884
 21
102.693877551
  0
LINE
  5
25A
100
AcDbEntity
  8
0
100
AcDbLine
 62
7
  6
BYLAYER
 10
161.5251582884
 20
327.593877551
 11
161.5251582884
 21
278.593877551
  0
LINE
  5
25B
100
AcDbEntity
  8
0
100
AcDbLine
 62
7
  6
BYLAYER
 10
166.0251582884
 20
99.493877551
 11
166.0251582884
 21
102.693877551
  0
LINE
  5
25C
100
AcDbEntity
  8
0
100
AcDbLine
 62
7
  6
BYLAYER
 10
167.0251582884
 20
102.693877551
 11
167.0251582884
 21
99.493877551
  0
LINE
  5
25D
100
AcDbEntity
  8
0
100
AcDbLine
 62
7
  6
BYLAYER
 10
167.5251582884
 20
63.093877551
 11
167.5251582884
 21
46.093877551
  0
LINE
  5
25E
100
AcDbEntity
  8
0
100
AcDbLine
 62
7
  6
BYLAYER
 10
169.0251582884
 20
38.893877551
 11
169.0251582884
 21
34.393877551
  0
LINE
  5
25F
100
AcDbEntity
  8
0
100
AcDbLine
 62
7
  6
BYLAYER
 10
169.0590565936
 20
102.693877551
 11
169.0590565936
 21
99.493877551
  0
LINE
  5
260
100
AcDbEntity
  8
0
100
AcDbLine
 62
7
  6
BYLAYER
 10
171.5589220158
 20
90.693877551
 11
171.5589220158
 21
99.493877551
  0
LINE
  5
261
100
AcDbEntity
  8
0
100
AcDbLine
 62
7
  6
BYLAYER
 10
171.5912310074
 20
90.693877551
 11
171.5912310074
 21
99.493877551
  0
LINE
  5
262
100
AcDbEntity
  8
0
100
AcDbLine
 62
7
  6
BYLAYER
 10
171.8621346087
 20
99.493877551
 11
171.8621346087
 21
90.693877551
  0
LINE
  5
263
100
AcDbEntity
  8
0
100
AcDbLine
 62
7
  6
BYLAYER
 10
172.5251582884
 20
167.593877551
 11
172.5251582884
 21
168.593877551
  0
LINE
  5
264
100
AcDbEntity
  8
0
100
AcDbLine
 62
7
  6
BYLAYER
 10
173.0251582884
 20
99.493877551
 11
173.0251582884
 21
102.693877551
  0
LINE
  5
265
100
AcDbEntity
  8
0
100
AcDbLine
 62
7
  6
BYLAYER
 10
173.2165269545
 20
371.3938775603
 11
173.2165269559
 21
389.193877551
  0
LINE
  5
266
100
AcDbEntity
  8
0
100
AcDbLine
 62
7
  6
BYLAYER
 10
175.6779480352
 20
371.39387735
 11
175.6779480352
 21
387.193877551
  0
LINE
  5
267
100
AcDbEntity
  8
0
100
AcDbLine
 62
7
  6
BYLAYER
 10
176.0251582884
 20
349.393877551
 11
176.0251582884
 21
387.193877551
  0
LINE
  5
268
100
AcDbEntity
  8
0
100
AcDbLine
 62
7
  6
BYLAYER
 10
177.165272069
 20
90.693877551
 11
177.165272069
 21
99.493877551
  0
LINE
  5
269
100
AcDbEntity
  8
0
100
AcDbLine
 62
7
  6
BYLAYER
 10
177.4251582884
 20
342.593877551
 11
177.4251582884
 21
343.893877551
  0
LINE
  5
26A
100
AcDbEntity
  8
0
100
AcDbLine
 62
7
  6
BYLAYER
 10
177.9589232408
 20
90.693877551
 11
177.9589232408
 21
99.493877551
  0
LINE
  5
26B
100
AcDbEntity
  8
0
100
AcDbLine
 62
7
  6
BYLAYER
 10
179.5251582884
 20
63.093877551
 11
179.5251582884
 21
46.093877551
  0
LINE
  5
26C
100
AcDbEntity
  8
0
100
AcDbLine
 62
7
  6
BYLAYER
 10
180.5251582884
 20
343.893877551
 11
180.5251582884
 21
349.393877551
  0
LINE
  5
26D
100
AcDbEntity
  8
0
100
AcDbLine
 62
7
  6
BYLAYER
 10
182.6261788029
 20
339.593877551
 11
182.6261786725
 21
327.593877551
  0
LINE
  5
26E
100
AcDbEntity
  8
0
100
AcDbLine
 62
7
  6
BYLAYER
 10
183.4751582884
 20
99.493877551
 11
183.4751582884
 21
90.693877551
  0
LINE
  5
26F
100
AcDbEntity
  8
0
100
AcDbLine
 62
7
  6
BYLAYER
 10
183.5251582884
 20
348.393877551
 11
183.5251582884
 21
343.893877551
  0
LINE
  5
270
100
AcDbEntity
  8
0
100
AcDbLine
 62
7
  6
BYLAYER
 10
183.5251582884
 20
34.393877551
 11
183.5251582884
 21
99.493877551
  0
LINE
  5
271
100
AcDbEntity
  8
0
100
AcDbLine
 62
7
  6
BYLAYER
 10
185.0251582884
 20
343.893877551
 11
185.0251582884
 21
342.593877551
  0
LINE
  5
272
100
AcDbEntity
  8
0
100
AcDbLine
 62
7
  6
BYLAYER
 10
187.5251582884
 20
339.593877551
 11
187.5251582884
 21
342.593877551
  0
LINE
  5
273
100
AcDbEntity
  8
0
100
AcDbLine
 62
7
  6
BYLAYER
 10
192.5251582884
 20
327.593877551
 11
192.5251582884
 21
339.593877551
  0
LINE
  5
274
100
AcDbEntity
  8
0
100
AcDbLine
 62
7
  6
BYLAYER
 10
193.5251582884
 20
342.593877551
 11
193.5251582884
 21
339.593877551
  0
LINE
  5
275
100
AcDbEntity
  8
0
100
AcDbLine
 62
7
  6
BYLAYER
 10
145.5251582884
 20
278.593877551
 11
161.5251582884
 21
278.593877551
  0
LINE
  5
276
100
AcDbEntity
  8
0
100
AcDbLine
 62
7
  6
BYLAYER
 10
114.5258489152
 20
327.593877551
 11
192.5244676601
 21
327.593877551
  0
LINE
  5
277
100
AcDbEntity
  8
0
100
AcDbLine
 62
7
  6
BYLAYER
 10
113.5251582884
 20
339.593877551
 11
193.5251582884
 21
339.593877551
  0
LINE
  5
278
100
AcDbEntity
  8
0
100
AcDbLine
 62
7
  6
BYLAYER
 10
193.5251582884
 20
342.593877551
 11
113.5251582884
 21
342.593877551
  0
LINE
  5
279
100
AcDbEntity
  8
0
100
AcDbLine
 62
7
  6
BYLAYER
 10
185.0251582884
 20
343.893877551
 11
122.0251582884
 21
343.893877551
  0
LINE
  5
27A
100
AcDbEntity
  8
0
100
AcDbLine
 62
7
  6
BYLAYER
 10
183.5251582884
 20
348.393877551
 11
123.5251582884
 21
348.393877551
  0
LINE
  5
27B
100
AcDbEntity
  8
0
100
AcDbLine
 62
7
  6
BYLAYER
 10
124.5251582884
 20
349.393877551
 11
182.5251582884
 21
349.393877551
  0
LINE
  5
27C
100
AcDbEntity
  8
0
100
AcDbLine
 62
7
  6
BYLAYER
 10
163.3326809141
 20
356.893877551
 11
143.7176356632
 21
356.893877551
  0
LINE
  5
27D
100
AcDbEntity
  8
0
100
AcDbLine
 62
7
  6
BYLAYER
 10
162.2429561723
 20
359.393877551
 11
144.8073604094
 21
359.393877551
  0
LINE
  5
27E
100
AcDbEntity
  8
0
100
AcDbLine
 62
7
  6
BYLAYER
 10
131.3723685375
 20
371.3938775784
 11
175.6779480394
 21
371.3938776985
  0
LINE
  5
27F
100
AcDbEntity
  8
0
100
AcDbLine
 62
7
  6
BYLAYER
 10
176.0251582884
 20
387.193877551
 11
131.0251582884
 21
387.193877551
  0
LINE
  5
280
100
AcDbEntity
  8
0
100
AcDbLine
 62
7
  6
BYLAYER
 10
133.0251809212
 20
389.193877551
 11
174.0251568251
 21
389.193877551
  0
ARC
  5
281
100
AcDbEntity
  8
0
100
AcDbCircle
 62
7
  6
BYLAYER
 10
173.5251582884
 20
63.093877551
 40
6.0
100
AcDbArc
 50
0.0
 51
180.0
  0
ARC
  5
282
100
AcDbEntity
  8
0
100
AcDbCircle
 62
7
  6
BYLAYER
 10
153.5251582884
 20
63.093877551
 40
6.0
100
AcDbArc
 50
0.0
 51
180.0
  0
ARC
  5
283
100
AcDbEntity
  8
0
100
AcDbCircle
 62
7
  6
BYLAYER
 10
133.5251582884
 20
63.093877551
 40
6.0
100
AcDbArc
 50
0.0
 51
180.0
  0
ARC
  5
284
100
AcDbEntity
  8
0
100
AcDbCircle
 62
7
  6
BYLAYER
 10
174.0251582884
 20
387.193877551
 40
2.0
100
AcDbArc
 50
0.0
 51
90.0
  0
ARC
  5
285
100
AcDbEntity
  8
0
100
AcDbCircle
 62
7
  6
BYLAYER
 10
133.0251582884
 20
387.193877551
 40
2.0
100
AcDbArc
 50
90.0
 51
180.0
  0
ARC
  5
286
100
AcDbEntity
  8
0
100
AcDbCircle
 62
7
  6
BYLAYER
 10
173.7077775197
 20
387.2612695944
 40
1.932608233
100
AcDbArc
 50
81.5336102919
 51
89.9693554287
  0
ARC
  5
287
100
AcDbEntity
  8
0
100
AcDbCircle
 62
7
  6
BYLAYER
 10
182.5251582884
 20
348.393877551
 40
1.0
100
AcDbArc
 50
0.0
 51
90.0
  0
ARC
  5
288
100
AcDbEntity
  8
0
100
AcDbCircle
 62
7
  6
BYLAYER
 10
124.5251582884
 20
348.393877551
 40
1.0
100
AcDbArc
 50
90.0
 51
180.0
  0
ARC
  5
289
100
AcDbEntity
  8
0
100
AcDbCircle
 62
7
  6
BYLAYER
 10
160.2751582884
 20
167.093877551
 40
0.5
100
AcDbArc
 50
90.0
 51
180.0
  0
ARC
  5
28A
100
AcDbEntity
  8
0
100
AcDbCircle
 62
7
  6
BYLAYER
 10
146.7751582884
 20
167.093877551
 40
0.5
100
AcDbArc
 50
0.0
 51
90.0
  0
ARC
  5
28B
100
AcDbEntity
  8
0
100
AcDbCircle
 62
7
  6
BYLAYER
 10
147.7751582884
 20
166.293877551
 40
0.5
100
AcDbArc
 50
180.0
 51
270.0
  0
ARC
  5
28C
100
AcDbEntity
  8
0
100
AcDbCircle
 62
7
  6
BYLAYER
 10
159.2751582884
 20
166.293877551
 40
0.5
100
AcDbArc
 50
270.0
 51
360.0
  0
SPLINE
  5
28D
100
AcDbEntity
  8
0
100
AcDbSpline
 62
7
  6
BYLAYER
 70
0
 71
3
 72
11
 73
7
 74
0
 42
0.0000001
 43
0.0000001
 44
0.0000000001
 40
0.0
 40
0.0
 40
0.0
 40
0.0
 40
0.2484519611
 40
0.4976062485
 40
0.7484176591
 40
1.0
 40
1.0
 40
1.0
 40
1.0
 10
173.9923139203
 20
389.1728170354
 30
0.0
 10
174.2231468515
 20
389.1385362399
 30
0.0
 10
174.6772862961
 20
388.9848438764
 30
0.0
 10
175.2311610638
 20
388.5284411343
 30
0.0
 10
175.5939019045
 20
387.9062189652
 30
0.0
 10
175.6779480394
 20
387.4301823904
 30
0.0
 10
175.6779480394
 20
387.193877551
 30
0.0
  0
SPLINE
  5
28E
100
AcDbEntity
  8
0
100
AcDbSpline
 62
7
  6
BYLAYER
 70
0
 71
3
 72
11
 73
7
 74
0
 42
0.0000001
 43
0.0000001
 44
0.0000000001
 40
0.0
 40
0.0
 40
0.0
 40
0.0
 40
0.3218054009
 40
0.4817653275
 40
0.6295562266
 40
1.0
 40
1.0
 40
1.0
 40
1.0
 10
163.3326808767
 20
356.893877551
 30
0.0
 10
163.3326808768
 20
357.2016809753
 30
0.0
 10
163.2983775868
 20
357.6620301906
 30
0.0
 10
163.1636853783
 20
358.2560780892
 30
0.0
 10
162.9665868744
 20
358.8486860278
 30
0.0
 10
162.597281653
 20
359.393877551
 30
0.0
 10
162.2429561457
 20
359.393877551
 30
0.0
  0
SPLINE
  5
28F
100
AcDbEntity
  8
0
100
AcDbSpline
 62
7
  6
BYLAYER
 70
0
 71
3
 72
17
 73
13
 74
0
 42
0.0000001
 43
0.0000001
 44
0.0000000001
 40
0.0
 40
0.0
 40
0.0
 40
0.0
 40
0.15614033
 40
0.3007143252
 40
0.3661049179
 40
0.4263260896
 40
0.5334316524
 40
0.5836147142
 40
0.6340672403
 40
0.7418141621
 40
0.8638679579
 40
1.0
 40
1.0
 40
1.0
 40
1.0
 10
175.6779480352
 20
371.39387735
 30
0.0
 10
175.6779385053
 20
370.2037037258
 30
0.0
 10
175.6254983449
 20
367.9115262087
 30
0.0
 10
175.3783833198
 20
365.1265998482
 30
0.0
 10
174.9762368619
 20
363.1032224019
 30
0.0
 10
174.4591043352
 20
361.4060769215
 30
0.0
 10
173.6555571996
 20
359.9124173485
 30
0.0
 10
172.5129978213
 20
358.8011121406
 30
0.0
 10
171.1754056074
 20
357.9279195548
 30
0.0
 10
169.1170856937
 20
357.249839191
 30
0.0
 10
166.3396068698
 20
356.9313561794
 30
0.0
 10
164.370342138
 20
356.8938864215
 30
0.0
 10
163.3326809141
 20
356.893877551
 30
0.0
  0
SPLINE
  5
290
100
AcDbEntity
  8
0
100
AcDbSpline
 62
7
  6
BYLAYER
 70
0
 71
3
 72
17
 73
13
 74
0
 42
0.0000001
 43
0.0000001
 44
0.0000000001
 40
0.0
 40
0.0
 40
0.0
 40
0.0
 40
0.1469501475
 40
0.2848563896
 40
0.3482315295
 40
0.4073535273
 40
0.5144636002
 40
0.5657186851
 40
0.6178584233
 40
0.730423104
 40
0.8581984846
 40
1.0
 40
1.0
 40
1.0
 40
1.0
 10
173.2165431124
 20
371.3938775507
 30
0.0
 10
173.2165265714
 20
370.4359561823
 30
0.0
 10
173.1718794811
 20
368.5790791117
 30
0.0
 10
172.9634631523
 20
366.3140897504
 30
0.0
 10
172.6222347494
 20
364.6482923707
 30
0.0
 10
172.1750461817
 20
363.2193729033
 30
0.0
 10
171.4653398208
 20
361.952682015
 30
0.0
 10
170.4553110091
 20
361.0105171791
 30
0.0
 10
169.253927549
 20
360.2613407967
 30
0.0
 10
167.4063994825
 20
359.693801065
 30
0.0
 10
164.9259892963
 20
359.4217857516
 30
0.0
 10
163.167321237
 20
359.3938908587
 30
0.0
 10
162.2429621667
 20
359.3938775509
 30
0.0
  0
SPLINE
  5
291
100
AcDbEntity
  8
0
100
AcDbSpline
 62
7
  6
BYLAYER
 70
0
 71
3
 72
17
 73
13
 74
0
 42
0.0000001
 43
0.0000001
 44
0.0000000001
 40
0.0
 40
0.0
 40
0.0
 40
0.0
 40
0.1418739083
 40
0.2697203259
 40
0.3823011161
 40
0.4344410094
 40
0.4857022933
 40
0.5928510189
 40
0.6519817839
 40
0.7153546248
 40
0.8531967567
 40
1.0
 40
1.0
 40
1.0
 40
1.0
 10
144.8073517649
 20
359.3938775509
 30
0.0
 10
143.8825134709
 20
359.3939031032
 30
0.0
 10
142.1229014508
 20
359.4218670735
 30
0.0
 10
139.6414233286
 20
359.6940779453
 30
0.0
 10
137.793478877
 20
360.2624386094
 30
0.0
 10
136.5923290847
 20
361.012307272
 30
0.0
 10
135.5826852112
 20
361.9553491129
 30
0.0
 10
134.8736577141
 20
363.2228151295
 30
0.0
 10
134.4269858527
 20
364.6522070103
 30
0.0
 10
134.086426886
 20
366.3177672375
 30
0.0
 10
133.8784300039
 20
368.5813891181
 30
0.0
 10
133.8337680213
 20
370.4369062322
 30
0.0
 10
133.8337663368
 20
371.393877551
 30
0.0
  0
SPLINE
  5
292
100
AcDbEntity
  8
0
100
AcDbSpline
 62
7
  6
BYLAYER
 70
0
 71
3
 72
11
 73
7
 74
0
 42
0.0000001
 43
0.0000001
 44
0.0000000001
 40
0.0
 40
0.0
 40
0.0
 40
0.0
 40
0.3704437494
 40
0.5182346335
 40
0.6781945581
 40
1.0
 40
1.0
 40
1.0
 40
1.0
 10
144.8073554146
 20
359.3938775512
 30
0.0
 10
144.4530298739
 20
359.3938775542
 30
0.0
 10
144.0837243581
 20
358.8486863344
 30
0.0
 10
143.8866256344
 20
358.2560783673
 30
0.0
 10
143.7519332468
 20
357.6620303931
 30
0.0
 10
143.7176298863
 20
357.2016810634
 30
0.0
 10
143.7176298655
 20
356.893877551
 30
0.0
  0
SPLINE
  5
293
100
AcDbEntity
  8
0
100
AcDbSpline
 62
7
  6
BYLAYER
 70
0
 71
3
 72
11
 73
7
 74
0
 42
0.0000001
 43
0.0000001
 44
0.0000000001
 40
0.0
 40
0.0
 40
0.0
 40
0.0
 40
0.2517546894
 40
0.502408868
 40
0.7517161997
 40
1.0
 40
1.0
 40
1.0
 40
1.0
 10
131.3723677682
 20
387.1938777239
 30
0.0
 10
131.3723677904
 20
387.4538068577
 30
0.0
 10
131.4742418499
 20
387.9780871863
 30
0.0
 10
131.9111597564
 20
388.6427434489
 30
0.0
 10
132.5656816273
 20
389.0891391806
 30
0.0
 10
133.0851674729
 20
389.1938785781
 30
0.0
 10
133.3415130182
 20
389.193877551
 30
0.0
  0
SPLINE
  5
294
100
AcDbEntity
  8
0
100
AcDbSpline
 62
7
  6
BYLAYER
 70
0
 71
3
 72
16
 73
12
 74
0
 42
0.0000001
 43
0.0000001
 44
0.0000000001
 40
0.0
 40
0.0
 40
0.0
 40
0.0
 40
0.0923615839
 40
0.1988009597
 40
0.3168351578
 40
0.4437634165
 40
0.5772681139
 40
0.7154632937
 40
0.8568894184
 40
0.9283339655
 40
1.0
 40
1.0
 40
1.0
 40
1.0
 10
150.4881420635
 20
38.893877551
 30
0.0
 10
150.6112093459
 20
38.893877551
 30
0.0
 10
150.875597697
 20
38.9378788997
 30
0.0
 10
151.2752877037
 20
39.0754393892
 30
0.0
 10
151.7015393222
 20
39.2706891512
 30
0.0
 10
152.1459847369
 20
39.5092485766
 30
0.0
 10
152.6020746918
 20
39.782180632
 30
0.0
 10
153.0623615109
 20
40.0829361471
 30
0.0
 10
153.4402891375
 20
40.3637706812
 30
0.0
 10
153.7167949759
 20
40.6170535008
 30
0.0
 10
153.8198214894
 20
40.7983860735
 30
0.0
 10
153.8198214894
 20
40.893877551
 30
0.0
  0
SPLINE
  5
295
100
AcDbEntity
  8
0
100
AcDbSpline
 62
7
  6
BYLAYER
 70
0
 71
3
 72
18
 73
14
 74
0
 42
0.0000001
 43
0.0000001
 44
0.0000000001
 40
0.0
 40
0.0
 40
0.0
 40
0.0
 40
0.1560932853
 40
0.3006733728
 40
0.3659899373
 40
0.4261676013
 40
0.4816780652
 40
0.5336668458
 40
0.583850257
 40
0.6342578743
 40
0.7419187783
 40
0.8639189371
 40
1.0
 40
1.0
 40
1.0
 40
1.0
 10
131.3723685416
 20
371.3938773485
 30
0.0
 10
131.3660792085
 20
370.2036271385
 30
0.0
 10
131.4288801081
 20
367.9110967042
 30
0.0
 10
131.671360154
 20
365.1252760511
 30
0.0
 10
132.0739625581
 20
363.1030049825
 30
0.0
 10
132.4790557456
 20
361.7803429663
 30
0.0
 10
133.0158686797
 20
360.6144850153
 30
0.0
 10
133.6999510147
 20
359.6173548657
 30
0.0
 10
134.5374255466
 20
358.7985635688
 30
0.0
 10
135.8758309257
 20
357.9269287845
 30
0.0
 10
137.9339870164
 20
357.25100697
 30
0.0
 10
140.7106091303
 20
356.9317684898
 30
0.0
 10
142.6799816089
 20
356.8887929191
 30
0.0
 10
143.7176356632
 20
356.893877551
 30
0.0
  0
SPLINE
  5
296
100
AcDbEntity
  8
0
100
AcDbSpline
 62
7
  6
BYLAYER
 70
0
 71
3
 72
15
 73
11
 74
0
 42
0.0000001
 43
0.0000001
 44
0.0000000001
 40
0.0
 40
0.0
 40
0.0
 40
0.0
 40
0.0716806185
 40
0.1431353182
 40
0.2845821349
 40
0.4227968824
 40
0.5563199793
 40
0.8011789358
 40
0.9076280401
 40
1.0
 40
1.0
 40
1.0
 40
1.0
 10
133.2304950874
 20
40.893877551
 30
0.0
 10
133.2304950874
 20
40.7983796774
 30
0.0
 10
133.3335201034
 20
40.6170363644
 30
0.0
 10
133.6100597535
 20
40.3637684278
 30
0.0
 10
133.9879713765
 20
40.082960052
 30
0.0
 10
134.4482707938
 20
39.7820208786
 30
0.0
 10
135.0392296825
 20
39.4292177182
 30
0.0
 10
135.6152563304
 20
39.1310116336
 30
0.0
 10
136.1747064638
 20
38.9377910862
 30
0.0
 10
136.4391102047
 20
38.893877551
 30
0.0
 10
136.5621745133
 20
38.893877551
 30
0.0
  0
ENDSEC
  0
SECTION
  2
OBJECTS
  0
DICTIONARY
  5
C
100
AcDbDictionary
280
0
281
1
  3
ACAD_GROUP
350
D
  3
ACAD_MLINESTYLE
350
17
  3
ACAD_LAYOUT
350
1A
  3
ACAD_PLOTSETTINGS
350
19
  3
ACAD_PLOTSTYLENAME
350
E
  0
DICTIONARY
  5
D
102
{ACAD_REACTORS
330
C
102
}
100
AcDbDictionary
280
0
281
1
  0
ACDBDICTIONARYWDFLT
  5
E
102
{ACAD_REACTORS
330
C
102
}
100
AcDbDictionary
281
1
  3
Normal
350
F
100
AcDbDictionaryWithDefault
340
F
  0
DICTIONARY
  5
17
102
{ACAD_REACTORS
330
C
102
}
100
AcDbDictionary
280
0
281
1
  3
Standard
350
18
  0
DICTIONARY
  5
19
102
{ACAD_REACTORS
330
C
102
}
100
AcDbDictionary
281
1
  0
DICTIONARY
  5
1A
102
{ACAD_REACTORS
330
C
102
}
100
AcDbDictionary
281
1
  3
Model
350
297
  3
Layout1
350
298
  0
ACDBPLACEHOLDER
  5
F
102
{ACAD_REACTORS
330
E
102
}
  0
MLINESTYLE
  5
18
102
{ACAD_REACTORS
330
17
102
}
100
AcDbMlineStyle
  2
STANDARD
 70
0
  3

 62
256
 51
90.0
 52
90.0
 71
2
 49
0.5
 62
256
  6
BYLAYER
 49
-0.5
 62
256
  6
BYLAYER
  0
LAYOUT
  5
297
102
{ACAD_REACTORS
330
1A
102
}
100
AcDbPlotSettings
  1

  2
none_device
  4

  6

 40
0.0
 41
0.0
 42
0.0
 43
0.0
 44
210.0
 45
297.0
 46
0.0
 47
0.0
 48
0.0
 49
0.0
140
0.0
141
0.0
142
1.0
143
1.0
 70
1024
 72
1
 73
0
 74
0
  7

 75
0
147
1.0
148
0.0
149
0.0
100
AcDbLayout
  1
Model
 70
0
 71
0
 10
0.0
 20
0.0
 11
210.0
 21
297.0
 12
0.0
 22
0.0
 32
0.0
 14
0.0
 24
0.0
 34
0.0
 15
0.0
 25
0.0
 35
0.0
146
0.0
 13
0.0
 23
0.0
 33
0.0
 16
1.0
 26
0.0
 36
0.0
 17
0.0
 27
1.0
 37
0.0
 76
0
330
210
345
0
346
0
  0
LAYOUT
  5
298
102
{ACAD_REACTORS
330
1A
102
}
100
AcDbPlotSettings
  1

  2
none_device
  4

  6

 40
0.0
 41
0.0
 42
0.0
 43
0.0
 44
210.0
 45
297.0
 46
0.0
 47
0.0
 48
0.0
 49
0.0
140
0.0
141
0.0
142
1.0
143
1.0
 70
0
 72
1
 73
0
 74
0
  7

 75
0
147
1.0
148
0.0
149
0.0
100
AcDbLayout
  1
Layout1
 70
0
 71
1
 10
0.0
 20
0.0
 11
210.0
 21
297.0
 12
0.0
 22
0.0
 32
0.0
 14
0.0
 24
0.0
 34
0.0
 15
0.0
 25
0.0
 35
0.0
146
0.0
 13
0.0
 23
0.0
 33
0.0
 16
1.0
 26
0.0
 36
0.0
 17
0.0
 27
1.0
 37
0.0
 76
0
330
211
345
0
346
0
  0
ENDSEC
  0
EOF
