999
DXF file: C:\Users\sesa63760\Dev\_Creo\CAD\MCADPD0004145_3D-CAD\drw0001_6.dxf
999
Pro/ENGINEER 2019471 by Parametric Technology Corporation
  0
SECTION
  2
HEADER
  9
$ACADVER
  1
AC1024
  9
$DWGCODEPAGE
  3
ANSI_1252
  9
$EXTMAX
 10
117.5578542537
 20
166.2603938731
 30
0.0
  9
$EXTMIN
 10
0.0
 20
0.0
 30
0.0
  9
$LIMMIN
 10
0.0
 20
0.0
  9
$LIMMAX
 10
117.5578542537
 20
166.2603938731
  9
$VIEWCTR
 10
58.7789271268
 20
83.1301969365
  9
$VIEWSIZE
 40
166.2603938731
  9
$CLAYER
  8
0
  9
$LTSCALE
 40
10.8377145636
  9
$CELTYPE
  6
BYLAYER
  9
$DIMSCALE
 40
1.0
  9
$DIMASZ
 40
1.3994982649
  9
$DIMEXO
 40
1.0
  9
$DIMDLI
 40
7.4878755167
  9
$DIMEXE
 40
1.0
  9
$DIMCEN
 40
1.7734442013
  9
$DIMLFAC
 40
1.0
  9
$DIMBLK
  1
_FILLED
  9
$DIMALT
 70
0
  9
$DIMALTF
 40
0.0393700787
  9
$DIMTXT
 40
1.9592975709
  9
$DIMTOL
 70
1
  9
$DIMLIM
 70
0
  9
$DIMTFAC
 40
1.0
  9
$DIMTP
 40
0.01
  9
$DIMTM
 40
0.01
  9
$DIMGAP
 40
0.625
  9
$DIMDSEP
 70
46
  9
$AUNITS
 70
0
  9
$PDMODE
 70
3
  9
$PDSIZE
 40
0.3125
  9
$HANDSEED
  5
266
  9
$TILEMODE
 70
1
  9
$MEASUREMENT
 70
1
  9
$INSUNITS
 70
4
  0
ENDSEC
  0
SECTION
  2
CLASSES
  0
CLASS
  1
ACDBDICTIONARYWDFLT
  2
AcDbDictionaryWithDefault
  3
AutoCAD 2000
 90
0
 91
1
280
0
281
0
  0
CLASS
  1
ACDBPLACEHOLDER
  2
AcDbPlaceHolder
  3
AutoCAD 2000
 90
0
 91
1
280
0
281
0
  0
CLASS
  1
LAYOUT
  2
AcDbLayout
  3
AutoCAD 2000
 90
0
 91
0
280
0
281
0
  0
ENDSEC
  0
SECTION
  2
TABLES
  0
TABLE
  2
VPORT
  5
8
100
AcDbSymbolTable
 70
2
  0
VPORT
  5
1F4
100
AcDbSymbolTableRecord
100
AcDbViewportTableRecord
  2
*ACTIVE
 70
0
 10
0.0
 20
0.0
 11
1.0
 21
1.0
 12
58.7789271268
 22
83.1301969365
 13
0.0
 23
0.0
 14
1.0
 24
1.0
 15
0.0
 25
0.0
 16
0.0
 26
0.0
 36
1.0
 17
0.0
 27
0.0
 37
0.0
 40
166.2603938731
 41
0.7070707071
 42
50.0
 43
0.0
 44
0.0
 50
0.0
 51
0.0
 71
0
 72
100
 73
1
 74
1
 75
0
 76
0
 77
0
 78
0
  0
ENDTAB
  0
TABLE
  2
LTYPE
  5
5
100
AcDbSymbolTable
 70
6
  0
LTYPE
  5
14
100
AcDbSymbolTableRecord
100
AcDbLinetypeTableRecord
  2
BYBLOCK
 70
0
  3

 72
65
 73
0
 40
0.0
  0
LTYPE
  5
15
100
AcDbSymbolTableRecord
100
AcDbLinetypeTableRecord
  2
BYLAYER
 70
0
  3

 72
65
 73
0
 40
0.0
  0
LTYPE
  5
16
100
AcDbSymbolTableRecord
100
AcDbLinetypeTableRecord
  2
CONTINUOUS
 70
64
  3
Solid line
 72
65
 73
0
 40
0.0
  0
LTYPE
  5
1F5
100
AcDbSymbolTableRecord
100
AcDbLinetypeTableRecord
  2
CENTER
 70
64
  3
____ _ ____ _ ____ _ ____ _ ____ _ ____ _ ____
 72
65
 73
4
 40
0.6
 49
0.375
 74
0
 49
-0.075
 74
0
 49
0.075
 74
0
 49
-0.075
 74
0
  0
LTYPE
  5
1F6
100
AcDbSymbolTableRecord
100
AcDbLinetypeTableRecord
  2
HIDDEN
 70
64
  3
- - - - - - - - - - - - - - - - - - - -
 72
65
 73
2
 40
0.2
 49
0.1
 74
0
 49
-0.1
 74
0
  0
LTYPE
  5
1F7
100
AcDbSymbolTableRecord
100
AcDbLinetypeTableRecord
  2
PHANTOM
 70
64
  3
_____ _ _ _____ _ _ _____ _ _ _____
 72
65
 73
6
 40
0.8
 49
0.45
 74
0
 49
-0.05
 74
0
 49
0.1
 74
0
 49
-0.05
 74
0
 49
0.1
 74
0
 49
-0.05
 74
0
  0
LTYPE
  5
1F8
100
AcDbSymbolTableRecord
100
AcDbLinetypeTableRecord
  2
DOT
 70
64
  3
. . . . . . . . . . . . . . . . . . . .
 72
65
 73
2
 40
0.2
 49
0.1
 74
0
 49
-0.1
 74
0
  0
LTYPE
  5
1F9
100
AcDbSymbolTableRecord
100
AcDbLinetypeTableRecord
  2
DASHED
 70
64
  3
- - - - - - - - - - - - - - - - - - - -
 72
65
 73
2
 40
0.2
 49
0.1
 74
0
 49
-0.1
 74
0
  0
ENDTAB
  0
TABLE
  2
LAYER
  5
2
100
AcDbSymbolTable
 70
36
  0
LAYER
  5
10
100
AcDbSymbolTableRecord
100
AcDbLayerTableRecord
  2
0
 70
0
 62
7
  6
CONTINUOUS
370
-3
390
F
  0
LAYER
  5
1FA
100
AcDbSymbolTableRecord
100
AcDbLayerTableRecord
  2
DEFAULT_1
 70
0
 62
7
  6
CENTER
370
-3
390
F
  0
LAYER
  5
1FB
100
AcDbSymbolTableRecord
100
AcDbLayerTableRecord
  2
DEFAULT_2
 70
0
 62
7
  6
HIDDEN
370
-3
390
F
  0
LAYER
  5
1FC
100
AcDbSymbolTableRecord
100
AcDbLayerTableRecord
  2
DEFAULT_3
 70
0
 62
7
  6
PHANTOM
370
-3
390
F
  0
LAYER
  5
1FD
100
AcDbSymbolTableRecord
100
AcDbLayerTableRecord
  2
00_COMPONENTS
 70
0
 62
7
  6
CONTINUOUS
370
-3
390
F
  0
LAYER
  5
1FE
100
AcDbSymbolTableRecord
100
AcDbLayerTableRecord
  2
01_1_DEFAULT_DATUMS
 70
0
 62
7
  6
CONTINUOUS
370
-3
390
F
  0
LAYER
  5
1FF
100
AcDbSymbolTableRecord
100
AcDbLayerTableRecord
  2
01_PLANES
 70
0
 62
7
  6
CONTINUOUS
370
-3
390
F
  0
LAYER
  5
200
100
AcDbSymbolTableRecord
100
AcDbLayerTableRecord
  2
02_COORD_SYS
 70
0
 62
7
  6
CONTINUOUS
370
-3
390
F
  0
LAYER
  5
201
100
AcDbSymbolTableRecord
100
AcDbLayerTableRecord
  2
03_AXES
 70
0
 62
7
  6
CONTINUOUS
370
-3
390
F
  0
LAYER
  5
202
100
AcDbSymbolTableRecord
100
AcDbLayerTableRecord
  2
04_POINTS
 70
0
 62
7
  6
CONTINUOUS
370
-3
390
F
  0
LAYER
  5
203
100
AcDbSymbolTableRecord
100
AcDbLayerTableRecord
  2
05_CURVES
 70
0
 62
7
  6
CONTINUOUS
370
-3
390
F
  0
LAYER
  5
204
100
AcDbSymbolTableRecord
100
AcDbLayerTableRecord
  2
06_SURFS
 70
0
 62
7
  6
CONTINUOUS
370
-3
390
F
  0
LAYER
  5
205
100
AcDbSymbolTableRecord
100
AcDbLayerTableRecord
  2
07_COSMETICS
 70
0
 62
7
  6
CONTINUOUS
370
-3
390
F
  0
LAYER
  5
206
100
AcDbSymbolTableRecord
100
AcDbLayerTableRecord
  2
10_NOTES
 70
0
 62
7
  6
CONTINUOUS
370
-3
390
F
  0
LAYER
  5
207
100
AcDbSymbolTableRecord
100
AcDbLayerTableRecord
  2
11_NOTES_PUB
 70
0
 62
7
  6
CONTINUOUS
370
-3
390
F
  0
LAYER
  5
208
100
AcDbSymbolTableRecord
100
AcDbLayerTableRecord
  2
13_REF_GTOL
 70
0
 62
7
  6
CONTINUOUS
370
-3
390
F
  0
LAYER
  5
209
100
AcDbSymbolTableRecord
100
AcDbLayerTableRecord
  2
16_MISC
 70
0
 62
7
  6
CONTINUOUS
370
-3
390
F
  0
LAYER
  5
20A
100
AcDbSymbolTableRecord
100
AcDbLayerTableRecord
  2
17_NO_PRINT
 70
0
 62
7
  6
CONTINUOUS
370
-3
390
F
  0
LAYER
  5
20B
100
AcDbSymbolTableRecord
100
AcDbLayerTableRecord
  2
18_DATUM_CAMS_JOINTS
 70
0
 62
7
  6
CONTINUOUS
370
-3
390
F
  0
LAYER
  5
20C
100
AcDbSymbolTableRecord
100
AcDbLayerTableRecord
  2
19_DATUM_FUNCTIONAL
 70
0
 62
7
  6
CONTINUOUS
370
-3
390
F
  0
LAYER
  5
20D
100
AcDbSymbolTableRecord
100
AcDbLayerTableRecord
  2
20_DATUM_KINEMATIC_SCHEME
 70
0
 62
7
  6
CONTINUOUS
370
-3
390
F
  0
ENDTAB
  0
TABLE
  2
STYLE
  5
3
100
AcDbSymbolTable
 70
1
  0
STYLE
  5
11
100
AcDbSymbolTableRecord
100
AcDbTextStyleTableRecord
  2
STANDARD
 70
0
 40
0.0
 41
1.0
 50
0.0
 71
0
 42
0.2
  3
ARIAL.TTF
  4

  0
STYLE
  5
20E
100
AcDbSymbolTableRecord
100
AcDbTextStyleTableRecord
  2
TEXTSTYLE_1
 70
0
 40
0.0
 41
0.8
 50
0.0
 71
0
 42
0.2
  3
gdt
  4

  0
ENDTAB
  0
TABLE
  2
VIEW
  5
6
100
AcDbSymbolTable
 70
0
  0
ENDTAB
  0
TABLE
  2
UCS
  5
7
100
AcDbSymbolTable
 70
0
  0
ENDTAB
  0
TABLE
  2
APPID
  5
9
100
AcDbSymbolTable
 70
1
  0
APPID
  5
20F
100
AcDbSymbolTableRecord
100
AcDbRegAppTableRecord
  2
ACAD
 70
0
  0
ENDTAB
  0
TABLE
  2
BLOCK_RECORD
  5
1
100
AcDbSymbolTable
 70
0
  0
BLOCK_RECORD
  5
210
100
AcDbSymbolTableRecord
100
AcDbBlockTableRecord
  2
*Model_Space
  0
BLOCK_RECORD
  5
211
100
AcDbSymbolTableRecord
100
AcDbBlockTableRecord
  2
*Paper_Space
  0
BLOCK_RECORD
  5
212
100
AcDbSymbolTableRecord
100
AcDbBlockTableRecord
  2
_FILLED
  0
ENDTAB
  0
TABLE
  2
DIMSTYLE
  5
A
100
AcDbSymbolTable
 70
1
100
AcDbDimStyleTable
 71
0
  0
DIMSTYLE
105
213
100
AcDbSymbolTableRecord
100
AcDbDimStyleTableRecord
  2
STANDARD
 70
0
  3

  4

 40
1.0
 41
1.3994982649
 42
1.0
 43
0.38
 44
1.0
 45
0.0
 46
0.0
 47
0.01
 48
0.01
140
1.9592975709
141
0.09
142
0.0
143
25.4
144
1.0
145
0.0
146
1.0
147
0.625
 71
1
 72
0
 73
0
 74
0
 75
0
 76
0
 77
1
 78
8
 79
2
170
0
171
1
172
0
173
0
174
0
175
0
176
0
177
0
178
0
270
2
179
2
271
2
272
2
273
2
274
2
275
0
280
0
281
0
282
0
283
1
284
8
285
0
286
0
287
3
288
0
340
11
278
46
341
212
342
212
343
212
344
212
  0
ENDTAB
  0
ENDSEC
  0
SECTION
  2
BLOCKS
  0
BLOCK
  5
20
100
AcDbEntity
  8
0
100
AcDbBlockBegin
  2
*Model_Space
 70
0
 10
0.0
 20
0.0
 30
0.0
  3
*Model_Space
  1

  0
ENDBLK
  5
21
100
AcDbEntity
  8
0
100
AcDbBlockEnd
  0
BLOCK
  5
1C
100
AcDbEntity
  8
0
100
AcDbBlockBegin
  2
*Paper_Space
 70
0
 10
0.0
 20
0.0
 30
0.0
  3
*Paper_Space
  1

  0
ENDBLK
  5
1D
100
AcDbEntity
  8
0
100
AcDbBlockEnd
  0
BLOCK
  5
214
100
AcDbEntity
  8
0
100
AcDbBlockBegin
  2
_FILLED
 70
64
 10
0.0
 20
0.0
  3
_FILLED
  1

  0
SOLID
  5
215
100
AcDbEntity
  8
0
  6
BYBLOCK
 62
0
100
AcDbTrace
 10
0.0
 20
0.0
 11
-1.0
 21
0.25
 12
-1.0
 22
-0.25
 13
-1.0
 23
-0.25
  0
ENDBLK
  5
216
100
AcDbEntity
  8
0
  6
BYBLOCK
 62
0
100
AcDbBlockEnd
  0
ENDSEC
  0
SECTION
  2
ENTITIES
  0
LINE
  5
217
100
AcDbEntity
  8
0
100
AcDbLine
 62
7
  6
BYLAYER
 10
14.8964325973
 20
18.5801948602
 11
104.6964325973
 21
18.5801948602
  0
LINE
  5
218
100
AcDbEntity
  8
0
100
AcDbLine
 62
7
  6
BYLAYER
 10
13.2964325973
 20
51.4801948602
 11
13.2964325973
 21
99.5801948602
  0
LINE
  5
219
100
AcDbEntity
  8
0
100
AcDbLine
 62
7
  6
BYLAYER
 10
14.8964325973
 20
18.5801948602
 11
14.8964325973
 21
51.4801948602
  0
LINE
  5
21A
100
AcDbEntity
  8
0
100
AcDbLine
 62
7
  6
BYLAYER
 10
16.2964325973
 20
102.5801948602
 11
16.2964325973
 21
51.4801948602
  0
LINE
  5
21B
100
AcDbEntity
  8
0
100
AcDbLine
 62
7
  6
BYLAYER
 10
18.6964325973
 20
51.4801948602
 11
18.6964325973
 21
18.5801948602
  0
LINE
  5
21C
100
AcDbEntity
  8
0
100
AcDbLine
 62
7
  6
BYLAYER
 10
13.2964325973
 20
51.4801948602
 11
18.6964325973
 21
51.4801948602
  0
LINE
  5
21D
100
AcDbEntity
  8
0
100
AcDbLine
 62
7
  6
BYLAYER
 10
100.8964325973
 20
51.4801948602
 11
106.2964325973
 21
51.4801948602
  0
LINE
  5
21E
100
AcDbEntity
  8
0
100
AcDbLine
 62
7
  6
BYLAYER
 10
29.7964325973
 20
102.5801948602
 11
29.7964325973
 21
105.8801948602
  0
LINE
  5
21F
100
AcDbEntity
  8
0
100
AcDbLine
 62
7
  6
BYLAYER
 10
31.7964325973
 20
107.8801948602
 11
31.7964325973
 21
102.5801948602
  0
LINE
  5
220
100
AcDbEntity
  8
0
100
AcDbLine
 62
7
  6
BYLAYER
 10
37.2964325973
 20
107.8801948602
 11
37.2964325973
 21
145.6801948602
  0
LINE
  5
221
100
AcDbEntity
  8
0
100
AcDbLine
 62
7
  6
BYLAYER
 10
40.0977032079
 20
129.5059251561
 11
40.0154411845
 21
145.7425731445
  0
LINE
  5
222
100
AcDbEntity
  8
0
100
AcDbLine
 62
7
  6
BYLAYER
 10
40.0154420278
 20
147.6801948602
 11
40.0154420278
 21
145.7425731445
  0
LINE
  5
223
100
AcDbEntity
  8
0
100
AcDbLine
 62
7
  6
BYLAYER
 10
51.8756947153
 20
79.9249702972
 11
51.8756947148
 21
95.2796831613
  0
LINE
  5
224
100
AcDbEntity
  8
0
100
AcDbLine
 62
7
  6
BYLAYER
 10
54.7964326003
 20
79.9249702972
 11
54.7964325973
 21
99.2892983258
  0
LINE
  5
225
100
AcDbEntity
  8
0
100
AcDbLine
 62
7
  6
BYLAYER
 10
49.7964325973
 20
79.9249702972
 11
51.8756947148
 21
95.2796831613
  0
LINE
  5
226
100
AcDbEntity
  8
0
100
AcDbLine
 62
7
  6
BYLAYER
 10
106.2964325973
 20
75.1027648463
 11
13.2964325973
 21
75.1027648463
  0
LINE
  5
227
100
AcDbEntity
  8
0
100
AcDbLine
 62
7
  6
BYLAYER
 10
16.2964325973
 20
76.6027648463
 11
103.2964325973
 21
76.6027648463
  0
LINE
  5
228
100
AcDbEntity
  8
0
100
AcDbLine
 62
7
  6
BYLAYER
 10
69.7964325973
 20
79.9249702972
 11
49.7964325973
 21
79.9249702972
  0
LINE
  5
229
100
AcDbEntity
  8
0
100
AcDbLine
 62
7
  6
BYLAYER
 10
64.7964325996
 20
79.9249702972
 11
64.7964325973
 21
99.2892983258
  0
LINE
  5
22A
100
AcDbEntity
  8
0
100
AcDbLine
 62
7
  6
BYLAYER
 10
67.7171704812
 20
79.9249702972
 11
67.7171704798
 21
95.2796831613
  0
LINE
  5
22B
100
AcDbEntity
  8
0
100
AcDbLine
 62
7
  6
BYLAYER
 10
69.7964325973
 20
79.9249702972
 11
67.7171704798
 21
95.2796831613
  0
LINE
  5
22C
100
AcDbEntity
  8
0
100
AcDbLine
 62
7
  6
BYLAYER
 10
73.2964325973
 20
145.6801948602
 11
73.2964325973
 21
147.6801948602
  0
LINE
  5
22D
100
AcDbEntity
  8
0
100
AcDbLine
 62
7
  6
BYLAYER
 10
73.6964325973
 20
145.6801948602
 11
73.6964325973
 21
147.6801948602
  0
LINE
  5
22E
100
AcDbEntity
  8
0
100
AcDbLine
 62
7
  6
BYLAYER
 10
54.7964325973
 20
99.2892983258
 11
64.7964325973
 21
99.2892983258
  0
LINE
  5
22F
100
AcDbEntity
  8
0
100
AcDbLine
 62
7
  6
BYLAYER
 10
79.5774231664
 20
145.7425731445
 11
79.5774231664
 21
147.6801948602
  0
LINE
  5
230
100
AcDbEntity
  8
0
100
AcDbLine
 62
7
  6
BYLAYER
 10
79.5774246678
 20
145.7425731445
 11
79.4951619867
 21
129.5059251561
  0
LINE
  5
231
100
AcDbEntity
  8
0
100
AcDbLine
 62
7
  6
BYLAYER
 10
103.2964325973
 20
101.0801948602
 11
16.2964325973
 21
101.0801948602
  0
LINE
  5
232
100
AcDbEntity
  8
0
100
AcDbLine
 62
7
  6
BYLAYER
 10
16.2964325973
 20
102.5801948602
 11
103.2964325973
 21
102.5801948602
  0
LINE
  5
233
100
AcDbEntity
  8
0
100
AcDbLine
 62
7
  6
BYLAYER
 10
82.2964325973
 20
107.8801948602
 11
82.2964325973
 21
145.6801948602
  0
LINE
  5
234
100
AcDbEntity
  8
0
100
AcDbLine
 62
7
  6
BYLAYER
 10
89.7964325973
 20
105.8801948602
 11
29.7964325973
 21
105.8801948602
  0
LINE
  5
235
100
AcDbEntity
  8
0
100
AcDbLine
 62
7
  6
BYLAYER
 10
31.7964325973
 20
107.8801948602
 11
87.7964325973
 21
107.8801948602
  0
LINE
  5
236
100
AcDbEntity
  8
0
100
AcDbLine
 62
7
  6
BYLAYER
 10
87.7964325973
 20
102.5801948602
 11
87.7964325973
 21
107.8801948602
  0
LINE
  5
237
100
AcDbEntity
  8
0
100
AcDbLine
 62
7
  6
BYLAYER
 10
89.7964325973
 20
105.8801948602
 11
89.7964325973
 21
102.5801948602
  0
LINE
  5
238
100
AcDbEntity
  8
0
100
AcDbLine
 62
7
  6
BYLAYER
 10
69.716331862
 20
115.3801948602
 11
49.8765333314
 21
115.3801948602
  0
LINE
  5
239
100
AcDbEntity
  8
0
100
AcDbLine
 62
7
  6
BYLAYER
 10
68.6141208305
 20
117.8801948602
 11
50.9787443645
 21
117.8801948602
  0
LINE
  5
23A
100
AcDbEntity
  8
0
100
AcDbLine
 62
7
  6
BYLAYER
 10
100.8964325973
 20
18.5801948602
 11
100.8964325973
 21
51.4801948602
  0
LINE
  5
23B
100
AcDbEntity
  8
0
100
AcDbLine
 62
7
  6
BYLAYER
 10
103.2964325973
 20
51.4801948602
 11
103.2964325973
 21
102.5801948602
  0
LINE
  5
23C
100
AcDbEntity
  8
0
100
AcDbLine
 62
7
  6
BYLAYER
 10
104.6964325973
 20
51.4801948602
 11
104.6964325973
 21
18.5801948602
  0
LINE
  5
23D
100
AcDbEntity
  8
0
100
AcDbLine
 62
7
  6
BYLAYER
 10
106.2964325973
 20
51.4801948602
 11
106.2964325973
 21
99.5801948602
  0
LINE
  5
23E
100
AcDbEntity
  8
0
100
AcDbLine
 62
7
  6
BYLAYER
 10
40.0977032079
 20
129.5059251561
 11
79.4951619867
 21
129.5059251561
  0
LINE
  5
23F
100
AcDbEntity
  8
0
100
AcDbLine
 62
7
  6
BYLAYER
 10
82.2964325973
 20
145.6801948602
 11
82.0501288797
 21
145.6801948602
  0
LINE
  5
240
100
AcDbEntity
  8
0
100
AcDbLine
 62
7
  6
BYLAYER
 10
73.6964325973
 20
145.6801948602
 11
73.2964325973
 21
145.6801948602
  0
LINE
  5
241
100
AcDbEntity
  8
0
100
AcDbLine
 62
7
  6
BYLAYER
 10
37.5427363283
 20
145.6801948602
 11
37.2964325973
 21
145.6801948602
  0
LINE
  5
242
100
AcDbEntity
  8
0
100
AcDbLine
 62
7
  6
BYLAYER
 10
79.5774246678
 20
145.7425731445
 11
73.6964325973
 21
145.7425731445
  0
LINE
  5
243
100
AcDbEntity
  8
0
100
AcDbLine
 62
7
  6
BYLAYER
 10
73.2964325973
 20
145.7425731445
 11
40.0154411845
 21
145.7425731445
  0
LINE
  5
244
100
AcDbEntity
  8
0
100
AcDbLine
 62
7
  6
BYLAYER
 10
39.2964552301
 20
147.6801948602
 11
80.2964317299
 21
147.6801948602
  0
CIRCLE
  5
245
100
AcDbEntity
  8
0
100
AcDbCircle
 62
7
  6
BYLAYER
 10
33.7964325973
 20
37.5801948602
 40
12.6
  0
CIRCLE
  5
246
100
AcDbEntity
  8
0
100
AcDbCircle
 62
7
  6
BYLAYER
 10
85.7964325973
 20
37.5801948602
 40
12.6
  0
CIRCLE
  5
247
100
AcDbEntity
  8
0
100
AcDbCircle
 62
7
  6
BYLAYER
 10
85.7964325973
 20
37.5801948602
 40
12.1
  0
CIRCLE
  5
248
100
AcDbEntity
  8
0
100
AcDbCircle
 62
7
  6
BYLAYER
 10
33.7964325973
 20
37.5801948602
 40
12.1
  0
ARC
  5
249
100
AcDbEntity
  8
0
100
AcDbCircle
 62
7
  6
BYLAYER
 10
16.2964325973
 20
99.5801948602
 40
3.0
100
AcDbArc
 50
90.0
 51
180.0
  0
ARC
  5
24A
100
AcDbEntity
  8
0
100
AcDbCircle
 62
7
  6
BYLAYER
 10
103.2964325973
 20
99.5801948602
 40
3.0
100
AcDbArc
 50
0.0
 51
90.0
  0
ARC
  5
24B
100
AcDbEntity
  8
0
100
AcDbCircle
 62
7
  6
BYLAYER
 10
80.2964325973
 20
145.6801948602
 40
2.0
100
AcDbArc
 50
0.0
 51
90.0
  0
ARC
  5
24C
100
AcDbEntity
  8
0
100
AcDbCircle
 62
7
  6
BYLAYER
 10
39.2964325973
 20
145.6801948602
 40
2.0
100
AcDbArc
 50
90.0
 51
180.0
  0
ARC
  5
24D
100
AcDbEntity
  8
0
100
AcDbCircle
 62
7
  6
BYLAYER
 10
31.7964325973
 20
105.8801948602
 40
2.0
100
AcDbArc
 50
90.0
 51
180.0
  0
ARC
  5
24E
100
AcDbEntity
  8
0
100
AcDbCircle
 62
7
  6
BYLAYER
 10
87.7964325973
 20
105.8801948602
 40
2.0
100
AcDbArc
 50
0.0
 51
90.0
  0
ARC
  5
24F
100
AcDbEntity
  8
0
100
AcDbCircle
 62
7
  6
BYLAYER
 10
80.0715245447
 20
145.7306421657
 40
1.9495503703
100
AcDbArc
 50
83.8290732175
 51
89.9857087026
  0
SPLINE
  5
250
100
AcDbEntity
  8
0
100
AcDbSpline
 62
7
  6
BYLAYER
 70
0
 71
3
 72
14
 73
10
 74
0
 42
0.0000001
 43
0.0000001
 44
0.0000000001
 40
0.0
 40
0.0
 40
0.0
 40
0.0
 40
0.3182159739
 40
0.4662501288
 40
0.6017856006
 40
0.722276162
 40
0.8269580008
 40
0.9177648688
 40
1.0
 40
1.0
 40
1.0
 40
1.0
 10
103.2964325973
 20
76.6027648463
 30
0.0
 10
103.6810311715
 20
76.6027648463
 30
0.0
 10
104.2473307239
 20
76.5500302634
 30
0.0
 10
104.9520153145
 20
76.3649907049
 30
0.0
 10
105.4066228117
 20
76.1822704715
 30
0.0
 10
105.7833121147
 20
75.9586160612
 30
0.0
 10
106.0692231589
 20
75.7003909941
 30
0.0
 10
106.2524312298
 20
75.4128759126
 30
0.0
 10
106.2964325973
 20
75.2021549361
 30
0.0
 10
106.2964325973
 20
75.1027648463
 30
0.0
  0
SPLINE
  5
251
100
AcDbEntity
  8
0
100
AcDbSpline
 62
7
  6
BYLAYER
 70
0
 71
3
 72
14
 73
10
 74
0
 42
0.0000001
 43
0.0000001
 44
0.0000000001
 40
0.0
 40
0.0
 40
0.0
 40
0.0
 40
0.0423759115
 40
0.114859106
 40
0.2151843754
 40
0.3402596768
 40
0.4860750055
 40
0.6480891467
 40
1.0
 40
1.0
 40
1.0
 40
1.0
 10
82.0505457586
 20
145.6802001511
 30
0.0
 10
82.0160851745
 20
145.6860505663
 30
0.0
 10
81.9214597503
 20
145.6935613479
 30
0.0
 10
81.7443758797
 20
145.704055777
 30
0.0
 10
81.4987832491
 20
145.7133821638
 30
0.0
 10
81.1927323495
 20
145.722235835
 30
0.0
 10
80.8357216203
 20
145.7297844962
 30
0.0
 10
80.2916016665
 20
145.7381433296
 30
0.0
 10
79.8676956969
 20
145.7415087402
 30
0.0
 10
79.5774247613
 20
145.7425632635
 30
0.0
  0
SPLINE
  5
252
100
AcDbEntity
  8
0
100
AcDbSpline
 62
7
  6
BYLAYER
 70
0
 71
3
 72
11
 73
7
 74
0
 42
0.0000001
 43
0.0000001
 44
0.0000000001
 40
0.0
 40
0.0
 40
0.0
 40
0.0
 40
0.248843447
 40
0.4982792566
 40
0.748758634
 40
1.0
 40
1.0
 40
1.0
 40
1.0
 10
80.2810912403
 20
147.6688961342
 30
0.0
 10
80.5201281191
 20
147.643090457
 30
0.0
 10
80.9937933619
 20
147.5012244878
 30
0.0
 10
81.576715355
 20
147.0464141418
 30
0.0
 10
81.9610140106
 20
146.4123934248
 30
0.0
 10
82.0500805961
 20
145.9230649616
 30
0.0
 10
82.0500958111
 20
145.6803223638
 30
0.0
  0
SPLINE
  5
253
100
AcDbEntity
  8
0
100
AcDbSpline
 62
7
  6
BYLAYER
 70
0
 71
3
 72
14
 73
10
 74
0
 42
0.0000001
 43
0.0000001
 44
0.0000000001
 40
0.0
 40
0.0
 40
0.0
 40
0.0
 40
0.0822351312
 40
0.1730419992
 40
0.277723838
 40
0.3982143994
 40
0.5337498712
 40
0.6817840261
 40
1.0
 40
1.0
 40
1.0
 40
1.0
 10
106.2964325973
 20
99.5801948602
 30
0.0
 10
106.2964325973
 20
99.67958495
 30
0.0
 10
106.2524312298
 20
99.8903059265
 30
0.0
 10
106.0692231589
 20
100.1778210079
 30
0.0
 10
105.7833121147
 20
100.4360460751
 30
0.0
 10
105.4066228117
 20
100.6597004853
 30
0.0
 10
104.9520153145
 20
100.8424207187
 30
0.0
 10
104.2473307239
 20
101.0274602773
 30
0.0
 10
103.6810311715
 20
101.0801948602
 30
0.0
 10
103.2964325973
 20
101.0801948602
 30
0.0
  0
SPLINE
  5
254
100
AcDbEntity
  8
0
100
AcDbSpline
 62
7
  6
BYLAYER
 70
0
 71
3
 72
14
 73
10
 74
0
 42
0.0000001
 43
0.0000001
 44
0.0000000001
 40
0.0
 40
0.0
 40
0.0
 40
0.0
 40
0.3182136563
 40
0.4662481275
 40
0.6017842093
 40
0.7222754067
 40
0.8269577304
 40
0.9177648692
 40
1.0
 40
1.0
 40
1.0
 40
1.0
 10
16.2964325973
 20
101.0801948602
 30
0.0
 10
15.911836827
 20
101.0801948602
 30
0.0
 10
15.3455397725
 20
101.0274607549
 30
0.0
 10
14.6408565286
 20
100.8424227626
 30
0.0
 10
14.1862468931
 20
100.6597028005
 30
0.0
 10
13.8095553699
 20
100.4360479518
 30
0.0
 10
13.523642891
 20
100.1778219557
 30
0.0
 10
13.3404339781
 20
99.8903062774
 30
0.0
 10
13.2964325973
 20
99.6795849487
 30
0.0
 10
13.2964325973
 20
99.5801948602
 30
0.0
  0
SPLINE
  5
255
100
AcDbEntity
  8
0
100
AcDbSpline
 62
7
  6
BYLAYER
 70
0
 71
3
 72
22
 73
18
 74
0
 42
0.0000001
 43
0.0000001
 44
0.0000000001
 40
0.0
 40
0.0
 40
0.0
 40
0.0
 40
0.0789670897
 40
0.1560893324
 40
0.2300471134
 40
0.2997755032
 40
0.3645919241
 40
0.4243345868
 40
0.4795093011
 40
0.5313385061
 40
0.5816150936
 40
0.6322916233
 40
0.685015064
 40
0.7408552733
 40
0.800318855
 40
0.8634840226
 40
1.0
 40
1.0
 40
1.0
 40
1.0
 10
37.6353620343
 20
129.4279522997
 30
0.0
 10
37.6389896563
 20
128.8397139351
 30
0.0
 10
37.6599352026
 20
127.677003539
 30
0.0
 10
37.738236482
 20
125.9648324938
 30
0.0
 10
37.8743259861
 20
124.3250847169
 30
0.0
 10
38.0837486803
 20
122.7850801618
 30
0.0
 10
38.3849076495
 20
121.3675950055
 30
0.0
 10
38.7972965829
 20
120.0904909602
 30
0.0
 10
39.3392343636
 20
118.9673115479
 30
0.0
 10
40.0246709904
 20
118.0089216039
 30
0.0
 10
40.8570990433
 20
117.2222239871
 30
0.0
 10
41.8284069807
 20
116.6046777131
 30
0.0
 10
42.9250467453
 20
116.1409681383
 30
0.0
 10
44.1350754263
 20
115.8101235004
 30
0.0
 10
45.4475646628
 20
115.588550756
 30
0.0
 10
47.3705855489
 20
115.4068828849
 30
0.0
 10
48.8595848459
 20
115.3802042759
 30
0.0
 10
49.8765333314
 20
115.3801948602
 30
0.0
  0
SPLINE
  5
256
100
AcDbEntity
  8
0
100
AcDbSpline
 62
7
  6
BYLAYER
 70
0
 71
3
 72
21
 73
17
 74
0
 42
0.0000001
 43
0.0000001
 44
0.0000000001
 40
0.0
 40
0.0
 40
0.0
 40
0.0
 40
0.1468908316
 40
0.2171612207
 40
0.284045292
 40
0.3469101154
 40
0.4055678972
 40
0.4604164564
 40
0.5126343762
 40
0.563962341
 40
0.6163105019
 40
0.6712315799
 40
0.7296432097
 40
0.7918833598
 40
0.8579159776
 40
1.0
 40
1.0
 40
1.0
 40
1.0
 10
79.4951680955
 20
129.5059251156
 30
0.0
 10
79.4889649171
 20
128.569736545
 30
0.0
 10
79.448364005
 20
127.1851147906
 30
0.0
 10
79.2936656031
 20
125.3808422365
 30
0.0
 10
79.115806575
 20
124.1175963075
 30
0.0
 10
78.8582505824
 20
122.9431586913
 30
0.0
 10
78.5025807633
 20
121.8737777039
 30
0.0
 10
78.0277243596
 20
120.9253690414
 30
0.0
 10
77.4227485455
 20
120.1096391266
 30
0.0
 10
76.6799977327
 20
119.4399785942
 30
0.0
 10
75.8110161432
 20
118.9132409783
 30
0.0
 10
74.8268332304
 20
118.5202249338
 30
0.0
 10
73.7411230633
 20
118.2402369335
 30
0.0
 10
72.56463023
 20
118.054034587
 30
0.0
 10
70.847309986
 20
117.9023686891
 30
0.0
 10
69.5196960347
 20
117.8802097908
 30
0.0
 10
68.6141231252
 20
117.8801948602
 30
0.0
  0
SPLINE
  5
257
100
AcDbEntity
  8
0
100
AcDbSpline
 62
7
  6
BYLAYER
 70
0
 71
3
 72
21
 73
17
 74
0
 42
0.0000001
 43
0.0000001
 44
0.0000000001
 40
0.0
 40
0.0
 40
0.0
 40
0.0
 40
0.1420860195
 40
0.2081169945
 40
0.2703555825
 40
0.3287699854
 40
0.3836970954
 40
0.436052447
 40
0.4873861073
 40
0.5396062271
 40
0.5944554936
 40
0.6531134675
 40
0.7159735653
 40
0.7828455638
 40
0.853106239
 40
1.0
 40
1.0
 40
1.0
 40
1.0
 10
50.9787410768
 20
117.8801948601
 30
0.0
 10
50.0731565413
 20
117.8802088755
 30
0.0
 10
48.7455423718
 20
117.9023736774
 30
0.0
 10
47.0282307674
 20
118.0540262319
 30
0.0
 10
45.8517426581
 20
118.2402339015
 30
0.0
 10
44.76599201
 20
118.5202449199
 30
0.0
 10
43.7817221257
 20
118.9133193126
 30
0.0
 10
42.9126636237
 20
119.440163323
 30
0.0
 10
42.1698759789
 20
120.1099265191
 30
0.0
 10
41.5649249106
 20
120.9257436065
 30
0.0
 10
41.0901371328
 20
121.8742063466
 30
0.0
 10
40.7345223266
 20
122.9435762853
 30
0.0
 10
40.4770026059
 20
124.1179113724
 30
0.0
 10
40.2991815088
 20
125.3809906109
 30
0.0
 10
40.1445278158
 20
127.1851437135
 30
0.0
 10
40.1039030739
 20
128.5697190322
 30
0.0
 10
40.0976944569
 20
129.5059250981
 30
0.0
  0
SPLINE
  5
258
100
AcDbEntity
  8
0
100
AcDbSpline
 62
7
  6
BYLAYER
 70
0
 71
3
 72
22
 73
18
 74
0
 42
0.0000001
 43
0.0000001
 44
0.0000000001
 40
0.0
 40
0.0
 40
0.0
 40
0.0
 40
0.078967245
 40
0.1560893794
 40
0.2300472198
 40
0.2997756198
 40
0.3645912315
 40
0.424335849
 40
0.4795085667
 40
0.5313388228
 40
0.5816160242
 40
0.6322921597
 40
0.6850150412
 40
0.7408553641
 40
0.8003189625
 40
0.8634840498
 40
1.0
 40
1.0
 40
1.0
 40
1.0
 10
81.9575031604
 20
129.4279522997
 30
0.0
 10
81.9538759397
 20
128.8397125131
 30
0.0
 10
81.9329328178
 20
127.677001232
 30
0.0
 10
81.8546272391
 20
125.9648285484
 30
0.0
 10
81.718536729
 20
124.3250812978
 30
0.0
 10
81.5091252037
 20
122.7850777446
 30
0.0
 10
81.2079228806
 20
121.36759688
 30
0.0
 10
80.7956201834
 20
120.0904658936
 30
0.0
 10
80.2535815685
 20
118.9673270928
 30
0.0
 10
79.5682053904
 20
118.008902897
 30
0.0
 10
78.7357781665
 20
117.2221843675
 30
0.0
 10
77.7644687342
 20
116.6046383808
 30
0.0
 10
76.6678047305
 20
116.1410033775
 30
0.0
 10
75.4577929776
 20
115.8101193428
 30
0.0
 10
74.1453012477
 20
115.5885419488
 30
0.0
 10
72.2222794911
 20
115.4068882041
 30
0.0
 10
70.7332805988
 20
115.3802053475
 30
0.0
 10
69.716331862
 20
115.3801948602
 30
0.0
  0
SPLINE
  5
259
100
AcDbEntity
  8
0
100
AcDbSpline
 62
7
  6
BYLAYER
 70
0
 71
3
 72
14
 73
10
 74
0
 42
0.0000001
 43
0.0000001
 44
0.0000000001
 40
0.0
 40
0.0
 40
0.0
 40
0.0
 40
0.3150660434
 40
0.4717516956
 40
0.6166206062
 40
0.7424449507
 40
0.8465630538
 40
0.9300284179
 40
1.0
 40
1.0
 40
1.0
 40
1.0
 10
69.7163352993
 20
115.3801948602
 30
0.0
 10
69.7163352867
 20
115.688022979
 30
0.0
 10
69.6803233015
 20
116.1506660938
 30
0.0
 10
69.5474330746
 20
116.7390951384
 30
0.0
 10
69.4103660013
 20
117.1348848872
 30
0.0
 10
69.2381751061
 20
117.4599443571
 30
0.0
 10
69.0441180291
 20
117.7004490699
 30
0.0
 10
68.8334461195
 20
117.8462514211
 30
0.0
 10
68.6824879301
 20
117.8801948606
 30
0.0
 10
68.6141237856
 20
117.8801948602
 30
0.0
  0
SPLINE
  5
25A
100
AcDbEntity
  8
0
100
AcDbSpline
 62
7
  6
BYLAYER
 70
0
 71
3
 72
9
 73
5
 74
0
 42
0.0000001
 43
0.0000001
 44
0.0000000001
 40
0.0
 40
0.0
 40
0.0
 40
0.0
 40
0.4999999549
 40
1.0
 40
1.0
 40
1.0
 40
1.0
 10
82.0505457586
 20
145.6802001511
 30
0.0
 10
82.0357581693
 20
142.9714884699
 30
0.0
 10
82.0036064037
 20
137.5540790746
 30
0.0
 10
81.9737199046
 20
132.1366567499
 30
0.0
 10
81.9575754
 20
129.4279523279
 30
0.0
  0
SPLINE
  5
25B
100
AcDbEntity
  8
0
100
AcDbSpline
 62
7
  6
BYLAYER
 70
0
 71
3
 72
14
 73
10
 74
0
 42
0.0000001
 43
0.0000001
 44
0.0000000001
 40
0.0
 40
0.0
 40
0.0
 40
0.0
 40
0.0445057778
 40
0.1195728577
 40
0.2250335754
 40
0.3565218749
 40
0.5080407347
 40
0.6712754441
 40
1.0
 40
1.0
 40
1.0
 40
1.0
 10
81.95750316
 20
129.4279523039
 30
0.0
 10
81.9215410886
 20
129.4345412286
 30
0.0
 10
81.8236169041
 20
129.4442038853
 30
0.0
 10
81.6392945112
 20
129.4572104498
 30
0.0
 10
81.3832033898
 20
129.4692514661
 30
0.0
 10
81.0643004114
 20
129.4806313215
 30
0.0
 10
80.697833697
 20
129.4901538705
 30
0.0
 10
80.169324955
 20
129.5002843364
 30
0.0
 10
79.765199305
 20
129.5044472605
 30
0.0
 10
79.4951620368
 20
129.5059251581
 30
0.0
  0
SPLINE
  5
25C
100
AcDbEntity
  8
0
100
AcDbSpline
 62
7
  6
BYLAYER
 70
0
 71
3
 72
9
 73
5
 74
0
 42
0.0000001
 43
0.0000001
 44
0.0000000001
 40
0.0
 40
0.0
 40
0.0
 40
0.0
 40
0.5000000457
 40
1.0
 40
1.0
 40
1.0
 40
1.0
 10
37.6353224114
 20
129.4279519873
 30
0.0
 10
37.6191746476
 20
132.136655573
 30
0.0
 10
37.589273285
 20
137.5540761728
 30
0.0
 10
37.5571062299
 20
142.9714838387
 30
0.0
 10
37.5423154002
 20
145.6801946784
 30
0.0
  0
SPLINE
  5
25D
100
AcDbEntity
  8
0
100
AcDbSpline
 62
7
  6
BYLAYER
 70
0
 71
3
 72
14
 73
10
 74
0
 42
0.0000001
 43
0.0000001
 44
0.0000000001
 40
0.0
 40
0.0
 40
0.0
 40
0.0
 40
0.0699715906
 40
0.1534369692
 40
0.2575550948
 40
0.383379461
 40
0.5282483815
 40
0.684934026
 40
1.0
 40
1.0
 40
1.0
 40
1.0
 10
50.9787443876
 20
117.8801948602
 30
0.0
 10
50.910380241
 20
117.8801948602
 30
0.0
 10
50.7594220424
 20
117.8462513904
 30
0.0
 10
50.5487501663
 20
117.7004489476
 30
0.0
 10
50.354693161
 20
117.4599441397
 30
0.0
 10
50.1825023579
 20
117.1348845997
 30
0.0
 10
50.0454353868
 20
116.7390948317
 30
0.0
 10
49.9125452958
 20
116.1506658803
 30
0.0
 10
49.8765333622
 20
115.6880228837
 30
0.0
 10
49.8765333623
 20
115.3801948602
 30
0.0
  0
SPLINE
  5
25E
100
AcDbEntity
  8
0
100
AcDbSpline
 62
7
  6
BYLAYER
 70
0
 71
3
 72
14
 73
10
 74
0
 42
0.0000001
 43
0.0000001
 44
0.0000000001
 40
0.0
 40
0.0
 40
0.0
 40
0.0
 40
0.0445057614
 40
0.119572815
 40
0.2250335049
 40
0.3565217845
 40
0.5080406408
 40
0.6712753652
 40
1.0
 40
1.0
 40
1.0
 40
1.0
 10
37.6353620364
 20
129.4279519334
 30
0.0
 10
37.6713240938
 20
129.434540861
 30
0.0
 10
37.7692482429
 20
129.4442035242
 30
0.0
 10
37.953570578
 20
129.4572100969
 30
0.0
 10
38.2096616393
 20
129.4692511227
 30
0.0
 10
38.5285645768
 20
129.480630988
 30
0.0
 10
38.8950312856
 20
129.4901535463
 30
0.0
 10
39.4235401039
 20
129.5002840238
 30
0.0
 10
39.8276658328
 20
129.5044469526
 30
0.0
 10
40.0977031669
 20
129.5059248517
 30
0.0
  0
SPLINE
  5
25F
100
AcDbEntity
  8
0
100
AcDbSpline
 62
7
  6
BYLAYER
 70
0
 71
3
 72
11
 73
7
 74
0
 42
0.0000001
 43
0.0000001
 44
0.0000000001
 40
0.0
 40
0.0
 40
0.0
 40
0.0
 40
0.2512818879
 40
0.5017192589
 40
0.7511738375
 40
1.0
 40
1.0
 40
1.0
 40
1.0
 10
37.5427693669
 20
145.6801948602
 30
0.0
 10
37.5427691647
 20
145.9402155806
 30
0.0
 10
37.6452276714
 20
146.4650236029
 30
0.0
 10
38.0847105907
 20
147.1294945981
 30
0.0
 10
38.7419825255
 20
147.5757133874
 30
0.0
 10
39.2633630612
 20
147.6801887702
 30
0.0
 10
39.5208426534
 20
147.6801926205
 30
0.0
  0
SPLINE
  5
260
100
AcDbEntity
  8
0
100
AcDbSpline
 62
7
  6
BYLAYER
 70
0
 71
3
 72
14
 73
10
 74
0
 42
0.0000001
 43
0.0000001
 44
0.0000000001
 40
0.0
 40
0.0
 40
0.0
 40
0.0
 40
0.3519111042
 40
0.5139252621
 40
0.6597405646
 40
0.7848158135
 40
0.8851410205
 40
0.9576241507
 40
1.0
 40
1.0
 40
1.0
 40
1.0
 10
40.0154410955
 20
145.7425636397
 30
0.0
 10
39.725169406
 20
145.741506711
 30
0.0
 10
39.3012624358
 20
145.7381387776
 30
0.0
 10
38.7571412474
 20
145.7297795969
 30
0.0
 10
38.4001298937
 20
145.7222305527
 30
0.0
 10
38.0940785349
 20
145.7133764617
 30
0.0
 10
37.8484855922
 20
145.7040499487
 30
0.0
 10
37.671401524
 20
145.6935555883
 30
0.0
 10
37.5767760305
 20
145.6860449143
 30
0.0
 10
37.5423154002
 20
145.6801946784
 30
0.0
  0
SPLINE
  5
261
100
AcDbEntity
  8
0
100
AcDbSpline
 62
7
  6
BYLAYER
 70
0
 71
3
 72
14
 73
10
 74
0
 42
0.0000001
 43
0.0000001
 44
0.0000000001
 40
0.0
 40
0.0
 40
0.0
 40
0.0
 40
0.0822351312
 40
0.1730419992
 40
0.277723838
 40
0.3982143994
 40
0.5337498712
 40
0.6817840261
 40
1.0
 40
1.0
 40
1.0
 40
1.0
 10
13.2964325973
 20
75.1027648463
 30
0.0
 10
13.2964325973
 20
75.2021549361
 30
0.0
 10
13.3404339648
 20
75.4128759126
 30
0.0
 10
13.5236420357
 20
75.7003909941
 30
0.0
 10
13.80955308
 20
75.9586160612
 30
0.0
 10
14.1862423829
 20
76.1822704715
 30
0.0
 10
14.6408498801
 20
76.3649907049
 30
0.0
 10
15.3455344708
 20
76.5500302634
 30
0.0
 10
15.9118340231
 20
76.6027648463
 30
0.0
 10
16.2964325973
 20
76.6027648463
 30
0.0
  0
ELLIPSE
  5
262
100
AcDbEntity
  8
0
100
AcDbEllipse
 62
7
  6
BYLAYER
 10
64.7964325973
 20
94.0931459031
 30
0.0
 11
0.0
 21
5.1961524227
 31
0.0
 40
0.5773502692
 41
-1.3404145791
 42
0.0
  0
ELLIPSE
  5
263
100
AcDbEntity
  8
0
100
AcDbEllipse
 62
7
  6
BYLAYER
 10
54.7964325973
 20
94.0931459031
 30
0.0
 11
0.0
 21
5.1961524227
 31
0.0
 40
0.5773502692
 41
0.0
 42
1.3404145791
  0
ENDSEC
  0
SECTION
  2
OBJECTS
  0
DICTIONARY
  5
C
100
AcDbDictionary
280
0
281
1
  3
ACAD_GROUP
350
D
  3
ACAD_MLINESTYLE
350
17
  3
ACAD_LAYOUT
350
1A
  3
ACAD_PLOTSETTINGS
350
19
  3
ACAD_PLOTSTYLENAME
350
E
  0
DICTIONARY
  5
D
102
{ACAD_REACTORS
330
C
102
}
100
AcDbDictionary
280
0
281
1
  0
ACDBDICTIONARYWDFLT
  5
E
102
{ACAD_REACTORS
330
C
102
}
100
AcDbDictionary
281
1
  3
Normal
350
F
100
AcDbDictionaryWithDefault
340
F
  0
DICTIONARY
  5
17
102
{ACAD_REACTORS
330
C
102
}
100
AcDbDictionary
280
0
281
1
  3
Standard
350
18
  0
DICTIONARY
  5
19
102
{ACAD_REACTORS
330
C
102
}
100
AcDbDictionary
281
1
  0
DICTIONARY
  5
1A
102
{ACAD_REACTORS
330
C
102
}
100
AcDbDictionary
281
1
  3
Model
350
264
  3
Layout1
350
265
  0
ACDBPLACEHOLDER
  5
F
102
{ACAD_REACTORS
330
E
102
}
  0
MLINESTYLE
  5
18
102
{ACAD_REACTORS
330
17
102
}
100
AcDbMlineStyle
  2
STANDARD
 70
0
  3

 62
256
 51
90.0
 52
90.0
 71
2
 49
0.5
 62
256
  6
BYLAYER
 49
-0.5
 62
256
  6
BYLAYER
  0
LAYOUT
  5
264
102
{ACAD_REACTORS
330
1A
102
}
100
AcDbPlotSettings
  1

  2
none_device
  4

  6

 40
0.0
 41
0.0
 42
0.0
 43
0.0
 44
210.0
 45
297.0
 46
0.0
 47
0.0
 48
0.0
 49
0.0
140
0.0
141
0.0
142
1.0
143
1.0
 70
1024
 72
1
 73
0
 74
0
  7

 75
0
147
1.0
148
0.0
149
0.0
100
AcDbLayout
  1
Model
 70
0
 71
0
 10
0.0
 20
0.0
 11
210.0
 21
297.0
 12
0.0
 22
0.0
 32
0.0
 14
0.0
 24
0.0
 34
0.0
 15
0.0
 25
0.0
 35
0.0
146
0.0
 13
0.0
 23
0.0
 33
0.0
 16
1.0
 26
0.0
 36
0.0
 17
0.0
 27
1.0
 37
0.0
 76
0
330
210
345
0
346
0
  0
LAYOUT
  5
265
102
{ACAD_REACTORS
330
1A
102
}
100
AcDbPlotSettings
  1

  2
none_device
  4

  6

 40
0.0
 41
0.0
 42
0.0
 43
0.0
 44
210.0
 45
297.0
 46
0.0
 47
0.0
 48
0.0
 49
0.0
140
0.0
141
0.0
142
1.0
143
1.0
 70
0
 72
1
 73
0
 74
0
  7

 75
0
147
1.0
148
0.0
149
0.0
100
AcDbLayout
  1
Layout1
 70
0
 71
1
 10
0.0
 20
0.0
 11
210.0
 21
297.0
 12
0.0
 22
0.0
 32
0.0
 14
0.0
 24
0.0
 34
0.0
 15
0.0
 25
0.0
 35
0.0
146
0.0
 13
0.0
 23
0.0
 33
0.0
 16
1.0
 26
0.0
 36
0.0
 17
0.0
 27
1.0
 37
0.0
 76
0
330
211
345
0
346
0
  0
ENDSEC
  0
EOF
