999
DXF file: C:\Users\sesa63760\Dev\_Creo\CAD\MCADUE0002364_3D-CAD\drw0001_6.dxf
999
Pro/ENGINEER 2019471 by Parametric Technology Corporation
  0
SECTION
  2
HEADER
  9
$ACADVER
  1
AC1024
  9
$DWGCODEPAGE
  3
ANSI_1252
  9
$EXTMAX
 10
49.127936254
 20
69.4809384164
 30
0.0
  9
$EXTMIN
 10
0.0
 20
0.0
 30
0.0
  9
$LIMMIN
 10
0.0
 20
0.0
  9
$LIMMAX
 10
49.127936254
 20
69.4809384164
  9
$VIEWCTR
 10
24.563968127
 20
34.7404692082
  9
$VIEWSIZE
 40
69.4809384164
  9
$CLAYER
  8
0
  9
$LTSCALE
 40
4.5291278375
  9
$CELTYPE
  6
BYLAYER
  9
$DIMSCALE
 40
1.0
  9
$DIMASZ
 40
0.584856384
  9
$DIMEXO
 40
1.0
  9
$DIMDLI
 40
3.1292155968
  9
$DIMEXE
 40
1.0
  9
$DIMCEN
 40
0.7411300098
  9
$DIMLFAC
 40
1.0
  9
$DIMBLK
  1
_FILLED
  9
$DIMALT
 70
0
  9
$DIMALTF
 40
0.0393700787
  9
$DIMTXT
 40
0.8187989376
  9
$DIMTOL
 70
1
  9
$DIMLIM
 70
0
  9
$DIMTFAC
 40
1.0
  9
$DIMTP
 40
0.01
  9
$DIMTM
 40
0.01
  9
$DIMGAP
 40
0.625
  9
$DIMDSEP
 70
46
  9
$AUNITS
 70
0
  9
$PDMODE
 70
3
  9
$PDSIZE
 40
0.3125
  9
$HANDSEED
  5
2D1
  9
$TILEMODE
 70
1
  9
$MEASUREMENT
 70
1
  9
$INSUNITS
 70
4
  0
ENDSEC
  0
SECTION
  2
CLASSES
  0
CLASS
  1
ACDBDICTIONARYWDFLT
  2
AcDbDictionaryWithDefault
  3
AutoCAD 2000
 90
0
 91
1
280
0
281
0
  0
CLASS
  1
ACDBPLACEHOLDER
  2
AcDbPlaceHolder
  3
AutoCAD 2000
 90
0
 91
1
280
0
281
0
  0
CLASS
  1
LAYOUT
  2
AcDbLayout
  3
AutoCAD 2000
 90
0
 91
0
280
0
281
0
  0
ENDSEC
  0
SECTION
  2
TABLES
  0
TABLE
  2
VPORT
  5
8
100
AcDbSymbolTable
 70
2
  0
VPORT
  5
1F4
100
AcDbSymbolTableRecord
100
AcDbViewportTableRecord
  2
*ACTIVE
 70
0
 10
0.0
 20
0.0
 11
1.0
 21
1.0
 12
24.563968127
 22
34.7404692082
 13
0.0
 23
0.0
 14
1.0
 24
1.0
 15
0.0
 25
0.0
 16
0.0
 26
0.0
 36
1.0
 17
0.0
 27
0.0
 37
0.0
 40
69.4809384164
 41
0.7070707071
 42
50.0
 43
0.0
 44
0.0
 50
0.0
 51
0.0
 71
0
 72
100
 73
1
 74
1
 75
0
 76
0
 77
0
 78
0
  0
ENDTAB
  0
TABLE
  2
LTYPE
  5
5
100
AcDbSymbolTable
 70
6
  0
LTYPE
  5
14
100
AcDbSymbolTableRecord
100
AcDbLinetypeTableRecord
  2
BYBLOCK
 70
0
  3

 72
65
 73
0
 40
0.0
  0
LTYPE
  5
15
100
AcDbSymbolTableRecord
100
AcDbLinetypeTableRecord
  2
BYLAYER
 70
0
  3

 72
65
 73
0
 40
0.0
  0
LTYPE
  5
16
100
AcDbSymbolTableRecord
100
AcDbLinetypeTableRecord
  2
CONTINUOUS
 70
64
  3
Solid line
 72
65
 73
0
 40
0.0
  0
LTYPE
  5
1F5
100
AcDbSymbolTableRecord
100
AcDbLinetypeTableRecord
  2
CENTER
 70
64
  3
____ _ ____ _ ____ _ ____ _ ____ _ ____ _ ____
 72
65
 73
4
 40
0.6
 49
0.375
 74
0
 49
-0.075
 74
0
 49
0.075
 74
0
 49
-0.075
 74
0
  0
LTYPE
  5
1F6
100
AcDbSymbolTableRecord
100
AcDbLinetypeTableRecord
  2
HIDDEN
 70
64
  3
- - - - - - - - - - - - - - - - - - - -
 72
65
 73
2
 40
0.2
 49
0.1
 74
0
 49
-0.1
 74
0
  0
LTYPE
  5
1F7
100
AcDbSymbolTableRecord
100
AcDbLinetypeTableRecord
  2
PHANTOM
 70
64
  3
_____ _ _ _____ _ _ _____ _ _ _____
 72
65
 73
6
 40
0.8
 49
0.45
 74
0
 49
-0.05
 74
0
 49
0.1
 74
0
 49
-0.05
 74
0
 49
0.1
 74
0
 49
-0.05
 74
0
  0
LTYPE
  5
1F8
100
AcDbSymbolTableRecord
100
AcDbLinetypeTableRecord
  2
DOT
 70
64
  3
. . . . . . . . . . . . . . . . . . . .
 72
65
 73
2
 40
0.2
 49
0.1
 74
0
 49
-0.1
 74
0
  0
LTYPE
  5
1F9
100
AcDbSymbolTableRecord
100
AcDbLinetypeTableRecord
  2
DASHED
 70
64
  3
- - - - - - - - - - - - - - - - - - - -
 72
65
 73
2
 40
0.2
 49
0.1
 74
0
 49
-0.1
 74
0
  0
ENDTAB
  0
TABLE
  2
LAYER
  5
2
100
AcDbSymbolTable
 70
36
  0
LAYER
  5
10
100
AcDbSymbolTableRecord
100
AcDbLayerTableRecord
  2
0
 70
0
 62
7
  6
CONTINUOUS
370
-3
390
F
  0
LAYER
  5
1FA
100
AcDbSymbolTableRecord
100
AcDbLayerTableRecord
  2
DEFAULT_1
 70
0
 62
7
  6
CENTER
370
-3
390
F
  0
LAYER
  5
1FB
100
AcDbSymbolTableRecord
100
AcDbLayerTableRecord
  2
DEFAULT_2
 70
0
 62
8
  6
HIDDEN
370
-3
390
F
  0
LAYER
  5
1FC
100
AcDbSymbolTableRecord
100
AcDbLayerTableRecord
  2
DEFAULT_3
 70
0
 62
7
  6
PHANTOM
370
-3
390
F
  0
LAYER
  5
1FD
100
AcDbSymbolTableRecord
100
AcDbLayerTableRecord
  2
00_COMPONENTS
 70
0
 62
7
  6
CONTINUOUS
370
-3
390
F
  0
LAYER
  5
1FE
100
AcDbSymbolTableRecord
100
AcDbLayerTableRecord
  2
01_1_DEFAULT_DATUMS
 70
0
 62
7
  6
CONTINUOUS
370
-3
390
F
  0
LAYER
  5
1FF
100
AcDbSymbolTableRecord
100
AcDbLayerTableRecord
  2
01_PLANES
 70
0
 62
7
  6
CONTINUOUS
370
-3
390
F
  0
LAYER
  5
200
100
AcDbSymbolTableRecord
100
AcDbLayerTableRecord
  2
02_COORD_SYS
 70
0
 62
7
  6
CONTINUOUS
370
-3
390
F
  0
LAYER
  5
201
100
AcDbSymbolTableRecord
100
AcDbLayerTableRecord
  2
03_AXES
 70
0
 62
7
  6
CONTINUOUS
370
-3
390
F
  0
LAYER
  5
202
100
AcDbSymbolTableRecord
100
AcDbLayerTableRecord
  2
04_POINTS
 70
0
 62
7
  6
CONTINUOUS
370
-3
390
F
  0
LAYER
  5
203
100
AcDbSymbolTableRecord
100
AcDbLayerTableRecord
  2
05_CURVES
 70
0
 62
7
  6
CONTINUOUS
370
-3
390
F
  0
LAYER
  5
204
100
AcDbSymbolTableRecord
100
AcDbLayerTableRecord
  2
06_SURFS
 70
0
 62
7
  6
CONTINUOUS
370
-3
390
F
  0
LAYER
  5
205
100
AcDbSymbolTableRecord
100
AcDbLayerTableRecord
  2
07_COSMETICS
 70
0
 62
7
  6
CONTINUOUS
370
-3
390
F
  0
LAYER
  5
206
100
AcDbSymbolTableRecord
100
AcDbLayerTableRecord
  2
10_NOTES
 70
0
 62
7
  6
CONTINUOUS
370
-3
390
F
  0
LAYER
  5
207
100
AcDbSymbolTableRecord
100
AcDbLayerTableRecord
  2
11_NOTES_PUB
 70
0
 62
7
  6
CONTINUOUS
370
-3
390
F
  0
LAYER
  5
208
100
AcDbSymbolTableRecord
100
AcDbLayerTableRecord
  2
13_REF_GTOL
 70
0
 62
7
  6
CONTINUOUS
370
-3
390
F
  0
LAYER
  5
209
100
AcDbSymbolTableRecord
100
AcDbLayerTableRecord
  2
16_MISC
 70
0
 62
7
  6
CONTINUOUS
370
-3
390
F
  0
LAYER
  5
20A
100
AcDbSymbolTableRecord
100
AcDbLayerTableRecord
  2
17_NO_PRINT
 70
0
 62
7
  6
CONTINUOUS
370
-3
390
F
  0
LAYER
  5
20B
100
AcDbSymbolTableRecord
100
AcDbLayerTableRecord
  2
18_DATUM_CAMS_JOINTS
 70
0
 62
7
  6
CONTINUOUS
370
-3
390
F
  0
LAYER
  5
20C
100
AcDbSymbolTableRecord
100
AcDbLayerTableRecord
  2
19_DATUM_FUNCTIONAL
 70
0
 62
7
  6
CONTINUOUS
370
-3
390
F
  0
LAYER
  5
20D
100
AcDbSymbolTableRecord
100
AcDbLayerTableRecord
  2
20_DATUM_KINEMATIC_SCHEME
 70
0
 62
7
  6
CONTINUOUS
370
-3
390
F
  0
ENDTAB
  0
TABLE
  2
STYLE
  5
3
100
AcDbSymbolTable
 70
1
  0
STYLE
  5
11
100
AcDbSymbolTableRecord
100
AcDbTextStyleTableRecord
  2
STANDARD
 70
0
 40
0.0
 41
0.8
 50
0.0
 71
0
 42
0.2
  3
txt
  4

  0
STYLE
  5
20E
100
AcDbSymbolTableRecord
100
AcDbTextStyleTableRecord
  2
TEXTSTYLE_1
 70
0
 40
0.0
 41
0.8
 50
0.0
 71
0
 42
0.2
  3
gdt
  4

  0
ENDTAB
  0
TABLE
  2
VIEW
  5
6
100
AcDbSymbolTable
 70
0
  0
ENDTAB
  0
TABLE
  2
UCS
  5
7
100
AcDbSymbolTable
 70
0
  0
ENDTAB
  0
TABLE
  2
APPID
  5
9
100
AcDbSymbolTable
 70
1
  0
APPID
  5
20F
100
AcDbSymbolTableRecord
100
AcDbRegAppTableRecord
  2
ACAD
 70
0
  0
ENDTAB
  0
TABLE
  2
BLOCK_RECORD
  5
1
100
AcDbSymbolTable
 70
0
  0
BLOCK_RECORD
  5
210
100
AcDbSymbolTableRecord
100
AcDbBlockTableRecord
  2
*Model_Space
  0
BLOCK_RECORD
  5
211
100
AcDbSymbolTableRecord
100
AcDbBlockTableRecord
  2
*Paper_Space
  0
BLOCK_RECORD
  5
212
100
AcDbSymbolTableRecord
100
AcDbBlockTableRecord
  2
_FILLED
  0
ENDTAB
  0
TABLE
  2
DIMSTYLE
  5
A
100
AcDbSymbolTable
 70
1
100
AcDbDimStyleTable
 71
0
  0
DIMSTYLE
105
213
100
AcDbSymbolTableRecord
100
AcDbDimStyleTableRecord
  2
STANDARD
 70
0
  3

  4

 40
1.0
 41
0.584856384
 42
1.0
 43
0.38
 44
1.0
 45
0.0
 46
0.0
 47
0.01
 48
0.01
140
0.8187989376
141
0.09
142
0.0
143
25.4
144
1.0
145
0.0
146
1.0
147
0.625
 71
1
 72
0
 73
0
 74
0
 75
0
 76
0
 77
1
 78
8
 79
2
170
0
171
1
172
0
173
0
174
0
175
0
176
0
177
0
178
0
270
2
179
2
271
2
272
2
273
2
274
2
275
0
280
0
281
0
282
0
283
1
284
8
285
0
286
0
287
3
288
0
340
11
278
46
341
212
342
212
343
212
344
212
  0
ENDTAB
  0
ENDSEC
  0
SECTION
  2
BLOCKS
  0
BLOCK
  5
20
100
AcDbEntity
  8
0
100
AcDbBlockBegin
  2
*Model_Space
 70
0
 10
0.0
 20
0.0
 30
0.0
  3
*Model_Space
  1

  0
ENDBLK
  5
21
100
AcDbEntity
  8
0
100
AcDbBlockEnd
  0
BLOCK
  5
1C
100
AcDbEntity
  8
0
100
AcDbBlockBegin
  2
*Paper_Space
 70
0
 10
0.0
 20
0.0
 30
0.0
  3
*Paper_Space
  1

  0
ENDBLK
  5
1D
100
AcDbEntity
  8
0
100
AcDbBlockEnd
  0
BLOCK
  5
214
100
AcDbEntity
  8
0
100
AcDbBlockBegin
  2
_FILLED
 70
64
 10
0.0
 20
0.0
  3
_FILLED
  1

  0
SOLID
  5
215
100
AcDbEntity
  8
0
  6
BYBLOCK
 62
0
100
AcDbTrace
 10
0.0
 20
0.0
 11
-1.0
 21
0.25
 12
-1.0
 22
-0.25
 13
-1.0
 23
-0.25
  0
ENDBLK
  5
216
100
AcDbEntity
  8
0
  6
BYBLOCK
 62
0
100
AcDbBlockEnd
  0
ENDSEC
  0
SECTION
  2
ENTITIES
  0
LINE
  5
217
100
AcDbEntity
  8
0
100
AcDbLine
 62
7
  6
CONTINUOUS
 10
9.9879983079
 20
5.7404692082
 11
17.4879983079
 21
5.7404692082
  0
LINE
  5
218
100
AcDbEntity
  8
0
100
AcDbLine
 62
7
  6
CONTINUOUS
 10
15.9879983079
 20
6.0277760659
 11
9.9879983079
 21
6.0277760659
  0
LINE
  5
219
100
AcDbEntity
  8
0
100
AcDbLine
 62
7
  6
CONTINUOUS
 10
15.9879983079
 20
9.1179460096
 11
9.9879983079
 21
9.1179460096
  0
LINE
  5
21A
100
AcDbEntity
  8
0
100
AcDbLine
 62
7
  6
CONTINUOUS
 10
21.7384677258
 20
59.3894297941
 11
21.7354442539
 21
59.3873635084
  0
LINE
  5
21B
100
AcDbEntity
  8
0
100
AcDbLine
 62
7
  6
CONTINUOUS
 10
22.4884501426
 20
10.0912182831
 11
22.4852406426
 21
10.0932767817
  0
LINE
  5
21C
100
AcDbEntity
  8
0
100
AcDbLine
 62
7
  6
CONTINUOUS
 10
20.9884838343
 20
10.0899690824
 11
20.9855061075
 21
10.0920091255
  0
LINE
  5
21D
100
AcDbEntity
  8
0
100
AcDbLine
 62
7
  6
CONTINUOUS
 10
23.238478129
 20
59.3911089697
 11
23.235433972
 21
59.3890786466
  0
LINE
  5
21E
100
AcDbEntity
  8
0
100
AcDbLine
 62
7
  6
CONTINUOUS
 10
24.7384494824
 20
59.3894016457
 11
24.7352717116
 21
59.3873368939
  0
LINE
  5
21F
100
AcDbEntity
  8
0
100
AcDbLine
 62
7
  6
CONTINUOUS
 10
15.9879983079
 20
13.9048789939
 11
9.9879983079
 21
13.9048789939
  0
LINE
  5
220
100
AcDbEntity
  8
0
100
AcDbLine
 62
7
  6
CONTINUOUS
 10
25.4884704231
 20
10.0899899513
 11
25.4853324147
 21
10.0920239161
  0
LINE
  5
221
100
AcDbEntity
  8
0
100
AcDbLine
 62
7
  6
CONTINUOUS
 10
23.988445995
 20
10.0912183121
 11
23.9854705092
 21
10.0932743377
  0
LINE
  5
222
100
AcDbEntity
  8
0
100
AcDbLine
 62
7
  6
CONTINUOUS
 10
27.7384677258
 20
59.3894297941
 11
27.7354442539
 21
59.3873635084
  0
LINE
  5
223
100
AcDbEntity
  8
0
100
AcDbLine
 62
7
  6
CONTINUOUS
 10
26.2384597943
 20
59.3901230798
 11
26.2355938796
 21
59.388180914
  0
LINE
  5
224
100
AcDbEntity
  8
0
100
AcDbLine
 62
7
  6
CONTINUOUS
 10
29.238478129
 20
59.3911089697
 11
29.2354339719
 21
59.3890786466
  0
LINE
  5
225
100
AcDbEntity
  8
0
100
AcDbLine
 62
7
  6
CONTINUOUS
 10
30.7384494824
 20
59.3894016457
 11
30.7352717116
 21
59.3873368939
  0
LINE
  5
226
100
AcDbEntity
  8
0
100
AcDbLine
 62
7
  6
CONTINUOUS
 10
28.4884501426
 20
10.0912182831
 11
28.4852406426
 21
10.0932767817
  0
LINE
  5
227
100
AcDbEntity
  8
0
100
AcDbLine
 62
7
  6
CONTINUOUS
 10
26.9884838343
 20
10.0899690824
 11
26.9855061075
 21
10.0920091255
  0
LINE
  5
228
100
AcDbEntity
  8
0
100
AcDbLine
 62
7
  6
CONTINUOUS
 10
20.4879983079
 20
10.7552923917
 11
20.9846761812
 21
10.0931155957
  0
LINE
  5
229
100
AcDbEntity
  8
0
100
AcDbLine
 62
7
  6
CONTINUOUS
 10
8.4879983079
 20
7.2405077075
 11
8.4879983079
 21
62.2404307089
  0
LINE
  5
22A
100
AcDbEntity
  8
0
100
AcDbLine
 62
7
  6
CONTINUOUS
 10
23.2343829177
 20
59.3876773564
 11
22.484825487
 21
58.3883532389
  0
LINE
  5
22B
100
AcDbEntity
  8
0
100
AcDbLine
 62
7
  6
CONTINUOUS
 10
21.735622271
 20
59.3876008286
 11
20.9848420283
 21
58.3867156779
  0
LINE
  5
22C
100
AcDbEntity
  8
0
100
AcDbLine
 62
7
  6
CONTINUOUS
 10
33.7384677258
 20
59.3894297941
 11
33.7354442539
 21
59.3873635084
  0
LINE
  5
22D
100
AcDbEntity
  8
0
100
AcDbLine
 62
7
  6
CONTINUOUS
 10
32.2384597943
 20
59.3901230799
 11
32.2355938796
 21
59.388180914
  0
LINE
  5
22E
100
AcDbEntity
  8
0
100
AcDbLine
 62
7
  6
CONTINUOUS
 10
34.4884501426
 20
10.0912182831
 11
34.4852406426
 21
10.0932767817
  0
LINE
  5
22F
100
AcDbEntity
  8
0
100
AcDbLine
 62
7
  6
CONTINUOUS
 10
31.4884704231
 20
10.0899899513
 11
31.4853324147
 21
10.0920239161
  0
LINE
  5
230
100
AcDbEntity
  8
0
100
AcDbLine
 62
7
  6
CONTINUOUS
 10
32.9884838343
 20
10.0899690824
 11
32.9855061075
 21
10.0920091255
  0
LINE
  5
231
100
AcDbEntity
  8
0
100
AcDbLine
 62
7
  6
CONTINUOUS
 10
29.988445995
 20
10.0912183121
 11
29.9854705092
 21
10.0932743377
  0
LINE
  5
232
100
AcDbEntity
  8
0
100
AcDbLine
 62
7
  6
CONTINUOUS
 10
21.7346601987
 20
11.0939088434
 11
22.4846685226
 21
10.0940395029
  0
LINE
  5
233
100
AcDbEntity
  8
0
100
AcDbLine
 62
7
  6
CONTINUOUS
 10
23.2348858369
 20
11.0939119144
 11
23.9855554001
 21
10.0931611655
  0
LINE
  5
234
100
AcDbEntity
  8
0
100
AcDbLine
 62
7
  6
CONTINUOUS
 10
9.9879983079
 20
5.7404692082
 11
9.9879983079
 21
63.7404692082
  0
LINE
  5
235
100
AcDbEntity
  8
0
100
AcDbLine
 62
7
  6
CONTINUOUS
 10
24.734968638
 20
59.3869328568
 11
23.9846908969
 21
58.386717533
  0
LINE
  5
236
100
AcDbEntity
  8
0
100
AcDbLine
 62
7
  6
CONTINUOUS
 10
26.2384597943
 20
59.3901230798
 11
25.4849145413
 21
58.3874012814
  0
LINE
  5
237
100
AcDbEntity
  8
0
100
AcDbLine
 62
7
  6
CONTINUOUS
 10
35.238478129
 20
59.3911089697
 11
35.2354339719
 21
59.3890786466
  0
LINE
  5
238
100
AcDbEntity
  8
0
100
AcDbLine
 62
7
  6
CONTINUOUS
 10
36.7384494824
 20
59.3894016457
 11
36.7352717116
 21
59.3873368939
  0
LINE
  5
239
100
AcDbEntity
  8
0
100
AcDbLine
 62
7
  6
CONTINUOUS
 10
37.4884704231
 20
10.0899899513
 11
37.4853324338
 21
10.0920238907
  0
LINE
  5
23A
100
AcDbEntity
  8
0
100
AcDbLine
 62
7
  6
CONTINUOUS
 10
35.988445995
 20
10.0912183121
 11
35.9854705092
 21
10.0932743377
  0
LINE
  5
23B
100
AcDbEntity
  8
0
100
AcDbLine
 62
7
  6
CONTINUOUS
 10
24.7347324976
 20
11.0927317038
 11
25.4847758829
 21
10.0927658928
  0
LINE
  5
23C
100
AcDbEntity
  8
0
100
AcDbLine
 62
7
  6
CONTINUOUS
 10
26.2348900326
 20
11.0927381968
 11
26.9846761812
 21
10.0931155957
  0
LINE
  5
23D
100
AcDbEntity
  8
0
100
AcDbLine
 62
7
  6
CONTINUOUS
 10
29.2343829177
 20
59.3876773564
 11
28.484825487
 21
58.3883532389
  0
LINE
  5
23E
100
AcDbEntity
  8
0
100
AcDbLine
 62
7
  6
CONTINUOUS
 10
27.735622271
 20
59.3876008286
 11
26.9848420283
 21
58.3867156779
  0
LINE
  5
23F
100
AcDbEntity
  8
0
100
AcDbLine
 62
7
  6
CONTINUOUS
 10
41.2401021615
 20
59.3888909883
 11
41.2374391552
 21
59.3870454707
  0
LINE
  5
240
100
AcDbEntity
  8
0
100
AcDbLine
 62
7
  6
CONTINUOUS
 10
38.2384597943
 20
59.3901230798
 11
38.2355939867
 21
59.3881810567
  0
LINE
  5
241
100
AcDbEntity
  8
0
100
AcDbLine
 62
7
  6
CONTINUOUS
 10
39.7387854949
 20
59.3898787789
 11
39.7352742667
 21
59.3876704744
  0
LINE
  5
242
100
AcDbEntity
  8
0
100
AcDbLine
 62
7
  6
CONTINUOUS
 10
15.9879983079
 20
21.9950489377
 11
9.9879983079
 21
21.9950489377
  0
LINE
  5
243
100
AcDbEntity
  8
0
100
AcDbLine
 62
7
  6
CONTINUOUS
 10
40.4882266018
 20
10.0906404319
 11
40.4856283768
 21
10.0923375168
  0
LINE
  5
244
100
AcDbEntity
  8
0
100
AcDbLine
 62
7
  6
CONTINUOUS
 10
38.990612141
 20
10.0924300156
 11
38.9870079244
 21
10.0948944553
  0
LINE
  5
245
100
AcDbEntity
  8
0
100
AcDbLine
 62
7
  6
CONTINUOUS
 10
27.7346601987
 20
11.0939088434
 11
28.4846685226
 21
10.0940395029
  0
LINE
  5
246
100
AcDbEntity
  8
0
100
AcDbLine
 62
7
  6
CONTINUOUS
 10
15.9879983079
 20
6.0277760659
 11
15.9879983079
 21
9.1179460096
  0
LINE
  5
247
100
AcDbEntity
  8
0
100
AcDbLine
 62
7
  6
CONTINUOUS
 10
15.9879983079
 20
13.9048789939
 11
15.9879983079
 21
21.9950489377
  0
LINE
  5
248
100
AcDbEntity
  8
0
100
AcDbLine
 62
7
  6
CONTINUOUS
 10
15.9879983079
 20
29.7404692082
 11
15.9879983079
 21
39.7404692082
  0
LINE
  5
249
100
AcDbEntity
  8
0
100
AcDbLine
 62
7
  6
CONTINUOUS
 10
15.9879983079
 20
47.4858894787
 11
15.9879983079
 21
55.5760594225
  0
LINE
  5
24A
100
AcDbEntity
  8
0
100
AcDbLine
 62
7
  6
CONTINUOUS
 10
15.9879983079
 20
60.3629924068
 11
15.9879983079
 21
63.4531623506
  0
LINE
  5
24B
100
AcDbEntity
  8
0
100
AcDbLine
 62
7
  6
CONTINUOUS
 10
30.734968638
 20
59.3869328568
 11
29.9846908969
 21
58.386717533
  0
LINE
  5
24C
100
AcDbEntity
  8
0
100
AcDbLine
 62
7
  6
CONTINUOUS
 10
32.2384597943
 20
59.3901230799
 11
31.4849145413
 21
58.3874012814
  0
LINE
  5
24D
100
AcDbEntity
  8
0
100
AcDbLine
 62
7
  6
CONTINUOUS
 10
29.2348858369
 20
11.0939119144
 11
29.9855554001
 21
10.0931611655
  0
LINE
  5
24E
100
AcDbEntity
  8
0
100
AcDbLine
 62
7
  6
CONTINUOUS
 10
30.7347324976
 20
11.0927317038
 11
31.4847758829
 21
10.0927658928
  0
LINE
  5
24F
100
AcDbEntity
  8
0
100
AcDbLine
 62
7
  6
CONTINUOUS
 10
17.4879983079
 20
63.7404692082
 11
17.4879983079
 21
5.7404692082
  0
LINE
  5
250
100
AcDbEntity
  8
0
100
AcDbLine
 62
7
  6
CONTINUOUS
 10
35.2343829177
 20
59.3876773564
 11
34.484825487
 21
58.3883532389
  0
LINE
  5
251
100
AcDbEntity
  8
0
100
AcDbLine
 62
7
  6
CONTINUOUS
 10
33.735622271
 20
59.3876008286
 11
32.9848420284
 21
58.3867156779
  0
LINE
  5
252
100
AcDbEntity
  8
0
100
AcDbLine
 62
7
  6
CONTINUOUS
 10
32.2348900326
 20
11.0927381968
 11
32.9846761812
 21
10.0931155957
  0
LINE
  5
253
100
AcDbEntity
  8
0
100
AcDbLine
 62
7
  6
CONTINUOUS
 10
33.7346601987
 20
11.0939088434
 11
34.4846685226
 21
10.0940395029
  0
LWPOLYLINE
  5
254
100
AcDbEntity
  8
0
100
AcDbPolyline
 62
7
  6
CONTINUOUS
 90
8
 70
0
 10
20.9855061075
 20
10.0920091255
 10
20.9205643225
 20
11.0816999256
 10
20.8523135577
 20
13.9938373255
 10
20.7837958417
 20
18.6091877433
 10
20.7153805082
 20
24.5359542548
 10
20.6473420574
 20
31.2565666951
 10
20.5793849126
 20
38.2491641821
 10
20.5187007885
 20
44.2407801683
  0
LINE
  5
255
100
AcDbEntity
  8
0
100
AcDbLine
 62
7
  6
CONTINUOUS
 10
20.5187007885
 20
44.2407801683
 11
20.4879983079
 21
46.9892584298
  0
LINE
  5
256
100
AcDbEntity
  8
0
100
AcDbLine
 62
7
  6
CONTINUOUS
 10
20.4879983079
 20
8.5904692082
 11
20.4879983079
 21
60.8904692082
  0
LINE
  5
257
100
AcDbEntity
  8
0
100
AcDbLine
 62
7
  6
CONTINUOUS
 10
36.734968638
 20
59.3869328568
 11
35.9846908969
 21
58.386717533
  0
LINE
  5
258
100
AcDbEntity
  8
0
100
AcDbLine
 62
7
  6
CONTINUOUS
 10
38.2384597943
 20
59.3901230798
 11
37.4849145413
 21
58.3874012814
  0
LINE
  5
259
100
AcDbEntity
  8
0
100
AcDbLine
 62
7
  6
CONTINUOUS
 10
15.9879983079
 20
29.7404692082
 11
9.9879983079
 21
29.7404692082
  0
LINE
  5
25A
100
AcDbEntity
  8
0
100
AcDbLine
 62
7
  6
CONTINUOUS
 10
35.2348858369
 20
11.0939119144
 11
35.9855554001
 21
10.0931611655
  0
LINE
  5
25B
100
AcDbEntity
  8
0
100
AcDbLine
 62
7
  6
CONTINUOUS
 10
36.7347324976
 20
11.0927317037
 11
37.4848503829
 21
10.0926665682
  0
LINE
  5
25C
100
AcDbEntity
  8
0
100
AcDbLine
 62
7
  6
CONTINUOUS
 10
39.7350706815
 20
59.3873990676
 11
38.9846976021
 21
58.3870531899
  0
LINE
  5
25D
100
AcDbEntity
  8
0
100
AcDbLine
 62
7
  6
CONTINUOUS
 10
38.2363755172
 20
11.09542943
 11
38.9864062198
 21
10.0956964839
  0
LINE
  5
25E
100
AcDbEntity
  8
0
100
AcDbLine
 62
7
  6
CONTINUOUS
 10
39.7350954226
 20
11.092943053
 11
40.4853106427
 21
10.0927611193
  0
LINE
  5
25F
100
AcDbEntity
  8
0
100
AcDbLine
 62
7
  6
CONTINUOUS
 10
41.2366787216
 20
59.3860318245
 11
40.4867379951
 21
58.3863759436
  0
LINE
  5
260
100
AcDbEntity
  8
0
100
AcDbLine
 62
7
  6
CONTINUOUS
 10
41.2366401862
 20
11.0957144349
 11
41.4879983079
 21
10.7606811441
  0
LINE
  5
261
100
AcDbEntity
  8
0
100
AcDbLine
 62
7
  6
CONTINUOUS
 10
15.9879983079
 20
39.7404692082
 11
9.9879983079
 21
39.7404692082
  0
LINE
  5
262
100
AcDbEntity
  8
0
100
AcDbLine
 62
7
  6
CONTINUOUS
 10
20.991305719
 20
58.386717533
 11
20.4879983079
 21
59.0576893406
  0
LINE
  5
263
100
AcDbEntity
  8
0
100
AcDbLine
 62
7
  6
CONTINUOUS
 10
20.9904412157
 20
10.0931611655
 11
21.7411107789
 21
11.0939119144
  0
LINE
  5
264
100
AcDbEntity
  8
0
100
AcDbLine
 62
7
  6
CONTINUOUS
 10
22.4913280933
 20
10.0940395029
 11
23.2413364172
 21
11.0939088434
  0
LINE
  5
265
100
AcDbEntity
  8
0
100
AcDbLine
 62
7
  6
CONTINUOUS
 10
15.9879983079
 20
47.4858894787
 11
9.9879983079
 21
47.4858894787
  0
LINE
  5
266
100
AcDbEntity
  8
0
100
AcDbLine
 62
7
  6
CONTINUOUS
 10
22.4911711288
 20
58.3883532389
 11
21.7416136981
 21
59.3876773564
  0
LINE
  5
267
100
AcDbEntity
  8
0
100
AcDbLine
 62
7
  6
CONTINUOUS
 10
23.9911545875
 20
58.386715678
 11
23.2403743449
 21
59.3876008286
  0
LINE
  5
268
100
AcDbEntity
  8
0
100
AcDbLine
 62
7
  6
CONTINUOUS
 10
23.9913204347
 20
10.0931155957
 11
24.7411065833
 21
11.0927381968
  0
LINE
  5
269
100
AcDbEntity
  8
0
100
AcDbLine
 62
7
  6
CONTINUOUS
 10
25.4912207329
 20
10.0927658928
 11
26.2412641182
 21
11.0927317038
  0
LINE
  5
26A
100
AcDbEntity
  8
0
100
AcDbLine
 62
7
  6
CONTINUOUS
 10
25.4910820745
 20
58.3874012814
 11
24.7411819675
 21
59.3871420663
  0
LINE
  5
26B
100
AcDbEntity
  8
0
100
AcDbLine
 62
7
  6
CONTINUOUS
 10
26.9913057189
 20
58.386717533
 11
26.2410279779
 21
59.3869328568
  0
LINE
  5
26C
100
AcDbEntity
  8
0
100
AcDbLine
 62
7
  6
CONTINUOUS
 10
41.4879983079
 20
10.7607192768
 11
41.4879983079
 21
59.061318354
  0
LINE
  5
26D
100
AcDbEntity
  8
0
100
AcDbLine
 62
7
  6
CONTINUOUS
 10
26.9904412157
 20
10.0931611655
 11
27.7411107789
 21
11.0939119144
  0
LINE
  5
26E
100
AcDbEntity
  8
0
100
AcDbLine
 62
7
  6
CONTINUOUS
 10
28.4913280933
 20
10.0940395029
 11
29.2413364172
 21
11.0939088434
  0
LINE
  5
26F
100
AcDbEntity
  8
0
100
AcDbLine
 62
7
  6
CONTINUOUS
 10
28.4911711288
 20
58.3883532389
 11
27.7416136981
 21
59.3876773564
  0
LINE
  5
270
100
AcDbEntity
  8
0
100
AcDbLine
 62
7
  6
CONTINUOUS
 10
29.9913204347
 20
10.0931155957
 11
30.7411065833
 21
11.0927381968
  0
LINE
  5
271
100
AcDbEntity
  8
0
100
AcDbLine
 62
7
  6
CONTINUOUS
 10
31.4912207329
 20
10.0927658928
 11
32.2412641182
 21
11.0927317038
  0
LINE
  5
272
100
AcDbEntity
  8
0
100
AcDbLine
 62
7
  6
CONTINUOUS
 10
22.4916636998
 20
10.093592013
 11
22.4884501426
 21
10.0912182831
  0
LINE
  5
273
100
AcDbEntity
  8
0
100
AcDbLine
 62
7
  6
CONTINUOUS
 10
20.9914617102
 20
10.0918003591
 11
20.9884838343
 21
10.0899690824
  0
LINE
  5
274
100
AcDbEntity
  8
0
100
AcDbLine
 62
7
  6
CONTINUOUS
 10
21.7415083603
 20
59.3875368991
 11
21.7384677258
 21
59.3894297941
  0
LINE
  5
275
100
AcDbEntity
  8
0
100
AcDbLine
 62
7
  6
CONTINUOUS
 10
23.2415023999
 20
59.3891050546
 11
23.238478129
 21
59.3911089697
  0
LINE
  5
276
100
AcDbEntity
  8
0
100
AcDbLine
 62
7
  6
CONTINUOUS
 10
29.9911545875
 20
58.3867156779
 11
29.2403743448
 21
59.3876008286
  0
LINE
  5
277
100
AcDbEntity
  8
0
100
AcDbLine
 62
7
  6
CONTINUOUS
 10
31.4910820745
 20
58.3874012814
 11
30.7411819675
 21
59.3871420663
  0
LINE
  5
278
100
AcDbEntity
  8
0
100
AcDbLine
 62
7
  6
CONTINUOUS
 10
32.9904412157
 20
10.0931611655
 11
33.7411107789
 21
11.0939119144
  0
LINE
  5
279
100
AcDbEntity
  8
0
100
AcDbLine
 62
7
  6
CONTINUOUS
 10
34.4913280933
 20
10.0940395029
 11
35.2413364172
 21
11.0939088434
  0
LINE
  5
27A
100
AcDbEntity
  8
0
100
AcDbLine
 62
7
  6
CONTINUOUS
 10
28.4916636997
 20
10.093592013
 11
28.4884501426
 21
10.0912182831
  0
LINE
  5
27B
100
AcDbEntity
  8
0
100
AcDbLine
 62
7
  6
CONTINUOUS
 10
25.4916802346
 20
10.092153166
 11
25.4884704231
 21
10.0899899513
  0
LINE
  5
27C
100
AcDbEntity
  8
0
100
AcDbLine
 62
7
  6
CONTINUOUS
 10
26.9914617102
 20
10.0918003591
 11
26.9884838343
 21
10.0899690824
  0
LINE
  5
27D
100
AcDbEntity
  8
0
100
AcDbLine
 62
7
  6
CONTINUOUS
 10
23.9914231899
 20
10.0929785795
 11
23.988445995
 21
10.0912183121
  0
LINE
  5
27E
100
AcDbEntity
  8
0
100
AcDbLine
 62
7
  6
CONTINUOUS
 10
15.9879983079
 20
55.5760594225
 11
9.9879983079
 21
55.5760594225
  0
LINE
  5
27F
100
AcDbEntity
  8
0
100
AcDbLine
 62
7
  6
CONTINUOUS
 10
27.7415083603
 20
59.3875368991
 11
27.7384677258
 21
59.3894297941
  0
LINE
  5
280
100
AcDbEntity
  8
0
100
AcDbLine
 62
7
  6
CONTINUOUS
 10
24.7414022302
 20
59.3874357594
 11
24.7384494824
 21
59.3894016457
  0
LINE
  5
281
100
AcDbEntity
  8
0
100
AcDbLine
 62
7
  6
CONTINUOUS
 10
26.2416447948
 20
59.3877553164
 11
26.2384633557
 21
59.3901204081
  0
LINE
  5
282
100
AcDbEntity
  8
0
100
AcDbLine
 62
7
  6
CONTINUOUS
 10
32.991305719
 20
58.386717533
 11
32.2410279779
 21
59.3869328568
  0
LINE
  5
283
100
AcDbEntity
  8
0
100
AcDbLine
 62
7
  6
CONTINUOUS
 10
34.4911711288
 20
58.3883532389
 11
33.7416136981
 21
59.3876773564
  0
LINE
  5
284
100
AcDbEntity
  8
0
100
AcDbLine
 62
7
  6
CONTINUOUS
 10
35.9913204347
 20
10.0931155957
 11
36.7411065833
 21
11.0927381967
  0
LINE
  5
285
100
AcDbEntity
  8
0
100
AcDbLine
 62
7
  6
CONTINUOUS
 10
31.4916802346
 20
10.0921531659
 11
31.4884704231
 21
10.0899899513
  0
LINE
  5
286
100
AcDbEntity
  8
0
100
AcDbLine
 62
7
  6
CONTINUOUS
 10
29.9914231899
 20
10.0929785795
 11
29.988445995
 21
10.0912183121
  0
LINE
  5
287
100
AcDbEntity
  8
0
100
AcDbLine
 62
7
  6
CONTINUOUS
 10
29.2415023999
 20
59.3891050546
 11
29.238478129
 21
59.3911089697
  0
LINE
  5
288
100
AcDbEntity
  8
0
100
AcDbLine
 62
7
  6
CONTINUOUS
 10
30.7414022302
 20
59.3874357594
 11
30.7384494824
 21
59.3894016457
  0
LINE
  5
289
100
AcDbEntity
  8
0
100
AcDbLine
 62
7
  6
CONTINUOUS
 10
32.2416447948
 20
59.3877553164
 11
32.2384633557
 21
59.3901204081
  0
LINE
  5
28A
100
AcDbEntity
  8
0
100
AcDbLine
 62
7
  6
CONTINUOUS
 10
35.9911545875
 20
58.386715678
 11
35.2403743448
 21
59.3876008286
  0
LINE
  5
28B
100
AcDbEntity
  8
0
100
AcDbLine
 62
7
  6
CONTINUOUS
 10
37.4927292349
 20
58.3858642653
 11
36.7415067948
 21
59.3873920508
  0
LINE
  5
28C
100
AcDbEntity
  8
0
100
AcDbLine
 62
7
  6
CONTINUOUS
 10
37.4911933569
 20
10.0926758954
 11
38.2432637374
 21
11.0953487593
  0
LINE
  5
28D
100
AcDbEntity
  8
0
100
AcDbLine
 62
7
  6
CONTINUOUS
 10
38.9929254308
 20
10.0956664785
 11
39.7410213274
 21
11.0930147795
  0
LINE
  5
28E
100
AcDbEntity
  8
0
100
AcDbLine
 62
7
  6
CONTINUOUS
 10
34.4916636997
 20
10.093592013
 11
34.4884501426
 21
10.0912182831
  0
LINE
  5
28F
100
AcDbEntity
  8
0
100
AcDbLine
 62
7
  6
CONTINUOUS
 10
32.9914617102
 20
10.0918003591
 11
32.9884838343
 21
10.0899690824
  0
LINE
  5
290
100
AcDbEntity
  8
0
100
AcDbLine
 62
7
  6
CONTINUOUS
 10
35.9914231899
 20
10.0929785795
 11
35.988445995
 21
10.0912183121
  0
LINE
  5
291
100
AcDbEntity
  8
0
100
AcDbLine
 62
7
  6
CONTINUOUS
 10
15.9879983079
 20
60.3629924068
 11
9.9879983079
 21
60.3629924068
  0
LINE
  5
292
100
AcDbEntity
  8
0
100
AcDbLine
 62
7
  6
CONTINUOUS
 10
33.7415083603
 20
59.3875368991
 11
33.7384677258
 21
59.3894297941
  0
LINE
  5
293
100
AcDbEntity
  8
0
100
AcDbLine
 62
7
  6
CONTINUOUS
 10
35.2415023999
 20
59.3891050546
 11
35.238478129
 21
59.3911089697
  0
LINE
  5
294
100
AcDbEntity
  8
0
100
AcDbLine
 62
7
  6
CONTINUOUS
 10
36.741471404
 20
59.3873448615
 11
36.7384494824
 21
59.3894016457
  0
LINE
  5
295
100
AcDbEntity
  8
0
100
AcDbLine
 62
7
  6
CONTINUOUS
 10
38.9918448443
 20
58.3870063397
 11
38.2427724782
 21
59.3856593001
  0
LINE
  5
296
100
AcDbEntity
  8
0
100
AcDbLine
 62
7
  6
CONTINUOUS
 10
40.4925257532
 20
58.3864191789
 11
39.7417341186
 21
59.3873844079
  0
LINE
  5
297
100
AcDbEntity
  8
0
100
AcDbLine
 62
7
  6
CONTINUOUS
 10
40.4911625686
 20
10.0928118789
 11
41.2433651219
 21
11.0956509244
  0
LINE
  5
298
100
AcDbEntity
  8
0
100
AcDbLine
 62
7
  6
CONTINUOUS
 10
38.9937307528
 20
10.0945928531
 11
38.990612141
 21
10.0924300156
  0
LINE
  5
299
100
AcDbEntity
  8
0
100
AcDbLine
 62
7
  6
CONTINUOUS
 10
37.491632824
 20
10.0920898831
 11
37.4884704231
 21
10.0899899513
  0
LINE
  5
29A
100
AcDbEntity
  8
0
100
AcDbLine
 62
7
  6
CONTINUOUS
 10
40.4914060803
 20
10.0924871606
 11
40.4882266018
 21
10.0906404319
  0
LINE
  5
29B
100
AcDbEntity
  8
0
100
AcDbLine
 62
7
  6
CONTINUOUS
 10
15.9879983079
 20
63.4531623506
 11
9.9879983079
 21
63.4531623506
  0
LINE
  5
29C
100
AcDbEntity
  8
0
100
AcDbLine
 62
7
  6
CONTINUOUS
 10
9.9879983079
 20
63.7404692082
 11
17.4879983079
 21
63.7404692082
  0
LINE
  5
29D
100
AcDbEntity
  8
0
100
AcDbLine
 62
7
  6
CONTINUOUS
 10
39.7420863763
 20
59.3878541055
 11
39.7387854949
 21
59.3898787789
  0
LINE
  5
29E
100
AcDbEntity
  8
0
100
AcDbLine
 62
7
  6
CONTINUOUS
 10
38.24332364
 20
59.3863940932
 11
38.2404598713
 21
59.3886226461
  0
LINE
  5
29F
100
AcDbEntity
  8
0
100
AcDbLine
 62
7
  6
CONTINUOUS
 10
41.4879983079
 20
59.0585371016
 11
41.2423403155
 21
59.3860438079
  0
LINE
  5
2A0
100
AcDbEntity
  8
0
100
AcDbLine
 62
7
  6
CONTINUOUS
 10
41.2427911887
 20
59.3866449117
 11
41.2401021615
 21
59.3888909883
  0
ARC
  5
2A1
100
AcDbEntity
  8
0
100
AcDbCircle
 62
7
  6
CONTINUOUS
 10
18.9879983079
 20
8.5904692082
 40
1.5
100
AcDbArc
 50
180.0
 51
360.0
  0
ARC
  5
2A2
100
AcDbEntity
  8
0
100
AcDbCircle
 62
7
  6
CONTINUOUS
 10
18.9879983079
 20
60.8904692082
 40
1.5
100
AcDbArc
 50
0.0
 51
180.0
  0
ARC
  5
2A3
100
AcDbEntity
  8
0
100
AcDbCircle
 62
7
  6
CONTINUOUS
 10
9.9879983079
 20
7.2404692082
 40
1.5
100
AcDbArc
 50
180.0
 51
270.0
  0
ARC
  5
2A4
100
AcDbEntity
  8
0
100
AcDbCircle
 62
7
  6
CONTINUOUS
 10
9.9879983079
 20
62.2404692082
 40
1.5
100
AcDbArc
 50
90.0
 51
180.0
  0
ARC
  5
2A5
100
AcDbEntity
  8
0
100
AcDbCircle
 62
7
  6
CONTINUOUS
 10
9.8945730347
 20
62.0065040889
 40
1.4066245588
100
AcDbArc
 50
170.8674187041
 51
172.0758732919
  0
ARC
  5
2A6
100
AcDbEntity
  8
0
100
AcDbCircle
 62
7
  6
CONTINUOUS
 10
9.894570275
 20
7.4744337912
 40
1.4066217739
100
AcDbArc
 50
187.9241277662
 51
189.1325855779
  0
ARC
  5
2A7
100
AcDbEntity
  8
0
100
AcDbCircle
 62
7
  6
CONTINUOUS
 10
9.8880549831
 20
7.4736217115
 40
1.4000567418
100
AcDbArc
 50
180.0176741304
 51
187.927969836
  0
ARC
  5
2A8
100
AcDbEntity
  8
0
100
AcDbCircle
 62
7
  6
CONTINUOUS
 10
9.8880545836
 20
62.00731657
 40
1.4000563424
100
AcDbArc
 50
172.072029674
 51
179.982320344
  0
SPLINE
  5
2A9
100
AcDbEntity
  8
0
100
AcDbSpline
 62
7
  6
CONTINUOUS
 70
0
 71
3
 72
66
 73
62
 74
0
 42
0.0000001
 43
0.0000001
 44
0.0000000001
 40
0.0
 40
0.0
 40
0.0
 40
0.0
 40
0.0001322064
 40
0.0003335301
 40
0.0006066866
 40
0.0009526317
 40
0.0018642001
 40
0.0030694037
 40
0.0045681207
 40
0.0063597864
 40
0.008443062
 40
0.0108161695
 40
0.0134772851
 40
0.0164245601
 40
0.0231701513
 40
0.0310393535
 40
0.0400202021
 40
0.05010039
 40
0.0612571334
 40
0.0734563992
 40
0.0866636054
 40
0.115965388
 40
0.1488898802
 40
0.1851523911
 40
0.2244177041
 40
0.2662805482
 40
0.3103468246
 40
0.3562137813
 40
0.4034520794
 40
0.4516033372
 40
0.5002092144
 40
0.5488163015
 40
0.5969568604
 40
0.6441784036
 40
0.6900431967
 40
0.7341083986
 40
0.7759458813
 40
0.8151598386
 40
0.8514078332
 40
0.8843351268
 40
0.8994436698
 40
0.9136014846
 40
0.9267755258
 40
0.9389376191
 40
0.9500649271
 40
0.9601347434
 40
0.9691215054
 40
0.9769971233
 40
0.9837342788
 40
0.9866703966
 40
0.989316844
 40
0.991672667
 40
0.9937369411
 40
0.9955088001
 40
0.9969879063
 40
0.9981746871
 40
0.9990699817
 40
0.999408885
 40
0.9996758721
 40
0.9998719873
 40
1.0
 40
1.0
 40
1.0
 40
1.0
 10
31.4852598814
 20
10.0921384674
 30
0.0
 10
31.4839622764
 20
10.0938813579
 30
0.0
 10
31.4817423181
 20
10.0989867298
 30
0.0
 10
31.4789459358
 20
10.1085343408
 30
0.0
 10
31.4761243009
 20
10.1217427059
 30
0.0
 10
31.4719379827
 20
10.1465461101
 30
0.0
 10
31.4670094797
 20
10.1867416806
 30
0.0
 10
31.4613990206
 20
10.2458977355
 30
0.0
 10
31.4557548984
 20
10.3195740953
 30
0.0
 10
31.4500530187
 20
10.4077096539
 30
0.0
 10
31.4443135901
 20
10.5102406364
 30
0.0
 10
31.4385459132
 20
10.627079102
 30
0.0
 10
31.432759124
 20
10.7581324087
 30
0.0
 10
31.4246588932
 20
10.9610160177
 30
0.0
 10
31.4146971911
 20
11.2494886918
 30
0.0
 10
31.4031944916
 20
11.6371269228
 30
0.0
 10
31.39167338
 20
12.0795916699
 30
0.0
 10
31.3801348741
 20
12.5761046565
 30
0.0
 10
31.3685799069
 20
13.1255266123
 30
0.0
 10
31.3570095312
 20
13.7263529047
 30
0.0
 10
31.3410131888
 20
14.6253724273
 30
0.0
 10
31.321265521
 20
15.8650087159
 30
0.0
 10
31.2982408945
 20
17.483565181
 30
0.0
 10
31.2751854637
 20
19.2658925332
 30
0.0
 10
31.2521176695
 20
21.1951378603
 30
0.0
 10
31.2290194415
 20
23.2526507264
 30
0.0
 10
31.2059031327
 20
25.4186716419
 30
0.0
 10
31.1827748
 20
27.6730459038
 30
0.0
 10
31.1596469509
 20
29.9945625929
 30
0.0
 10
31.1365150634
 20
32.3610971493
 30
0.0
 10
31.1133785721
 20
34.7501295521
 30
0.0
 10
31.0902403471
 20
37.1389860868
 30
0.0
 10
31.0671026563
 20
39.5050892309
 30
0.0
 10
31.0439708275
 20
41.8261190753
 30
0.0
 10
31.0208524634
 20
44.0801648256
 30
0.0
 10
30.9977399038
 20
46.2457157096
 30
0.0
 10
30.9746383179
 20
48.3019499086
 30
0.0
 10
30.951550713
 20
50.2296954372
 30
0.0
 10
30.928503603
 20
52.0109861241
 30
0.0
 10
30.9088178783
 20
53.3961000022
 30
0.0
 10
30.8929037435
 20
54.418164623
 30
0.0
 10
30.8813190262
 20
55.1156008816
 30
0.0
 10
30.8697415323
 20
55.7646035465
 30
0.0
 10
30.8581714637
 20
56.3637897146
 30
0.0
 10
30.8466119011
 20
56.9119460921
 30
0.0
 10
30.8350653743
 20
57.4079016673
 30
0.0
 10
30.8235418012
 20
57.8503985216
 30
0.0
 10
30.8120514871
 20
58.2381010977
 30
0.0
 10
30.802120537
 20
58.5263581474
 30
0.0
 10
30.7940428048
 20
58.7286791264
 30
0.0
 10
30.7882701821
 20
58.8590238655
 30
0.0
 10
30.782502314
 20
58.9750238895
 30
0.0
 10
30.7767418266
 20
59.0766304219
 30
0.0
 10
30.7709884929
 20
59.1638006072
 30
0.0
 10
30.7652637743
 20
59.2365175032
 30
0.0
 10
30.7595737873
 20
59.2947693296
 30
0.0
 10
30.7545946482
 20
59.3342676103
 30
0.0
 10
30.7503972604
 20
59.3585772115
 30
0.0
 10
30.7475887093
 20
59.3714790052
 30
0.0
 10
30.744825362
 20
59.3807684559
 30
0.0
 10
30.7426464461
 20
59.3857232916
 30
0.0
 10
30.7413755463
 20
59.387400036
 30
0.0
  0
SPLINE
  5
2AA
100
AcDbEntity
  8
0
100
AcDbSpline
 62
7
  6
CONTINUOUS
 70
0
 71
3
 72
65
 73
61
 74
0
 42
0.0000001
 43
0.0000001
 44
0.0000000001
 40
0.0
 40
0.0
 40
0.0
 40
0.0
 40
0.000133887
 40
0.0003358716
 40
0.0006086549
 40
0.0009532198
 40
0.0018591682
 40
0.0030556132
 40
0.0045433998
 40
0.0063229828
 40
0.0083946449
 40
0.0107585818
 40
0.0134148238
 40
0.0163618301
 40
0.0231174764
 40
0.031004003
 40
0.0399994314
 40
0.0500792009
 40
0.0612174987
 40
0.0733885079
 40
0.0865666267
 40
0.1158411099
 40
0.1487761858
 40
0.1850210098
 40
0.2242329407
 40
0.2660587341
 40
0.3101128797
 40
0.3559635058
 40
0.4031663531
 40
0.4512883382
 40
0.499873448
 40
0.5484577072
 40
0.5965873204
 40
0.6438031785
 40
0.6896509864
 40
0.733699417
 40
0.7755454523
 40
0.8147966721
 40
0.8510486349
 40
0.8839647677
 40
0.9132631701
 40
0.9264691688
 40
0.938667578
 40
0.9498258115
 40
0.9599115129
 40
0.9688978704
 40
0.9767720391
 40
0.9835233914
 40
0.9864745008
 40
0.9891401335
 40
0.9915183455
 40
0.993607222
 40
0.9954048971
 40
0.9969095943
 40
0.9981201429
 40
0.9990367178
 40
0.9993851751
 40
0.999660921
 40
0.9998649584
 40
1.0
 40
1.0
 40
1.0
 40
1.0
 10
35.9916049548
 20
58.3873782283
 30
0.0
 10
35.9928680327
 20
58.3856864732
 30
0.0
 10
35.9950578396
 20
58.3807785628
 30
0.0
 10
35.9978329677
 20
58.3716101957
 30
0.0
 10
36.0006471069
 20
58.3589797363
 30
0.0
 10
36.0048331248
 20
58.3353287678
 30
0.0
 10
36.009795788
 20
58.2970433075
 30
0.0
 10
36.0154598225
 20
58.2407145293
 30
0.0
 10
36.0211581149
 20
58.1705511506
 30
0.0
 10
36.0268938278
 20
58.08655503
 30
0.0
 10
36.0326464598
 20
57.9887158856
 30
0.0
 10
36.0384126334
 20
57.8770332303
 30
0.0
 10
36.0441864041
 20
57.7515314117
 30
0.0
 10
36.0522654492
 20
57.5568118592
 30
0.0
 10
36.0621996147
 20
57.2796252074
 30
0.0
 10
36.0736916313
 20
56.9070617158
 30
0.0
 10
36.0852081002
 20
56.4820592855
 30
0.0
 10
36.0967459847
 20
56.0057639359
 30
0.0
 10
36.1082989305
 20
55.479380223
 30
0.0
 10
36.1198649371
 20
54.9041284447
 30
0.0
 10
36.135865768
 20
54.0429207405
 30
0.0
 10
36.1556136644
 20
52.8543004441
 30
0.0
 10
36.1786003279
 20
51.3019495279
 30
0.0
 10
36.20164025
 20
49.592880905
 30
0.0
 10
36.2247138663
 20
47.7436039684
 30
0.0
 10
36.247809925
 20
45.7711737164
 30
0.0
 10
36.2709095557
 20
43.6940516117
 30
0.0
 10
36.294018591
 20
41.5321342086
 30
0.0
 10
36.3171407871
 20
39.3060679171
 30
0.0
 10
36.3402678601
 20
37.0368795186
 30
0.0
 10
36.3633965854
 20
34.7459066304
 30
0.0
 10
36.3865227851
 20
32.4548134255
 30
0.0
 10
36.4096441476
 20
30.1853129127
 30
0.0
 10
36.4327628249
 20
27.9589655567
 30
0.0
 10
36.4558810725
 20
25.7969776377
 30
0.0
 10
36.4789873522
 20
23.7196709636
 30
0.0
 10
36.5020759936
 20
21.7463919538
 30
0.0
 10
36.5251345623
 20
19.8960634402
 30
0.0
 10
36.548178275
 20
18.1865614094
 30
0.0
 10
36.5711943972
 20
16.6340198719
 30
0.0
 10
36.5909328728
 20
15.4448812825
 30
0.0
 10
36.6069190532
 20
14.5824242083
 30
0.0
 10
36.618482669
 20
14.0059860726
 30
0.0
 10
36.6300339097
 20
13.4787621419
 30
0.0
 10
36.6415711047
 20
13.0022018141
 30
0.0
 10
36.6530950921
 20
12.5774440325
 30
0.0
 10
36.6645939687
 20
12.2052865557
 30
0.0
 10
36.6745312355
 20
11.928298073
 30
0.0
 10
36.6826051786
 20
11.7334331338
 30
0.0
 10
36.6883789067
 20
11.607492991
 30
0.0
 10
36.694143356
 20
11.4951647885
 30
0.0
 10
36.6998942078
 20
11.3965423911
 30
0.0
 10
36.7056278905
 20
11.3117208771
 30
0.0
 10
36.711323973
 20
11.2407804958
 30
0.0
 10
36.7169876929
 20
11.1837918587
 30
0.0
 10
36.7219500814
 20
11.1450513602
 30
0.0
 10
36.7261376818
 20
11.1211208813
 30
0.0
 10
36.7289519571
 20
11.1083465032
 30
0.0
 10
36.7317276232
 20
11.0990770351
 30
0.0
 10
36.733917022
 20
11.0941135633
 30
0.0
 10
36.7351825714
 20
11.0924009644
 30
0.0
  0
SPLINE
  5
2AB
100
AcDbEntity
  8
0
100
AcDbSpline
 62
7
  6
CONTINUOUS
 70
0
 71
3
 72
15
 73
11
 74
0
 42
0.0000001
 43
0.0000001
 44
0.0000000001
 40
0.0
 40
0.0
 40
0.0
 40
0.0
 40
0.0909553571
 40
0.1879130457
 40
0.2952932118
 40
0.4153674028
 40
0.5481616097
 40
0.6919443102
 40
0.8438985728
 40
1.0
 40
1.0
 40
1.0
 40
1.0
 10
8.4879983079
 20
54.7017208855
 30
0.0
 10
8.4879983079
 20
54.7591860711
 30
0.0
 10
8.5085489765
 20
54.8786918542
 30
0.0
 10
8.5971367752
 20
55.0457302237
 30
0.0
 10
8.7381872004
 20
55.1970470509
 30
0.0
 10
8.925666257
 20
55.3284107108
 30
0.0
 10
9.1531726072
 20
55.4358537481
 30
0.0
 10
9.412692677
 20
55.5157782225
 30
0.0
 10
9.6945574396
 20
55.5649858333
 30
0.0
 10
9.8893741282
 20
55.5760594225
 30
0.0
 10
9.9879983079
 20
55.5760594225
 30
0.0
  0
SPLINE
  5
2AC
100
AcDbEntity
  8
0
100
AcDbSpline
 62
7
  6
CONTINUOUS
 70
0
 71
3
 72
15
 73
11
 74
0
 42
0.0000001
 43
0.0000001
 44
0.0000000001
 40
0.0
 40
0.0
 40
0.0
 40
0.0
 40
0.1217090049
 40
0.243981393
 40
0.3672479463
 40
0.4917125732
 40
0.6174045297
 40
0.7441955709
 40
0.8719341675
 40
1.0
 40
1.0
 40
1.0
 40
1.0
 10
8.5057792562
 20
62.2297628853
 30
0.0
 10
8.5192253942
 20
62.3134055216
 30
0.0
 10
8.5615213141
 20
62.4790186941
 30
0.0
 10
8.6690183181
 20
62.7124077722
 30
0.0
 10
8.8176368176
 20
62.9244463509
 30
0.0
 10
9.0031103483
 20
63.1084808868
 30
0.0
 10
9.2199843599
 20
63.258529684
 30
0.0
 10
9.461686922
 20
63.3696198375
 30
0.0
 10
9.7204307423
 20
63.4377691708
 30
0.0
 10
9.8988570646
 20
63.4531623506
 30
0.0
 10
9.9879983079
 20
63.4531623506
 30
0.0
  0
SPLINE
  5
2AD
100
AcDbEntity
  8
0
100
AcDbSpline
 62
7
  6
CONTINUOUS
 70
0
 71
3
 72
66
 73
62
 74
0
 42
0.0000001
 43
0.0000001
 44
0.0000000001
 40
0.0
 40
0.0
 40
0.0
 40
0.0
 40
0.0001281376
 40
0.0003250222
 40
0.0005934067
 40
0.00093433
 40
0.0018355441
 40
0.0030307407
 40
0.0045204507
 40
0.0063046786
 40
0.0083831326
 40
0.0107544037
 40
0.0134165605
 40
0.016367619
 40
0.0231270564
 40
0.031013028
 40
0.040004876
 40
0.0500804722
 40
0.0612158462
 40
0.0733857753
 40
0.0865634523
 40
0.1007202395
 40
0.1158262689
 40
0.1487468772
 40
0.184999711
 40
0.224224387
 40
0.2660472754
 40
0.3100801849
 40
0.3559174336
 40
0.4031259426
 40
0.4512495758
 40
0.4998318894
 40
0.5484165419
 40
0.5965452939
 40
0.6437559945
 40
0.6895998447
 40
0.7336513958
 40
0.775500772
 40
0.8147523869
 40
0.8510213993
 40
0.8839476746
 40
0.9132354097
 40
0.9264325658
 40
0.938625005
 40
0.9497837288
 40
0.9598817755
 40
0.9688937019
 40
0.9767952425
 40
0.983563464
 40
0.9865164288
 40
0.9891799624
 40
0.9915528048
 40
0.9936340975
 40
0.9954233886
 40
0.9969203271
 40
0.9981248626
 40
0.9990374751
 40
0.9993847832
 40
0.9996599763
 40
0.9998641226
 40
1.0
 40
1.0
 40
1.0
 40
1.0
 10
40.4929713537
 20
58.3870134332
 30
0.0
 10
40.4941765579
 20
58.385391762
 30
0.0
 10
40.49622596
 20
58.3806050205
 30
0.0
 10
40.4988166834
 20
58.3716383172
 30
0.0
 10
40.5014410834
 20
58.3591780018
 30
0.0
 10
40.5053596569
 20
58.335688398
 30
0.0
 10
40.5100064895
 20
58.2975192175
 30
0.0
 10
40.5153466238
 20
58.241227324
 30
0.0
 10
40.5207973827
 20
58.1709647838
 30
0.0
 10
40.5264066977
 20
58.0867543551
 30
0.0
 10
40.532202558
 20
57.988627233
 30
0.0
 10
40.5381549898
 20
57.8766444561
 30
0.0
 10
40.5442170292
 20
57.7508903415
 30
0.0
 10
40.5527812761
 20
57.5559855014
 30
0.0
 10
40.5633933284
 20
57.2787245647
 30
0.0
 10
40.5755662667
 20
56.9062088676
 30
0.0
 10
40.5875080205
 20
56.4813729679
 30
0.0
 10
40.5991184617
 20
56.0052745139
 30
0.0
 10
40.6103865299
 20
55.4790432883
 30
0.0
 10
40.6213667066
 20
54.9038827375
 30
0.0
 10
40.6321720669
 20
54.2810695162
 30
0.0
 10
40.6429621265
 20
53.6119531682
 30
0.0
 10
40.6582323032
 20
52.6315615578
 30
0.0
 10
40.6787496963
 20
51.3027981321
 30
0.0
 10
40.703564005
 20
49.5937522143
 30
0.0
 10
40.7272725096
 20
47.7443062587
 30
0.0
 10
40.749537811
 20
45.7721578806
 30
0.0
 10
40.77087248
 20
43.6957266514
 30
0.0
 10
40.793186946
 20
41.5343802696
 30
0.0
 10
40.8180226583
 20
39.3085545808
 30
0.0
 10
40.8425877656
 20
37.0394390513
 30
0.0
 10
40.8657924774
 20
34.7486088611
 30
0.0
 10
40.8876470821
 20
32.4576848897
 30
0.0
 10
40.9089710379
 20
30.18838436
 30
0.0
 10
40.9324365745
 20
27.9623239553
 30
0.0
 10
40.9574039649
 20
25.80057399
 30
0.0
 10
40.9815198736
 20
23.7233575308
 30
0.0
 10
41.0041132285
 20
21.7500769312
 30
0.0
 10
41.0255448677
 20
19.8995066938
 30
0.0
 10
41.0472489994
 20
18.1896481781
 30
0.0
 10
41.0715454024
 20
16.6369523348
 30
0.0
 10
41.0927198691
 20
15.4480541866
 30
0.0
 10
41.1092203522
 20
14.5860578438
 30
0.0
 10
41.1208203594
 20
14.0098792636
 30
0.0
 10
41.13203296
 20
13.4825699426
 30
0.0
 10
41.1429424269
 20
13.0054164521
 30
0.0
 10
41.1536944072
 20
12.579632994
 30
0.0
 10
41.1644217198
 20
12.2063725647
 30
0.0
 10
41.1739853246
 20
11.928658211
 30
0.0
 10
41.1821288588
 20
11.733544539
 30
0.0
 10
41.1880712163
 20
11.6077077743
 30
0.0
 10
41.1941075519
 20
11.495637652
 30
0.0
 10
41.2002034642
 20
11.3973783802
 30
0.0
 10
41.206318438
 20
11.3129631135
 30
0.0
 10
41.2123943265
 20
11.2424086481
 30
0.0
 10
41.2184061742
 20
11.1857397501
 30
0.0
 10
41.2236398725
 20
11.1472138187
 30
0.0
 10
41.2280158166
 20
11.1234087482
 30
0.0
 10
41.2309424972
 20
11.1106867036
 30
0.0
 10
41.2338111156
 20
11.1014380091
 30
0.0
 10
41.2360600639
 20
11.096486965
 30
0.0
 10
41.2373458373
 20
11.0947731459
 30
0.0
  0
SPLINE
  5
2AE
100
AcDbEntity
  8
0
100
AcDbSpline
 62
7
  6
CONTINUOUS
 70
0
 71
3
 72
65
 73
61
 74
0
 42
0.0000001
 43
0.0000001
 44
0.0000000001
 40
0.0
 40
0.0
 40
0.0
 40
0.0
 40
0.0001337834
 40
0.0003359689
 40
0.0006092579
 40
0.0009546194
 40
0.0018629229
 40
0.0030621407
 40
0.0045522218
 40
0.0063327276
 40
0.0084031796
 40
0.0107631496
 40
0.0134121669
 40
0.0163497314
 40
0.0230883737
 40
0.0309682525
 40
0.0399640499
 40
0.0500484689
 40
0.0611940305
 40
0.0733728694
 40
0.0865570494
 40
0.1158252662
 40
0.1487526712
 40
0.1850199426
 40
0.2242501175
 40
0.2660851862
 40
0.310143672
 40
0.3560081507
 40
0.4032314062
 40
0.4513654368
 40
0.4999646654
 40
0.5485631391
 40
0.5967013275
 40
0.6439313378
 40
0.6897937463
 40
0.7338484025
 40
0.7756895892
 40
0.8149347111
 40
0.8512028413
 40
0.8841172774
 40
0.9133924314
 40
0.9265870235
 40
0.9387762493
 40
0.9499275312
 40
0.9600115265
 40
0.9690017891
 40
0.9768724131
 40
0.9836070198
 40
0.9865461973
 40
0.989198927
 40
0.99156446
 40
0.9936419765
 40
0.9954301558
 40
0.9969275748
 40
0.9981329826
 40
0.9990455243
 40
0.9993920256
 40
0.9996656766
 40
0.999867383
 40
1.0
 40
1.0
 40
1.0
 40
1.0
 10
25.4915321848
 20
58.3879980664
 30
0.0
 10
25.4927968203
 20
58.3863094727
 30
0.0
 10
25.4949863657
 20
58.3813985298
 30
0.0
 10
25.4977609202
 20
58.3722205153
 30
0.0
 10
25.5005750438
 20
58.3595652366
 30
0.0
 10
25.5047625117
 20
58.3358556997
 30
0.0
 10
25.5097258039
 20
58.2974753711
 30
0.0
 10
25.5153918746
 20
58.2410282875
 30
0.0
 10
25.5210926998
 20
58.1707691547
 30
0.0
 10
25.5268308865
 20
58.0867400668
 30
0.0
 10
25.5325854986
 20
57.9889665822
 30
0.0
 10
25.5383531203
 20
57.8774779341
 30
0.0
 10
25.5441296271
 20
57.7522998261
 30
0.0
 10
25.5522149778
 20
57.5581086317
 30
0.0
 10
25.5621574373
 20
57.2814397087
 30
0.0
 10
25.5736472501
 20
56.9092371116
 30
0.0
 10
25.5851671569
 20
56.4842532397
 30
0.0
 10
25.5967090248
 20
56.0077561373
 30
0.0
 10
25.6082644657
 20
55.4810521138
 30
0.0
 10
25.6198318444
 20
54.9054569163
 30
0.0
 10
25.6358293716
 20
54.0441142503
 30
0.0
 10
25.6555914082
 20
52.8555982004
 30
0.0
 10
25.6785983626
 20
51.3030869477
 30
0.0
 10
25.7016330899
 20
49.5934684217
 30
0.0
 10
25.7247126332
 20
47.7433721104
 30
0.0
 10
25.7478128951
 20
45.7704059243
 30
0.0
 10
25.7709270382
 20
43.6928154721
 30
0.0
 10
25.7940424535
 20
41.5302526183
 30
0.0
 10
25.8171668434
 20
39.303418232
 30
0.0
 10
25.8403001909
 20
37.0334568511
 30
0.0
 10
25.8634362284
 20
34.7418082948
 30
0.0
 10
25.88657163
 20
32.4500941644
 30
0.0
 10
25.9097029053
 20
30.1799725739
 30
0.0
 10
25.9328259965
 20
27.9529987293
 30
0.0
 10
25.9559466629
 20
25.7904224469
 30
0.0
 10
25.9790633093
 20
23.7128285818
 30
0.0
 10
26.0021609675
 20
21.7395905586
 30
0.0
 10
26.0252344456
 20
19.8891484246
 30
0.0
 10
26.0482697785
 20
18.1794851595
 30
0.0
 10
26.0712909972
 20
16.627055703
 30
0.0
 10
26.0910475956
 20
15.4384704935
 30
0.0
 10
26.107039464
 20
14.5766902705
 30
0.0
 10
26.1186049697
 20
14.0006767614
 30
0.0
 10
26.1301605125
 20
13.4737253608
 30
0.0
 10
26.1417037652
 20
12.9972320445
 30
0.0
 10
26.1532232103
 20
12.5724881412
 30
0.0
 10
26.1647197582
 20
12.2005827369
 30
0.0
 10
26.1746650781
 20
11.9240982124
 30
0.0
 10
26.1827473435
 20
11.7298865427
 30
0.0
 10
26.1885239999
 20
11.6045365668
 30
0.0
 10
26.1942915583
 20
11.4927899226
 30
0.0
 10
26.2000448523
 20
11.3946956898
 30
0.0
 10
26.2057808553
 20
11.3103175828
 30
0.0
 10
26.2114788157
 20
11.2397227351
 30
0.0
 10
26.2171419318
 20
11.1829940709
 30
0.0
 10
26.2221022338
 20
11.1444289298
 30
0.0
 10
26.2262906798
 20
11.1206282366
 30
0.0
 10
26.2291032566
 20
11.1079548202
 30
0.0
 10
26.2318761082
 20
11.098799688
 30
0.0
 10
26.2340692565
 20
11.0939137429
 30
0.0
 10
26.2353402385
 20
11.0922530225
 30
0.0
  0
SPLINE
  5
2AF
100
AcDbEntity
  8
0
100
AcDbSpline
 62
7
  6
CONTINUOUS
 70
0
 71
3
 72
65
 73
61
 74
0
 42
0.0000001
 43
0.0000001
 44
0.0000000001
 40
0.0
 40
0.0
 40
0.0
 40
0.0
 40
0.0001281625
 40
0.0003262665
 40
0.0005967481
 40
0.0009403438
 40
0.0018474742
 40
0.003047519
 40
0.0045391607
 40
0.0063208004
 40
0.0083914143
 40
0.0107503513
 40
0.0133969171
 40
0.0163303875
 40
0.0230549114
 40
0.03091279
 40
0.0398865808
 40
0.0499580908
 40
0.0611013588
 40
0.0732822455
 40
0.0864663625
 40
0.1157212308
 40
0.1486247315
 40
0.1848724106
 40
0.2241070166
 40
0.2659370628
 40
0.309983598
 40
0.3558424813
 40
0.4030661667
 40
0.4512038492
 40
0.499802332
 40
0.5484040707
 40
0.5965453496
 40
0.643775566
 40
0.6896530813
 40
0.7337234698
 40
0.7755706582
 40
0.8148165096
 40
0.8510975907
 40
0.8840463114
 40
0.9133298963
 40
0.9265223866
 40
0.9387110564
 40
0.9498668592
 40
0.9599607755
 40
0.9689653086
 40
0.9768545609
 40
0.9836034843
 40
0.9865457084
 40
0.9891992909
 40
0.9915639668
 40
0.9936394944
 40
0.9954256652
 40
0.9969219249
 40
0.9981271818
 40
0.9990406624
 40
0.9993880561
 40
0.999662879
 40
0.9998659969
 40
1.0
 40
1.0
 40
1.0
 40
1.0
 10
32.9855888753
 20
10.0919023952
 30
0.0
 10
32.9843263959
 20
10.0935886004
 30
0.0
 10
32.9821796091
 20
10.0985976184
 30
0.0
 10
32.9794401266
 20
10.1079879222
 30
0.0
 10
32.9766450339
 20
10.121064693
 30
0.0
 10
32.97244912
 20
10.145707944
 30
0.0
 10
32.9674495088
 20
10.1856974465
 30
0.0
 10
32.9617187188
 20
10.2445674111
 30
0.0
 10
32.9559517485
 20
10.3178685325
 30
0.0
 10
32.9501707789
 20
10.4055100894
 30
0.0
 10
32.9443993134
 20
10.5074339965
 30
0.0
 10
32.938632871
 20
10.623593156
 30
0.0
 10
32.932869745
 20
10.7539496657
 30
0.0
 10
32.9248136027
 20
10.9560248059
 30
0.0
 10
32.914897865
 20
11.2437431395
 30
0.0
 10
32.9033996916
 20
11.6307379368
 30
0.0
 10
32.891863458
 20
12.0727632705
 30
0.0
 10
32.8803134033
 20
12.5688023386
 30
0.0
 10
32.8687611596
 20
13.1175653083
 30
0.0
 10
32.857198507
 20
13.717496495
 30
0.0
 10
32.8412065014
 20
14.61507513
 30
0.0
 10
32.8214439976
 20
15.8532318461
 30
0.0
 10
32.7984300267
 20
17.470449926
 30
0.0
 10
32.7753848442
 20
19.2517074438
 30
0.0
 10
32.7523166986
 20
21.1796906992
 30
0.0
 10
32.7292151849
 20
23.2358624791
 30
0.0
 10
32.7060990431
 20
25.4009158166
 30
0.0
 10
32.6829780948
 20
27.6546226505
 30
0.0
 10
32.6598525852
 20
29.9755740951
 30
0.0
 10
32.6367218762
 20
32.3415551527
 30
0.0
 10
32.6135857735
 20
34.7301866221
 30
0.0
 10
32.5904485416
 20
37.1188771913
 30
0.0
 10
32.5673149024
 20
39.4850781973
 30
0.0
 10
32.5441876842
 20
41.8065023314
 30
0.0
 10
32.5210717498
 20
44.0610148819
 30
0.0
 10
32.4979573039
 20
46.2270483186
 30
0.0
 10
32.4748532721
 20
48.2840787474
 30
0.0
 10
32.4517760036
 20
50.213077526
 30
0.0
 10
32.4287343144
 20
51.9958122447
 30
0.0
 10
32.4057325059
 20
53.6147948657
 30
0.0
 10
32.385969495
 20
54.8543045863
 30
0.0
 10
32.3699684117
 20
55.7526207036
 30
0.0
 10
32.3583979132
 20
56.3530233895
 30
0.0
 10
32.3468420374
 20
56.90248863
 30
0.0
 10
32.3353075865
 20
57.3996078864
 30
0.0
 10
32.3237968149
 20
57.8430235226
 30
0.0
 10
32.3123066003
 20
58.2314411868
 30
0.0
 10
32.3023402825
 20
58.5202190749
 30
0.0
 10
32.2942276794
 20
58.7229527156
 30
0.0
 10
32.2884374651
 20
58.8536618718
 30
0.0
 10
32.2826680378
 20
58.970111596
 30
0.0
 10
32.2769292454
 20
59.072287161
 30
0.0
 10
32.2712326377
 20
59.1601656384
 30
0.0
 10
32.2656000646
 20
59.2337135206
 30
0.0
 10
32.2600006339
 20
59.2928634222
 30
0.0
 10
32.2550785872
 20
59.3331163862
 30
0.0
 10
32.2508938877
 20
59.3580045779
 30
0.0
 10
32.2480675224
 20
59.3712937674
 30
0.0
 10
32.2452623435
 20
59.3809305216
 30
0.0
 10
32.2430351625
 20
59.3860940933
 30
0.0
 10
32.241735242
 20
59.3878720082
 30
0.0
  0
SPLINE
  5
2B0
100
AcDbEntity
  8
0
100
AcDbSpline
 62
7
  6
CONTINUOUS
 70
0
 71
3
 72
65
 73
61
 74
0
 42
0.0000001
 43
0.0000001
 44
0.0000000001
 40
0.0
 40
0.0
 40
0.0
 40
0.0
 40
0.0001317067
 40
0.0003327241
 40
0.0006057238
 40
0.0009516272
 40
0.0018633447
 40
0.003068839
 40
0.0045677998
 40
0.0063594929
 40
0.0084425497
 40
0.0108152426
 40
0.0134757978
 40
0.016422416
 40
0.0231665945
 40
0.0310343627
 40
0.0400136719
 40
0.0500921204
 40
0.0612469042
 40
0.0734440264
 40
0.0866489409
 40
0.1159457527
 40
0.1488647838
 40
0.18512143
 40
0.224380649
 40
0.2662372939
 40
0.3102973617
 40
0.3561582433
 40
0.403390749
 40
0.4515366507
 40
0.5001377169
 40
0.548740679
 40
0.5968779371
 40
0.6440970839
 40
0.689960511
 40
0.7340254976
 40
0.7758639922
 40
0.8150801896
 40
0.8513316968
 40
0.88426394
 40
0.9135366166
 40
0.9267143039
 40
0.9388803451
 40
0.9500119352
 40
0.9600864089
 40
0.9690781798
 40
0.9769590424
 40
0.9837015608
 40
0.9866404331
 40
0.9892897587
 40
0.9916486424
 40
0.9937162166
 40
0.995491667
 40
0.996974588
 40
0.9981651946
 40
0.9990641105
 40
0.9994046839
 40
0.9996732171
 40
0.9998707365
 40
1.0
 40
1.0
 40
1.0
 40
1.0
 10
37.4852830942
 20
10.092107514
 30
0.0
 10
37.483990427
 20
10.0938438395
 30
0.0
 10
37.4817812409
 20
10.098939731
 30
0.0
 10
37.4789932661
 20
10.1084727172
 30
0.0
 10
37.4761756136
 20
10.1216735983
 30
0.0
 10
37.4719880257
 20
10.1464757758
 30
0.0
 10
37.4670493814
 20
10.186676657
 30
0.0
 10
37.4614216762
 20
10.2458423086
 30
0.0
 10
37.4557600453
 20
10.3195265712
 30
0.0
 10
37.4500472253
 20
10.4076622489
 30
0.0
 10
37.4443037048
 20
10.5101829659
 30
0.0
 10
37.4385367661
 20
10.6270017436
 30
0.0
 10
37.4327539726
 20
10.7580282889
 30
0.0
 10
37.4246615614
 20
10.9608688047
 30
0.0
 10
37.4147076532
 20
11.2492839079
 30
0.0
 10
37.4032059061
 20
11.6368497545
 30
0.0
 10
37.3916831109
 20
12.079236652
 30
0.0
 10
37.3801435762
 20
12.5756631366
 30
0.0
 10
37.3685897657
 20
13.1249886707
 30
0.0
 10
37.3570212294
 20
13.7257094365
 30
0.0
 10
37.3410270757
 20
14.6245737223
 30
0.0
 10
37.3212806945
 20
15.8639999809
 30
0.0
 10
37.2982581656
 20
17.482287427
 30
0.0
 10
37.2752049877
 20
19.2643271818
 30
0.0
 10
37.2521392715
 20
21.1932726707
 30
0.0
 10
37.2290431909
 20
23.2504799542
 30
0.0
 10
37.2059290302
 20
25.4161955198
 30
0.0
 10
37.1828028282
 20
27.6702710553
 30
0.0
 10
37.159677106
 20
29.9915029797
 30
0.0
 10
37.1365473566
 20
32.3577735164
 30
0.0
 10
37.1134130001
 20
34.7465692885
 30
0.0
 10
37.0902769056
 20
37.1352229747
 30
0.0
 10
37.0671413435
 20
39.5011629751
 30
0.0
 10
37.0440116186
 20
41.8220750544
 30
0.0
 10
37.0208953827
 20
44.0760538044
 30
0.0
 10
36.997784863
 20
46.241593769
 30
0.0
 10
36.9746855839
 20
48.2978764145
 30
0.0
 10
36.9515993945
 20
50.2257317216
 30
0.0
 10
36.9285565087
 20
52.0071971467
 30
0.0
 10
36.9055582513
 20
53.6252209298
 30
0.0
 10
36.8858012139
 20
54.8640199467
 30
0.0
 10
36.8697986299
 20
55.7615288668
 30
0.0
 10
36.8582280225
 20
56.3609098148
 30
0.0
 10
36.8466694325
 20
56.9092776672
 30
0.0
 10
36.8351266692
 20
57.4054622785
 30
0.0
 10
36.8236077087
 20
57.8482040821
 30
0.0
 10
36.8121185197
 20
58.2361631988
 30
0.0
 10
36.8021790959
 20
58.5246395025
 30
0.0
 10
36.7940930935
 20
58.7271408646
 30
0.0
 10
36.7883164774
 20
58.8576283451
 30
0.0
 10
36.7825489519
 20
58.9737803241
 30
0.0
 10
36.7767950173
 20
59.0755509532
 30
0.0
 10
36.7710575683
 20
59.162898415
 30
0.0
 10
36.7653572642
 20
59.2358022531
 30
0.0
 10
36.759690898
 20
59.2942422986
 30
0.0
 10
36.7547262538
 20
59.3338932814
 30
0.0
 10
36.7505315666
 20
59.3583175317
 30
0.0
 10
36.747718249
 20
59.3712957666
 30
0.0
 10
36.744944052
 20
59.3806546332
 30
0.0
 10
36.7427520735
 20
59.3856508731
 30
0.0
 10
36.7414736482
 20
59.3873476947
 30
0.0
  0
SPLINE
  5
2B1
100
AcDbEntity
  8
0
100
AcDbSpline
 62
7
  6
CONTINUOUS
 70
0
 71
3
 72
65
 73
61
 74
0
 42
0.0000001
 43
0.0000001
 44
0.0000000001
 40
0.0
 40
0.0
 40
0.0
 40
0.0
 40
0.0001334476
 40
0.000335284
 40
0.0006084196
 40
0.0009540256
 40
0.0018647917
 40
0.0030697348
 40
0.0045687261
 40
0.0063611657
 40
0.0084462802
 40
0.0108232091
 40
0.0134910307
 40
0.0164480819
 40
0.0232186413
 40
0.0311118762
 40
0.0401048396
 40
0.0501780258
 40
0.0613142731
 40
0.073495702
 40
0.0866941238
 40
0.1159986856
 40
0.1489275916
 40
0.185158125
 40
0.2243702805
 40
0.2662108575
 40
0.3102566279
 40
0.3560869756
 40
0.4032792922
 40
0.451390976
 40
0.4999642327
 40
0.5485360691
 40
0.5966503538
 40
0.6438472168
 40
0.6896761247
 40
0.7337226167
 40
0.7755655345
 40
0.8147878731
 40
0.8510226024
 40
0.8839468689
 40
0.913262232
 40
0.9264664799
 40
0.9386508623
 40
0.9497916816
 40
0.9598684545
 40
0.9688610626
 40
0.9767508836
 40
0.9835197403
 40
0.9864781756
 40
0.9891497381
 40
0.9915323535
 40
0.9936239769
 40
0.9954226128
 40
0.9969263544
 40
0.9981337174
 40
0.999045497
 40
0.9993913836
 40
0.9996646788
 40
0.9998665731
 40
1.0
 40
1.0
 40
1.0
 40
1.0
 10
26.9917556283
 20
58.3874104325
 30
0.0
 10
26.9930201739
 20
58.3857284818
 30
0.0
 10
26.9952107734
 20
58.3808295808
 30
0.0
 10
26.9979846454
 20
58.3716655356
 30
0.0
 10
27.0007977609
 20
58.3590145183
 30
0.0
 10
27.0049861498
 20
58.3352650931
 30
0.0
 10
27.0099463675
 20
58.2967513972
 30
0.0
 10
27.0156061128
 20
58.2400347652
 30
0.0
 10
27.0213015865
 20
58.1693572898
 30
0.0
 10
27.0270351682
 20
58.0847696535
 30
0.0
 10
27.0327858686
 20
57.9863113609
 30
0.0
 10
27.0385500626
 20
57.8740302223
 30
0.0
 10
27.0443224817
 20
57.74798415
 30
0.0
 10
27.0523950248
 20
57.5526911478
 30
0.0
 10
27.0623222954
 20
57.2750095493
 30
0.0
 10
27.0738096544
 20
56.9021503192
 30
0.0
 10
27.0853267567
 20
56.4771923601
 30
0.0
 10
27.0968667129
 20
56.0010805583
 30
0.0
 10
27.1084209735
 20
55.47467802
 30
0.0
 10
27.1199823973
 20
54.8989841165
 30
0.0
 10
27.1359697243
 20
54.0368324898
 30
0.0
 10
27.1557015896
 20
52.8475357387
 30
0.0
 10
27.1786909395
 20
51.2950606755
 30
0.0
 10
27.2017331177
 20
49.5863414603
 30
0.0
 10
27.2248032622
 20
47.7370858958
 30
0.0
 10
27.2478779284
 20
45.7645857093
 30
0.0
 10
27.2709720145
 20
43.6877190408
 30
0.0
 10
27.2940791291
 20
41.5264578066
 30
0.0
 10
27.3171965791
 20
39.3010791635
 30
0.0
 10
27.3403153306
 20
37.0324462753
 30
0.0
 10
27.3634329706
 20
34.7420590949
 30
0.0
 10
27.3865505583
 20
32.451630899
 30
0.0
 10
27.4096687381
 20
30.1829076946
 30
0.0
 10
27.4327839633
 20
27.9574390231
 30
0.0
 10
27.4558948829
 20
25.7961174605
 30
0.0
 10
27.4789880885
 20
23.7192251951
 30
0.0
 10
27.5020627205
 20
21.7465161311
 30
0.0
 10
27.5251304303
 20
19.8969968703
 30
0.0
 10
27.5481702038
 20
18.1881240226
 30
0.0
 10
27.5711714303
 20
16.6354857941
 30
0.0
 10
27.5908956192
 20
15.4459998669
 30
0.0
 10
27.6068790313
 20
14.5835393471
 30
0.0
 10
27.6184435234
 20
14.0076349233
 30
0.0
 10
27.6299973792
 20
13.4810571116
 30
0.0
 10
27.6415363578
 20
13.0048221991
 30
0.0
 10
27.6530534318
 20
12.5798671126
 30
0.0
 10
27.6645438068
 20
12.2070942926
 30
0.0
 10
27.6744733412
 20
11.9294716827
 30
0.0
 10
27.6825454144
 20
11.7341246597
 30
0.0
 10
27.6883179599
 20
11.6079079419
 30
0.0
 10
27.694081277
 20
11.4953751481
 30
0.0
 10
27.6998307045
 20
11.3966262848
 30
0.0
 10
27.7055626904
 20
11.3117626813
 30
0.0
 10
27.7112551269
 20
11.2408734844
 30
0.0
 10
27.7169156827
 20
11.1840272179
 30
0.0
 10
27.7218781317
 20
11.1454546952
 30
0.0
 10
27.7260672346
 20
11.1216821552
 30
0.0
 10
27.7288805057
 20
11.1090230449
 30
0.0
 10
27.7316545145
 20
11.0998559317
 30
0.0
 10
27.7338454586
 20
11.0949562567
 30
0.0
 10
27.7351105058
 20
11.0932750919
 30
0.0
  0
SPLINE
  5
2B2
100
AcDbEntity
  8
0
100
AcDbSpline
 62
7
  6
CONTINUOUS
 70
0
 71
3
 72
65
 73
61
 74
0
 42
0.0000001
 43
0.0000001
 44
0.0000000001
 40
0.0
 40
0.0
 40
0.0
 40
0.0
 40
0.0001292137
 40
0.0003268891
 40
0.0005958077
 40
0.0009370131
 40
0.0018379978
 40
0.0030317903
 40
0.0045190186
 40
0.0062999077
 40
0.0083740876
 40
0.0107407022
 40
0.0133987983
 40
0.0163466974
 40
0.0231024664
 40
0.0309878164
 40
0.0399801645
 40
0.0500566417
 40
0.0611930312
 40
0.0733624654
 40
0.0865376503
 40
0.1157875567
 40
0.1486882331
 40
0.1849295644
 40
0.2241482283
 40
0.265965204
 40
0.309988953
 40
0.3558126533
 40
0.4030088566
 40
0.4511240051
 40
0.4996987427
 40
0.5482763663
 40
0.5963999419
 40
0.6436103027
 40
0.6894536876
 40
0.7335022165
 40
0.7753491596
 40
0.8146023271
 40
0.8508825113
 40
0.8838271027
 40
0.9131249811
 40
0.926325429
 40
0.9385204991
 40
0.9496830391
 40
0.9597859222
 40
0.968804614
 40
0.9767164616
 40
0.9834990865
 40
0.9864606393
 40
0.9891327042
 40
0.991513533
 40
0.9936022615
 40
0.9953981729
 40
0.9969008613
 40
0.9981105561
 40
0.9990279522
 40
0.9993775924
 40
0.9996551323
 40
0.9998616665
 40
1.0
 40
1.0
 40
1.0
 40
1.0
 10
37.493375634
 20
58.3867252437
 30
0.0
 10
37.4945952174
 20
58.3850931388
 30
0.0
 10
37.4966761237
 20
58.3802879465
 30
0.0
 10
37.4992996658
 20
58.3712904183
 30
0.0
 10
37.5019504167
 20
58.3588099654
 30
0.0
 10
37.5058927157
 20
58.3353146981
 30
0.0
 10
37.5105403342
 20
58.2971668589
 30
0.0
 10
37.51584667
 20
58.240937036
 30
0.0
 10
37.5212120042
 20
58.1707822769
 30
0.0
 10
37.5266655805
 20
58.0867213488
 30
0.0
 10
37.5322204503
 20
57.9887744457
 30
0.0
 10
37.5379096397
 20
57.8769837164
 30
0.0
 10
37.5437716029
 20
57.7514083252
 30
0.0
 10
37.5521887105
 20
57.5566699735
 30
0.0
 10
37.5627818671
 20
57.2795275086
 30
0.0
 10
37.5750461519
 20
56.9070764528
 30
0.0
 10
37.5872380942
 20
56.4822378075
 30
0.0
 10
37.599168845
 20
56.0061116274
 30
0.0
 10
37.6107214179
 20
55.4798668342
 30
0.0
 10
37.6219487597
 20
54.9047447562
 30
0.0
 10
37.6370763649
 20
54.0440327113
 30
0.0
 10
37.6551905918
 20
52.8564360012
 30
0.0
 10
37.677983205
 20
51.3051635967
 30
0.0
 10
37.7028192193
 20
49.5967166768
 30
0.0
 10
37.7270827482
 20
47.7476560732
 30
0.0
 10
37.7499963979
 20
45.7758566342
 30
0.0
 10
37.7716209726
 20
43.6998891514
 30
0.0
 10
37.7931430757
 20
41.5390969127
 30
0.0
 10
37.8171268283
 20
39.3138135926
 30
0.0
 10
37.8420290488
 20
37.045159625
 30
0.0
 10
37.8658994604
 20
34.754710992
 30
0.0
 10
37.8882862373
 20
32.4641145391
 30
0.0
 10
37.909609123
 20
30.1950225344
 30
0.0
 10
37.9318426274
 20
27.9690541197
 30
0.0
 10
37.9565643614
 20
25.8073713282
 30
0.0
 10
37.9811405772
 20
23.7302632763
 30
0.0
 10
38.0044280861
 20
21.7570614123
 30
0.0
 10
38.0262984242
 20
19.9063425315
 30
0.0
 10
38.0474796517
 20
18.1959967222
 30
0.0
 10
38.0706419732
 20
16.64266536
 30
0.0
 10
38.0919729044
 20
15.4532739931
 30
0.0
 10
38.1088117518
 20
14.5910348283
 30
0.0
 10
38.1206933839
 20
14.0147110133
 30
0.0
 10
38.132241826
 20
13.4872334044
 30
0.0
 10
38.1433992904
 20
13.0098447548
 30
0.0
 10
38.1542482545
 20
12.5837202484
 30
0.0
 10
38.1649769715
 20
12.2099652439
 30
0.0
 10
38.1742810987
 20
11.9317189873
 30
0.0
 10
38.1820360182
 20
11.7360930986
 30
0.0
 10
38.1877230899
 20
11.6098487908
 30
0.0
 10
38.1935754001
 20
11.497391118
 30
0.0
 10
38.1995413398
 20
11.3987760275
 30
0.0
 10
38.2055777081
 20
11.314042271
 30
0.0
 10
38.2116258398
 20
11.2432080905
 30
0.0
 10
38.2176620389
 20
11.1862928511
 30
0.0
 10
38.222952623
 20
11.1475789864
 30
0.0
 10
38.2273956929
 20
11.1236341634
 30
0.0
 10
38.2303785368
 20
11.1108111263
 30
0.0
 10
38.2333091729
 20
11.1014614729
 30
0.0
 10
38.2356093968
 20
11.0964509459
 30
0.0
 10
38.236918333
 20
11.0947061003
 30
0.0
  0
SPLINE
  5
2B3
100
AcDbEntity
  8
0
100
AcDbSpline
 62
7
  6
CONTINUOUS
 70
0
 71
3
 72
66
 73
62
 74
0
 42
0.0000001
 43
0.0000001
 44
0.0000000001
 40
0.0
 40
0.0
 40
0.0
 40
0.0
 40
0.0001262361
 40
0.0003212974
 40
0.000587924
 40
0.0009270811
 40
0.0018243961
 40
0.0030146519
 40
0.0044980335
 40
0.0062743016
 40
0.008342363
 40
0.0107006214
 40
0.0133474393
 40
0.016281159
 40
0.0230025756
 40
0.0308503299
 40
0.0398085212
 40
0.0498609395
 40
0.0609858196
 40
0.0731556776
 40
0.0863424567
 40
0.1005129399
 40
0.1156295096
 40
0.1485481461
 40
0.1847825274
 40
0.2240013472
 40
0.2658499014
 40
0.3099261154
 40
0.3558022309
 40
0.4030385835
 40
0.4511916998
 40
0.4998091351
 40
0.5965873992
 40
0.6438304362
 40
0.6897161102
 40
0.7338107215
 40
0.775684356
 40
0.8149275856
 40
0.8511829726
 40
0.8841217663
 40
0.8992501237
 40
0.9134352286
 40
0.9266407662
 40
0.9388329463
 40
0.949980856
 40
0.9600540984
 40
0.969029928
 40
0.9768928999
 40
0.9836280395
 40
0.9865683963
 40
0.9892218927
 40
0.9915870276
 40
0.9936623375
 40
0.9954464279
 40
0.9969384151
 40
0.9981382565
 40
0.9990463633
 40
0.9993914655
 40
0.9996644645
 40
0.9998663886
 40
1.0
 40
1.0
 40
1.0
 40
1.0
 10
40.4854693933
 20
10.0925518232
 30
0.0
 10
40.4842254052
 20
10.0942122777
 30
0.0
 10
40.4821337315
 20
10.099158744
 30
0.0
 10
40.4795116196
 20
10.1084310512
 30
0.0
 10
40.4768751253
 20
10.1213508219
 30
0.0
 10
40.472961655
 20
10.145738407
 30
0.0
 10
40.4683705014
 20
10.1853778437
 30
0.0
 10
40.4631300053
 20
10.2438319582
 30
0.0
 10
40.4578231077
 20
10.3167800322
 30
0.0
 10
40.452400308
 20
10.4041760039
 30
0.0
 10
40.4468698513
 20
10.5059696976
 30
0.0
 10
40.4412342564
 20
10.6220841595
 30
0.0
 10
40.4354943335
 20
10.7524365191
 30
0.0
 10
40.427329161
 20
10.9544610049
 30
0.0
 10
40.4169927867
 20
11.241945834
 30
0.0
 10
40.4047353086
 20
11.6284369892
 30
0.0
 10
40.3924131284
 20
12.069697349
 30
0.0
 10
40.3802884069
 20
12.5648424279
 30
0.0
 10
40.3685045443
 20
13.1127944861
 30
0.0
 10
40.3570632258
 20
13.7122787867
 30
0.0
 10
40.346042034
 20
14.3618347313
 30
0.0
 10
40.3352822829
 20
15.0598317896
 30
0.0
 10
40.3204685617
 20
16.0821078126
 30
0.0
 10
40.301198092
 20
17.466988912
 30
0.0
 10
40.2769633728
 20
19.2479722575
 30
0.0
 10
40.2519463348
 20
21.1757266861
 30
0.0
 10
40.2288685651
 20
23.2323990097
 30
0.0
 10
40.2071492325
 20
25.3985072821
 30
0.0
 10
40.1855675
 20
27.6531723014
 30
0.0
 10
40.1622776667
 20
29.9748299575
 30
0.0
 10
40.1375393407
 20
32.3415299765
 30
0.0
 10
40.1045568262
 20
35.5224362258
 30
0.0
 10
40.0766937785
 20
38.6884336829
 30
0.0
 10
40.046860195
 20
41.8095125788
 30
0.0
 10
40.0229195043
 20
44.0647236016
 30
0.0
 10
39.9980467307
 20
46.2316696075
 30
0.0
 10
39.9739394012
 20
48.2894450383
 30
0.0
 10
39.9524586936
 20
50.2184003096
 30
0.0
 10
39.9309657505
 20
52.0004971756
 30
0.0
 10
39.9115121173
 20
53.386247655
 30
0.0
 10
39.8948852576
 20
54.4092615252
 30
0.0
 10
39.8825815349
 20
55.1079755901
 30
0.0
 10
39.870257725
 20
55.7584235942
 30
0.0
 10
39.8580986948
 20
56.3589473343
 30
0.0
 10
39.8462629931
 20
56.9079856508
 30
0.0
 10
39.8349734925
 20
57.4041606498
 30
0.0
 10
39.8241770905
 20
57.8463429088
 30
0.0
 10
39.813551654
 20
58.2336480459
 30
0.0
 10
39.8042240496
 20
58.521753374
 30
0.0
 10
39.7964444499
 20
58.7242380809
 30
0.0
 10
39.7907952835
 20
58.8549268553
 30
0.0
 10
39.7850589627
 20
58.9713791122
 30
0.0
 10
39.7792346543
 20
59.0735183048
 30
0.0
 10
39.7733163425
 20
59.1612731287
 30
0.0
 10
39.7673281566
 20
59.2345987081
 30
0.0
 10
39.7613096181
 20
59.2934585236
 30
0.0
 10
39.7560078293
 20
59.3334475305
 30
0.0
 10
39.7515375942
 20
59.358127721
 30
0.0
 10
39.7485397986
 20
59.3712897424
 30
0.0
 10
39.7455949687
 20
59.3808271165
 30
0.0
 10
39.7432805975
 20
59.3859236869
 30
0.0
 10
39.7419512324
 20
59.3876715674
 30
0.0
  0
SPLINE
  5
2B4
100
AcDbEntity
  8
0
100
AcDbSpline
 62
7
  6
CONTINUOUS
 70
0
 71
3
 72
66
 73
62
 74
0
 42
0.0000001
 43
0.0000001
 44
0.0000000001
 40
0.0
 40
0.0
 40
0.0
 40
0.0
 40
0.0001319519
 40
0.0003318133
 40
0.0006025533
 40
0.0009453838
 40
0.0018496211
 40
0.0030476485
 40
0.0045412677
 40
0.0063316915
 40
0.0084177529
 40
0.0107967968
 40
0.0134661035
 40
0.0164229285
 40
0.0231881372
 40
0.0310728822
 40
0.0400609644
 40
0.0501362497
 40
0.0612788662
 40
0.0734646042
 40
0.0866686405
 40
0.1159914893
 40
0.1489285353
 40
0.1851775566
 40
0.2244198009
 40
0.2662841052
 40
0.3103541892
 40
0.3562091207
 40
0.4034331077
 40
0.4515746241
 40
0.5001737807
 40
0.5487720174
 40
0.5969072389
 40
0.644120855
 40
0.6899669303
 40
0.7340270488
 40
0.7758732463
 40
0.8150880974
 40
0.8513164054
 40
0.8842362116
 40
0.8993578222
 40
0.9135322533
 40
0.9267181617
 40
0.9388840707
 40
0.950008238
 40
0.9600693895
 40
0.9690469806
 40
0.9769210876
 40
0.9836718577
 40
0.9866198213
 40
0.989279564
 40
0.9916486544
 40
0.993724691
 40
0.9955053493
 40
0.9969896796
 40
0.9981787102
 40
0.9990739759
 40
0.9994122295
 40
0.9996782631
 40
0.9998732188
 40
1.0
 40
1.0
 40
1.0
 40
1.0
 10
34.4851386992
 20
10.0934205573
 30
0.0
 10
34.4838401953
 20
10.0951574928
 30
0.0
 10
34.4816066441
 20
10.1002240098
 30
0.0
 10
34.4788002233
 20
10.1096995645
 30
0.0
 10
34.4759735268
 20
10.1227883299
 30
0.0
 10
34.4717875032
 20
10.1473773182
 30
0.0
 10
34.4668694121
 20
10.1872815376
 30
0.0
 10
34.4612799076
 20
10.2461146336
 30
0.0
 10
34.4556577452
 20
10.3195681674
 30
0.0
 10
34.4499729178
 20
10.4076441986
 30
0.0
 10
34.4442423412
 20
10.5102963636
 30
0.0
 10
34.438476924
 20
10.6274104665
 30
0.0
 10
34.4326880336
 20
10.7588500812
 30
0.0
 10
34.4245827086
 20
10.96234314
 30
0.0
 10
34.4146180339
 20
11.2515441034
 30
0.0
 10
34.4031201942
 20
11.6398703102
 30
0.0
 10
34.3916075753
 20
12.0826186006
 30
0.0
 10
34.3800722804
 20
12.5789259266
 30
0.0
 10
34.3685141832
 20
13.1277995514
 30
0.0
 10
34.3569404109
 20
13.7281048018
 30
0.0
 10
34.3409410325
 20
14.6271747225
 30
0.0
 10
34.3212113551
 20
15.8672823679
 30
0.0
 10
34.2981989635
 20
17.4861314115
 30
0.0
 10
34.2751455482
 20
19.2680218819
 30
0.0
 10
34.2520680478
 20
21.1966443697
 30
0.0
 10
34.2289810089
 20
23.2538159003
 30
0.0
 10
34.2058761233
 20
25.4196744064
 30
0.0
 10
34.1827534486
 20
27.6736248802
 30
0.0
 10
34.1596259008
 20
29.9944934384
 30
0.0
 10
34.1364955993
 20
32.3604659958
 30
0.0
 10
34.1133660021
 20
34.7490256686
 30
0.0
 10
34.0902361713
 20
37.1374818782
 30
0.0
 10
34.0671046363
 20
39.5031653866
 30
0.0
 10
34.0439761396
 20
41.8236144569
 30
0.0
 10
34.02085554
 20
44.0770851395
 30
0.0
 10
33.9977518952
 20
46.2423366989
 30
0.0
 10
33.9746642896
 20
48.2985965757
 30
0.0
 10
33.9515823633
 20
50.226130726
 30
0.0
 10
33.9285292739
 20
52.0069470602
 30
0.0
 10
33.9088419869
 20
53.3917961224
 30
0.0
 10
33.8929426958
 20
54.4142015324
 30
0.0
 10
33.881364748
 20
55.1123043265
 30
0.0
 10
33.8697909664
 20
55.761822564
 30
0.0
 10
33.8582211633
 20
56.3612006717
 30
0.0
 10
33.8466622138
 20
56.9092126925
 30
0.0
 10
33.8351154238
 20
57.4048116335
 30
0.0
 10
33.823590251
 20
57.8469798521
 30
0.0
 10
33.8120955341
 20
58.2347212882
 30
0.0
 10
33.8021700029
 20
58.5233654495
 30
0.0
 10
33.794100919
 20
58.7263194057
 30
0.0
 10
33.7883304929
 20
58.8572929955
 30
0.0
 10
33.7825653598
 20
58.9739210332
 30
0.0
 10
33.7768087116
 20
59.0760822405
 30
0.0
 10
33.7710595266
 20
59.1636753156
 30
0.0
 10
33.7653378844
 20
59.2366590955
 30
0.0
 10
33.759652136
 20
59.2950327259
 30
0.0
 10
33.7546775958
 20
59.3345570968
 30
0.0
 10
33.750483778
 20
59.3588391455
 30
0.0
 10
33.7476807963
 20
59.3716961621
 30
0.0
 10
33.7449243047
 20
59.3809286511
 30
0.0
 10
33.7427490834
 20
59.3858449412
 30
0.0
 10
33.7414783451
 20
59.3874962785
 30
0.0
  0
SPLINE
  5
2B5
100
AcDbEntity
  8
0
100
AcDbSpline
 62
7
  6
CONTINUOUS
 70
0
 71
3
 72
65
 73
61
 74
0
 42
0.0000001
 43
0.0000001
 44
0.0000000001
 40
0.0
 40
0.0
 40
0.0
 40
0.0
 40
0.0001337834
 40
0.0003359689
 40
0.0006092579
 40
0.0009546194
 40
0.0018629229
 40
0.0030621407
 40
0.0045522218
 40
0.0063327276
 40
0.0084031796
 40
0.0107631496
 40
0.0134121669
 40
0.0163497314
 40
0.0230883737
 40
0.0309682525
 40
0.0399640499
 40
0.0500484689
 40
0.0611940305
 40
0.0733728694
 40
0.0865570494
 40
0.1158252662
 40
0.1487526712
 40
0.1850199426
 40
0.2242501175
 40
0.2660851862
 40
0.310143672
 40
0.3560081507
 40
0.4032314062
 40
0.4513654368
 40
0.4999646654
 40
0.5485631391
 40
0.5967013275
 40
0.6439313378
 40
0.6897937463
 40
0.7338484025
 40
0.7756895892
 40
0.8149347111
 40
0.8512028413
 40
0.8841172774
 40
0.9133924314
 40
0.9265870235
 40
0.9387762493
 40
0.9499275312
 40
0.9600115265
 40
0.9690017891
 40
0.9768724131
 40
0.9836070198
 40
0.9865461973
 40
0.989198927
 40
0.99156446
 40
0.9936419765
 40
0.9954301558
 40
0.9969275748
 40
0.9981329826
 40
0.9990455243
 40
0.9993920256
 40
0.9996656766
 40
0.999867383
 40
1.0
 40
1.0
 40
1.0
 40
1.0
 10
31.4915321848
 20
58.3879980664
 30
0.0
 10
31.4927968203
 20
58.3863094727
 30
0.0
 10
31.4949863657
 20
58.3813985298
 30
0.0
 10
31.4977609202
 20
58.3722205153
 30
0.0
 10
31.5005750438
 20
58.3595652366
 30
0.0
 10
31.5047625117
 20
58.3358556997
 30
0.0
 10
31.5097258039
 20
58.2974753711
 30
0.0
 10
31.5153918746
 20
58.2410282875
 30
0.0
 10
31.5210926998
 20
58.1707691547
 30
0.0
 10
31.5268308865
 20
58.0867400668
 30
0.0
 10
31.5325854986
 20
57.9889665822
 30
0.0
 10
31.5383531203
 20
57.8774779341
 30
0.0
 10
31.5441296271
 20
57.7522998261
 30
0.0
 10
31.5522149778
 20
57.5581086317
 30
0.0
 10
31.5621574373
 20
57.2814397087
 30
0.0
 10
31.5736472501
 20
56.9092371116
 30
0.0
 10
31.5851671569
 20
56.4842532397
 30
0.0
 10
31.5967090248
 20
56.0077561373
 30
0.0
 10
31.6082644657
 20
55.4810521138
 30
0.0
 10
31.6198318444
 20
54.9054569163
 30
0.0
 10
31.6358293716
 20
54.0441142503
 30
0.0
 10
31.6555914082
 20
52.8555982004
 30
0.0
 10
31.6785983626
 20
51.3030869477
 30
0.0
 10
31.7016330899
 20
49.5934684217
 30
0.0
 10
31.7247126333
 20
47.7433721104
 30
0.0
 10
31.7478128951
 20
45.7704059243
 30
0.0
 10
31.7709270382
 20
43.6928154721
 30
0.0
 10
31.7940424535
 20
41.5302526183
 30
0.0
 10
31.8171668434
 20
39.303418232
 30
0.0
 10
31.8403001909
 20
37.0334568511
 30
0.0
 10
31.8634362284
 20
34.7418082948
 30
0.0
 10
31.88657163
 20
32.4500941644
 30
0.0
 10
31.9097029053
 20
30.1799725739
 30
0.0
 10
31.9328259965
 20
27.9529987293
 30
0.0
 10
31.9559466629
 20
25.7904224469
 30
0.0
 10
31.9790633093
 20
23.7128285819
 30
0.0
 10
32.0021609675
 20
21.7395905586
 30
0.0
 10
32.0252344457
 20
19.8891484246
 30
0.0
 10
32.0482697785
 20
18.1794851595
 30
0.0
 10
32.0712909972
 20
16.627055703
 30
0.0
 10
32.0910475956
 20
15.4384704935
 30
0.0
 10
32.107039464
 20
14.5766902705
 30
0.0
 10
32.1186049697
 20
14.0006767614
 30
0.0
 10
32.1301605125
 20
13.4737253608
 30
0.0
 10
32.1417037652
 20
12.9972320445
 30
0.0
 10
32.1532232103
 20
12.5724881412
 30
0.0
 10
32.1647197582
 20
12.2005827369
 30
0.0
 10
32.1746650781
 20
11.9240982124
 30
0.0
 10
32.1827473436
 20
11.7298865427
 30
0.0
 10
32.1885239999
 20
11.6045365668
 30
0.0
 10
32.1942915583
 20
11.4927899226
 30
0.0
 10
32.2000448523
 20
11.3946956898
 30
0.0
 10
32.2057808554
 20
11.3103175828
 30
0.0
 10
32.2114788157
 20
11.2397227351
 30
0.0
 10
32.2171419318
 20
11.1829940709
 30
0.0
 10
32.2221022338
 20
11.1444289298
 30
0.0
 10
32.2262906798
 20
11.1206282366
 30
0.0
 10
32.2291032566
 20
11.1079548202
 30
0.0
 10
32.2318761082
 20
11.098799688
 30
0.0
 10
32.2340692565
 20
11.0939137429
 30
0.0
 10
32.2353402385
 20
11.0922530225
 30
0.0
  0
SPLINE
  5
2B6
100
AcDbEntity
  8
0
100
AcDbSpline
 62
7
  6
CONTINUOUS
 70
0
 71
3
 72
65
 73
61
 74
0
 42
0.0000001
 43
0.0000001
 44
0.0000000001
 40
0.0
 40
0.0
 40
0.0
 40
0.0
 40
0.0001342007
 40
0.0003377213
 40
0.0006132022
 40
0.0009615265
 40
0.0018777097
 40
0.0030868126
 40
0.0045880678
 40
0.006380323
 40
0.0084623901
 40
0.0108331214
 40
0.0134913258
 40
0.0164357833
 40
0.0231784672
 40
0.0310493596
 40
0.0400331412
 40
0.0501140046
 40
0.0612698466
 40
0.0734662208
 40
0.0866672396
 40
0.1159499566
 40
0.1488670769
 40
0.1851237821
 40
0.2243724227
 40
0.26621702
 40
0.3102661117
 40
0.3561247739
 40
0.4033484178
 40
0.4514839314
 40
0.5000782264
 40
0.5486704383
 40
0.5968008159
 40
0.6440156678
 40
0.6898741806
 40
0.7339348536
 40
0.7757624156
 40
0.8149840899
 40
0.8512412102
 40
0.8841716649
 40
0.9134465965
 40
0.9266254188
 40
0.9387982089
 40
0.9499408781
 40
0.9600256852
 40
0.9690226465
 40
0.9769026127
 40
0.9836463719
 40
0.9865882203
 40
0.989241311
 40
0.9916041199
 40
0.9936755901
 40
0.9954555313
 40
0.99694393
 40
0.9981409453
 40
0.9990471308
 40
0.9993916545
 40
0.9996643529
 40
0.9998662363
 40
1.0
 40
1.0
 40
1.0
 40
1.0
 10
28.4916212907
 20
58.3889531157
 30
0.0
 10
28.4928908519
 20
58.387259996
 30
0.0
 10
28.4950806463
 20
58.3823167227
 30
0.0
 10
28.4978546549
 20
58.3730749606
 30
0.0
 10
28.5006678981
 20
58.3603141046
 30
0.0
 10
28.5048550067
 20
58.3363962284
 30
0.0
 10
28.509815789
 20
58.2976860272
 30
0.0
 10
28.5154794099
 20
58.2407803727
 30
0.0
 10
28.5211775938
 20
58.1700021659
 30
0.0
 10
28.5269135083
 20
58.0854272682
 30
0.0
 10
28.5326662413
 20
57.9871148744
 30
0.0
 10
28.5384322782
 20
57.8751280446
 30
0.0
 10
28.5442074482
 20
57.749526482
 30
0.0
 10
28.5522860416
 20
57.5550179238
 30
0.0
 10
28.5622253913
 20
57.2783188913
 30
0.0
 10
28.5737230256
 20
56.9063850417
 30
0.0
 10
28.5852480811
 20
56.481789747
 30
0.0
 10
28.5967908811
 20
56.0053772864
 30
0.0
 10
28.6083413133
 20
55.4782917909
 30
0.0
 10
28.6199047239
 20
54.901993625
 30
0.0
 10
28.6358934277
 20
54.0398820803
 30
0.0
 10
28.6556461981
 20
52.8510367699
 30
0.0
 10
28.6786594733
 20
51.2986296045
 30
0.0
 10
28.7017056441
 20
49.5890530549
 30
0.0
 10
28.724768999
 20
47.738686247
 30
0.0
 10
28.7478623866
 20
45.7654315165
 30
0.0
 10
28.7709767939
 20
43.6879357936
 30
0.0
 10
28.7940947137
 20
41.5256120431
 30
0.0
 10
28.8172183827
 20
39.2988453509
 30
0.0
 10
28.840345019
 20
37.0289377851
 30
0.0
 10
28.8634764007
 20
34.7374479939
 30
0.0
 10
28.8866102599
 20
32.4460392212
 30
0.0
 10
28.9097417447
 20
30.176384199
 30
0.0
 10
28.9328651503
 20
27.9498395053
 30
0.0
 10
28.9559802798
 20
25.7874740958
 30
0.0
 10
28.9790841553
 20
23.7100666214
 30
0.0
 10
29.0021858673
 20
21.7373232591
 30
0.0
 10
29.0252628387
 20
19.8876440035
 30
0.0
 10
29.0482980022
 20
18.1782757495
 30
0.0
 10
29.0713014218
 20
16.6257743804
 30
0.0
 10
29.0910508077
 20
15.437191539
 30
0.0
 10
29.1070531935
 20
14.5759250785
 30
0.0
 10
29.1186216567
 20
14.0005568492
 30
0.0
 10
29.1301760835
 20
13.4739890121
 30
0.0
 10
29.1417143751
 20
12.9975141452
 30
0.0
 10
29.1532290224
 20
12.5725053136
 30
0.0
 10
29.1647230764
 20
12.2002032914
 30
0.0
 10
29.1746650544
 20
11.9233853447
 30
0.0
 10
29.1827474838
 20
11.7289818519
 30
0.0
 10
29.1885228891
 20
11.603627262
 30
0.0
 10
29.1942888719
 20
11.4920135771
 30
0.0
 10
29.2000420716
 20
11.3941882326
 30
0.0
 10
29.2057782124
 20
11.3101786213
 30
0.0
 10
29.2114767606
 20
11.2399898553
 30
0.0
 10
29.2171408678
 20
11.1836377975
 30
0.0
 10
29.2221037245
 20
11.1453395235
 30
0.0
 10
29.2262912771
 20
11.121686728
 30
0.0
 10
29.2291060746
 20
11.1090597844
 30
0.0
 10
29.2318816166
 20
11.0998966933
 30
0.0
 10
29.2340720507
 20
11.0949924091
 30
0.0
 10
29.2353358659
 20
11.0933035941
 30
0.0
  0
SPLINE
  5
2B7
100
AcDbEntity
  8
0
100
AcDbSpline
 62
7
  6
CONTINUOUS
 70
0
 71
3
 72
66
 73
62
 74
0
 42
0.0000001
 43
0.0000001
 44
0.0000000001
 40
0.0
 40
0.0
 40
0.0
 40
0.0
 40
0.0001397164
 40
0.0003477294
 40
0.0006268738
 40
0.0009782185
 40
0.0018991325
 40
0.003112026
 40
0.0046167028
 40
0.0064124764
 40
0.0084984432
 40
0.0108735478
 40
0.0135366688
 40
0.0164865143
 40
0.0232397164
 40
0.0311192638
 40
0.040110314
 40
0.0501956897
 40
0.0613542358
 40
0.0735575779
 40
0.0867728833
 40
0.1160990954
 40
0.1490448178
 40
0.1853023387
 40
0.2245422218
 40
0.2664066168
 40
0.3104880478
 40
0.3563575338
 40
0.4035814021
 40
0.4517175961
 40
0.5003137159
 40
0.5489064605
 40
0.5970340794
 40
0.6442453274
 40
0.6900967842
 40
0.7341509293
 40
0.7759765352
 40
0.8151773885
 40
0.8513982474
 40
0.8843055358
 40
0.8994180748
 40
0.913585835
 40
0.9267729427
 40
0.9389444426
 40
0.950068088
 40
0.9601211129
 40
0.9690835159
 40
0.9769363922
 40
0.983664208
 40
0.986601667
 40
0.989252412
 40
0.9916147374
 40
0.9936873845
 40
0.995469264
 40
0.9969593668
 40
0.9981568474
 40
0.999061221
 40
0.9994036424
 40
0.999673305
 40
0.9998711752
 40
1.0
 40
1.0
 40
1.0
 40
1.0
 10
38.9922234587
 20
58.387509489
 30
0.0
 10
38.9935538988
 20
58.3857533804
 30
0.0
 10
38.9958926623
 20
58.380708649
 30
0.0
 10
38.9988591888
 20
58.3712955878
 30
0.0
 10
39.0018651584
 20
58.3583992227
 30
0.0
 10
39.0063184179
 20
58.3343450951
 30
0.0
 10
39.0115753244
 20
58.2954895151
 30
0.0
 10
39.0175180758
 20
58.2384229305
 30
0.0
 10
39.0234327596
 20
58.1674932316
 30
0.0
 10
39.0293100736
 20
58.0827576241
 30
0.0
 10
39.0351203673
 20
57.984263608
 30
0.0
 10
39.0408573819
 20
57.8720685703
 30
0.0
 10
39.0465122395
 20
57.7462316367
 30
0.0
 10
39.0542938337
 20
57.5513852205
 30
0.0
 10
39.063674659
 20
57.2742831899
 30
0.0
 10
39.0744142013
 20
56.9019153874
 30
0.0
 10
39.0851910651
 20
56.4769848359
 30
0.0
 10
39.0963240311
 20
56.0003418775
 30
0.0
 10
39.1081676391
 20
55.4730475363
 30
0.0
 10
39.1203838704
 20
54.8963938785
 30
0.0
 10
39.1374778788
 20
54.0332955402
 30
0.0
 10
39.1582640497
 20
52.843122779
 30
0.0
 10
39.181012216
 20
51.2895845957
 30
0.0
 10
39.2025151659
 20
49.5796881448
 30
0.0
 10
39.2240810514
 20
47.7291449296
 30
0.0
 10
39.2481113593
 20
45.755247678
 30
0.0
 10
39.2729732715
 20
43.6768110881
 30
0.0
 10
39.296802831
 20
41.5138436623
 30
0.0
 10
39.3191286785
 20
39.2869177776
 30
0.0
 10
39.3404596525
 20
37.0169844634
 30
0.0
 10
39.3628002556
 20
34.7254737778
 30
0.0
 10
39.3876040688
 20
32.4341237452
 30
0.0
 10
39.4121788031
 20
30.1646107052
 30
0.0
 10
39.4354397865
 20
27.9383131311
 30
0.0
 10
39.4572927869
 20
25.7762389554
 30
0.0
 10
39.478584377
 20
23.699088815
 30
0.0
 10
39.5019901352
 20
21.7268404902
 30
0.0
 10
39.5269077352
 20
19.8781443796
 30
0.0
 10
39.5509986305
 20
18.1700828866
 30
0.0
 10
39.5702906186
 20
16.8418381635
 30
0.0
 10
39.5852814206
 20
15.8613215749
 30
0.0
 10
39.5960523544
 20
15.1917429138
 30
0.0
 10
39.6069344284
 20
14.5685494984
 30
0.0
 10
39.6181848553
 20
13.9933730915
 30
0.0
 10
39.6300843245
 20
13.4676421961
 30
0.0
 10
39.6423427858
 20
12.9925388606
 30
0.0
 10
39.6546707684
 20
12.5690332493
 30
0.0
 10
39.6668075336
 20
12.1979816667
 30
0.0
 10
39.6770806572
 20
11.9219288857
 30
0.0
 10
39.6852433958
 20
11.7278898092
 30
0.0
 10
39.6909874785
 20
11.6026498141
 30
0.0
 10
39.6966230766
 20
11.4910574923
 30
0.0
 10
39.7021617533
 20
11.3931799767
 30
0.0
 10
39.7076185692
 20
11.309077267
 30
0.0
 10
39.7129913169
 20
11.2387993735
 30
0.0
 10
39.7182990673
 20
11.1824087481
 30
0.0
 10
39.7229319058
 20
11.1441253192
 30
0.0
 10
39.726845595
 20
11.1205389039
 30
0.0
 10
39.7294726601
 20
11.1080172363
 30
0.0
 10
39.7320737169
 20
11.0990054282
 30
0.0
 10
39.7341409097
 20
11.0941943691
 30
0.0
 10
39.7353599925
 20
11.0925693962
 30
0.0
  0
SPLINE
  5
2B8
100
AcDbEntity
  8
0
100
AcDbSpline
 62
7
  6
CONTINUOUS
 70
0
 71
3
 72
15
 73
11
 74
0
 42
0.0000001
 43
0.0000001
 44
0.0000000001
 40
0.0
 40
0.0
 40
0.0
 40
0.0
 40
0.1280656902
 40
0.2558040912
 40
0.3825951583
 40
0.5082872164
 40
0.6327519474
 40
0.7560186054
 40
0.8782910529
 40
1.0
 40
1.0
 40
1.0
 40
1.0
 10
9.9879983079
 20
6.0277760659
 30
0.0
 10
9.8988571719
 20
6.0277760659
 30
0.0
 10
9.7204310851
 20
6.0431690751
 30
0.0
 10
9.4616875253
 20
6.1113184512
 30
0.0
 10
9.2199849608
 20
6.2224083939
 30
0.0
 10
9.0031107461
 20
6.3724571591
 30
0.0
 10
8.8176370604
 20
6.5564918104
 30
0.0
 10
8.6690183882
 20
6.7685304724
 30
0.0
 10
8.5615213952
 20
7.0019196098
 30
0.0
 10
8.5192253995
 20
7.1675327452
 30
0.0
 10
8.5057792628
 20
7.251175333
 30
0.0
  0
SPLINE
  5
2B9
100
AcDbEntity
  8
0
100
AcDbSpline
 62
7
  6
CONTINUOUS
 70
0
 71
3
 72
65
 73
61
 74
0
 42
0.0000001
 43
0.0000001
 44
0.0000000001
 40
0.0
 40
0.0
 40
0.0
 40
0.0
 40
0.0001334381
 40
0.0003355875
 40
0.0006091453
 40
0.0009551244
 40
0.0018659566
 40
0.0030699028
 40
0.0045675089
 40
0.0063588775
 40
0.008443211
 40
0.0108191535
 40
0.0134852781
 40
0.0164401197
 40
0.0232098501
 40
0.0311114509
 40
0.0401216885
 40
0.0502167653
 40
0.0613714456
 40
0.0735589232
 40
0.0867522073
 40
0.1160384265
 40
0.1489768853
 40
0.1852501259
 40
0.2244997275
 40
0.2663454569
 40
0.3103949812
 40
0.356241276
 40
0.4034575585
 40
0.5001747465
 40
0.5487591003
 40
0.596885377
 40
0.6440935037
 40
0.6899285267
 40
0.7339637152
 40
0.7757922472
 40
0.8150220249
 40
0.851272934
 40
0.884186049
 40
0.8992883788
 40
0.913444174
 40
0.9266227306
 40
0.9387952908
 40
0.9499349855
 40
0.9600151412
 40
0.9690105937
 40
0.9768973882
 40
0.9836520889
 40
0.9865993073
 40
0.9892576787
 40
0.9916256729
 40
0.9937017777
 40
0.9954845221
 40
0.9969730277
 40
0.9981673357
 40
0.9990679043
 40
0.9994084699
 40
0.9996763983
 40
0.9998726714
 40
1.0
 40
1.0
 40
1.0
 40
1.0
 10
38.9871989759
 20
10.0946353155
 30
0.0
 10
38.9858813805
 20
10.0963883515
 30
0.0
 10
38.9835885708
 20
10.1014935754
 30
0.0
 10
38.9806585204
 20
10.1110451708
 30
0.0
 10
38.9776659785
 20
10.1242352503
 30
0.0
 10
38.973187854
 20
10.1489817913
 30
0.0
 10
38.9678536026
 20
10.189091381
 30
0.0
 10
38.9617783582
 20
10.24814735
 30
0.0
 10
38.9557212486
 20
10.3217429867
 30
0.0
 10
38.9497329171
 20
10.4098486471
 30
0.0
 10
38.9438403584
 20
10.5124237511
 30
0.0
 10
38.9380374413
 20
10.6293994751
 30
0.0
 10
38.9323240925
 20
10.7607010085
 30
0.0
 10
38.9244586734
 20
10.9641844447
 30
0.0
 10
38.9150355431
 20
11.2537106808
 30
0.0
 10
38.9043443549
 20
11.642759103
 30
0.0
 10
38.893578527
 20
12.0864738927
 30
0.0
 10
38.8824843801
 20
12.5836578639
 30
0.0
 10
38.8709536256
 20
13.133060902
 30
0.0
 10
38.8590549528
 20
13.7333844602
 30
0.0
 10
38.8420936601
 20
14.6316483089
 30
0.0
 10
38.8206917565
 20
15.8709209438
 30
0.0
 10
38.7978295239
 20
17.4895246728
 30
0.0
 10
38.7762709751
 20
19.2719008615
 30
0.0
 10
38.7546613853
 20
21.200672409
 30
0.0
 10
38.731353445
 20
23.2572321709
 30
0.0
 10
38.7066658192
 20
25.4221964393
 30
0.0
 10
38.6819198087
 20
27.6754284688
 30
0.0
 10
38.6521893642
 20
30.7942209423
 30
0.0
 10
38.6241073249
 20
33.9580287874
 30
0.0
 10
38.5921056414
 20
37.1367555586
 30
0.0
 10
38.5672843325
 20
39.5018565571
 30
0.0
 10
38.5431907081
 20
41.8217790978
 30
0.0
 10
38.5216917113
 20
44.074489119
 30
0.0
 10
38.5001494006
 20
46.2387837069
 30
0.0
 10
38.4772689991
 20
48.2945049654
 30
0.0
 10
38.4527577725
 20
50.2222669112
 30
0.0
 10
38.4282528453
 20
52.0034953019
 30
0.0
 10
38.4084945654
 20
53.3882288878
 30
0.0
 10
38.3936494829
 20
54.4098736589
 30
0.0
 10
38.3829671731
 20
55.1072171781
 30
0.0
 10
38.3721068281
 20
55.7564025985
 30
0.0
 10
38.3608882474
 20
56.356005977
 30
0.0
 10
38.349318952
 20
56.9046719101
 30
0.0
 10
38.3373291964
 20
57.4011011394
 30
0.0
 10
38.3250493061
 20
57.8440453736
 30
0.0
 10
38.3127441851
 20
58.2323126028
 30
0.0
 10
38.3022735989
 20
58.5211859964
 30
0.0
 10
38.2939536971
 20
58.7241509647
 30
0.0
 10
38.2880980338
 20
58.8550622477
 30
0.0
 10
38.2823502307
 20
58.9716465313
 30
0.0
 10
38.2767205313
 20
59.0738275555
 30
0.0
 10
38.2712224708
 20
59.1615367335
 30
0.0
 10
38.265868013
 20
59.2347344952
 30
0.0
 10
38.2606013655
 20
59.2933877219
 30
0.0
 10
38.2560012024
 20
59.3331672331
 30
0.0
 10
38.2520885456
 20
59.3576529289
 30
0.0
 10
38.2494540905
 20
59.3706372171
 30
0.0
 10
38.2468348261
 20
59.3799726035
 30
0.0
 10
38.2447483346
 20
59.3849587833
 30
0.0
 10
38.2435087078
 20
59.3866446709
 30
0.0
  0
SPLINE
  5
2BA
100
AcDbEntity
  8
0
100
AcDbSpline
 62
7
  6
CONTINUOUS
 70
0
 71
3
 72
65
 73
61
 74
0
 42
0.0000001
 43
0.0000001
 44
0.0000000001
 40
0.0
 40
0.0
 40
0.0
 40
0.0
 40
0.0001334476
 40
0.000335284
 40
0.0006084196
 40
0.0009540256
 40
0.0018647917
 40
0.0030697348
 40
0.0045687261
 40
0.0063611657
 40
0.0084462802
 40
0.0108232091
 40
0.0134910307
 40
0.0164480819
 40
0.0232186413
 40
0.0311118762
 40
0.0401048396
 40
0.0501780258
 40
0.0613142731
 40
0.073495702
 40
0.0866941238
 40
0.1159986856
 40
0.1489275916
 40
0.185158125
 40
0.2243702805
 40
0.2662108575
 40
0.3102566279
 40
0.3560869756
 40
0.4032792922
 40
0.451390976
 40
0.4999642327
 40
0.5485360691
 40
0.5966503538
 40
0.6438472168
 40
0.6896761247
 40
0.7337226167
 40
0.7755655345
 40
0.8147878731
 40
0.8510226024
 40
0.8839468689
 40
0.913262232
 40
0.9264664799
 40
0.9386508623
 40
0.9497916816
 40
0.9598684545
 40
0.9688610626
 40
0.9767508836
 40
0.9835197403
 40
0.9864781756
 40
0.9891497381
 40
0.9915323535
 40
0.9936239769
 40
0.9954226128
 40
0.9969263544
 40
0.9981337174
 40
0.999045497
 40
0.9993913836
 40
0.9996646788
 40
0.9998665731
 40
1.0
 40
1.0
 40
1.0
 40
1.0
 10
32.9917556283
 20
58.3874104325
 30
0.0
 10
32.9930201739
 20
58.3857284818
 30
0.0
 10
32.9952107734
 20
58.3808295808
 30
0.0
 10
32.9979846454
 20
58.3716655356
 30
0.0
 10
33.0007977609
 20
58.3590145183
 30
0.0
 10
33.0049861498
 20
58.3352650931
 30
0.0
 10
33.0099463676
 20
58.2967513972
 30
0.0
 10
33.0156061128
 20
58.2400347653
 30
0.0
 10
33.0213015865
 20
58.1693572898
 30
0.0
 10
33.0270351682
 20
58.0847696535
 30
0.0
 10
33.0327858686
 20
57.9863113609
 30
0.0
 10
33.0385500626
 20
57.8740302223
 30
0.0
 10
33.0443224817
 20
57.74798415
 30
0.0
 10
33.0523950248
 20
57.5526911478
 30
0.0
 10
33.0623222954
 20
57.2750095493
 30
0.0
 10
33.0738096544
 20
56.9021503192
 30
0.0
 10
33.0853267567
 20
56.4771923601
 30
0.0
 10
33.0968667129
 20
56.0010805583
 30
0.0
 10
33.1084209735
 20
55.47467802
 30
0.0
 10
33.1199823973
 20
54.8989841165
 30
0.0
 10
33.1359697243
 20
54.0368324898
 30
0.0
 10
33.1557015896
 20
52.8475357387
 30
0.0
 10
33.1786909395
 20
51.2950606755
 30
0.0
 10
33.2017331178
 20
49.5863414603
 30
0.0
 10
33.2248032622
 20
47.7370858958
 30
0.0
 10
33.2478779284
 20
45.7645857093
 30
0.0
 10
33.2709720145
 20
43.6877190408
 30
0.0
 10
33.2940791291
 20
41.5264578066
 30
0.0
 10
33.3171965791
 20
39.3010791635
 30
0.0
 10
33.3403153306
 20
37.0324462753
 30
0.0
 10
33.3634329706
 20
34.7420590949
 30
0.0
 10
33.3865505583
 20
32.451630899
 30
0.0
 10
33.4096687381
 20
30.1829076946
 30
0.0
 10
33.4327839634
 20
27.9574390231
 30
0.0
 10
33.4558948829
 20
25.7961174605
 30
0.0
 10
33.4789880885
 20
23.7192251951
 30
0.0
 10
33.5020627205
 20
21.7465161311
 30
0.0
 10
33.5251304303
 20
19.8969968703
 30
0.0
 10
33.5481702038
 20
18.1881240226
 30
0.0
 10
33.5711714303
 20
16.6354857941
 30
0.0
 10
33.5908956192
 20
15.4459998669
 30
0.0
 10
33.6068790313
 20
14.5835393471
 30
0.0
 10
33.6184435234
 20
14.0076349233
 30
0.0
 10
33.6299973792
 20
13.4810571116
 30
0.0
 10
33.6415363579
 20
13.0048221991
 30
0.0
 10
33.6530534318
 20
12.5798671126
 30
0.0
 10
33.6645438068
 20
12.2070942926
 30
0.0
 10
33.6744733412
 20
11.9294716827
 30
0.0
 10
33.6825454144
 20
11.7341246596
 30
0.0
 10
33.6883179599
 20
11.6079079419
 30
0.0
 10
33.694081277
 20
11.4953751481
 30
0.0
 10
33.6998307045
 20
11.3966262848
 30
0.0
 10
33.7055626904
 20
11.3117626813
 30
0.0
 10
33.7112551269
 20
11.2408734844
 30
0.0
 10
33.7169156827
 20
11.1840272179
 30
0.0
 10
33.7218781317
 20
11.1454546952
 30
0.0
 10
33.7260672346
 20
11.1216821552
 30
0.0
 10
33.7288805057
 20
11.1090230449
 30
0.0
 10
33.7316545145
 20
11.0998559317
 30
0.0
 10
33.7338454586
 20
11.0949562567
 30
0.0
 10
33.7351105058
 20
11.0932750919
 30
0.0
  0
SPLINE
  5
2BB
100
AcDbEntity
  8
0
100
AcDbSpline
 62
7
  6
CONTINUOUS
 70
0
 71
3
 72
65
 73
61
 74
0
 42
0.0000001
 43
0.0000001
 44
0.0000000001
 40
0.0
 40
0.0
 40
0.0
 40
0.0
 40
0.0001281625
 40
0.0003262665
 40
0.0005967481
 40
0.0009403438
 40
0.0018474742
 40
0.003047519
 40
0.0045391607
 40
0.0063208004
 40
0.0083914143
 40
0.0107503513
 40
0.0133969171
 40
0.0163303875
 40
0.0230549114
 40
0.03091279
 40
0.0398865808
 40
0.0499580908
 40
0.0611013588
 40
0.0732822455
 40
0.0864663625
 40
0.1157212308
 40
0.1486247315
 40
0.1848724106
 40
0.2241070166
 40
0.2659370628
 40
0.309983598
 40
0.3558424813
 40
0.4030661667
 40
0.4512038492
 40
0.499802332
 40
0.5484040707
 40
0.5965453496
 40
0.643775566
 40
0.6896530813
 40
0.7337234698
 40
0.7755706582
 40
0.8148165096
 40
0.8510975907
 40
0.8840463114
 40
0.9133298963
 40
0.9265223866
 40
0.9387110564
 40
0.9498668592
 40
0.9599607755
 40
0.9689653086
 40
0.9768545609
 40
0.9836034843
 40
0.9865457084
 40
0.9891992909
 40
0.9915639668
 40
0.9936394944
 40
0.9954256652
 40
0.9969219249
 40
0.9981271818
 40
0.9990406624
 40
0.9993880561
 40
0.999662879
 40
0.9998659969
 40
1.0
 40
1.0
 40
1.0
 40
1.0
 10
26.9855888753
 20
10.0919023952
 30
0.0
 10
26.9843263959
 20
10.0935886004
 30
0.0
 10
26.9821796091
 20
10.0985976184
 30
0.0
 10
26.9794401266
 20
10.1079879222
 30
0.0
 10
26.9766450339
 20
10.121064693
 30
0.0
 10
26.97244912
 20
10.1457079441
 30
0.0
 10
26.9674495088
 20
10.1856974465
 30
0.0
 10
26.9617187188
 20
10.2445674111
 30
0.0
 10
26.9559517485
 20
10.3178685325
 30
0.0
 10
26.9501707789
 20
10.4055100894
 30
0.0
 10
26.9443993134
 20
10.5074339965
 30
0.0
 10
26.938632871
 20
10.623593156
 30
0.0
 10
26.932869745
 20
10.7539496657
 30
0.0
 10
26.9248136027
 20
10.9560248059
 30
0.0
 10
26.914897865
 20
11.2437431395
 30
0.0
 10
26.9033996916
 20
11.6307379368
 30
0.0
 10
26.891863458
 20
12.0727632705
 30
0.0
 10
26.8803134033
 20
12.5688023386
 30
0.0
 10
26.8687611596
 20
13.1175653083
 30
0.0
 10
26.857198507
 20
13.717496495
 30
0.0
 10
26.8412065014
 20
14.61507513
 30
0.0
 10
26.8214439976
 20
15.8532318461
 30
0.0
 10
26.7984300267
 20
17.470449926
 30
0.0
 10
26.7753848442
 20
19.2517074438
 30
0.0
 10
26.7523166986
 20
21.1796906992
 30
0.0
 10
26.7292151849
 20
23.2358624791
 30
0.0
 10
26.7060990431
 20
25.4009158165
 30
0.0
 10
26.6829780948
 20
27.6546226505
 30
0.0
 10
26.6598525852
 20
29.9755740951
 30
0.0
 10
26.6367218762
 20
32.3415551527
 30
0.0
 10
26.6135857735
 20
34.730186622
 30
0.0
 10
26.5904485416
 20
37.1188771913
 30
0.0
 10
26.5673149024
 20
39.4850781973
 30
0.0
 10
26.5441876842
 20
41.8065023314
 30
0.0
 10
26.5210717498
 20
44.0610148819
 30
0.0
 10
26.4979573039
 20
46.2270483186
 30
0.0
 10
26.4748532721
 20
48.2840787474
 30
0.0
 10
26.4517760036
 20
50.213077526
 30
0.0
 10
26.4287343144
 20
51.9958122447
 30
0.0
 10
26.4057325059
 20
53.6147948657
 30
0.0
 10
26.385969495
 20
54.8543045863
 30
0.0
 10
26.3699684117
 20
55.7526207036
 30
0.0
 10
26.3583979132
 20
56.3530233895
 30
0.0
 10
26.3468420374
 20
56.90248863
 30
0.0
 10
26.3353075865
 20
57.3996078864
 30
0.0
 10
26.3237968149
 20
57.8430235226
 30
0.0
 10
26.3123066003
 20
58.2314411868
 30
0.0
 10
26.3023402825
 20
58.5202190749
 30
0.0
 10
26.2942276794
 20
58.7229527156
 30
0.0
 10
26.2884374651
 20
58.8536618718
 30
0.0
 10
26.2826680378
 20
58.970111596
 30
0.0
 10
26.2769292454
 20
59.072287161
 30
0.0
 10
26.2712326377
 20
59.1601656384
 30
0.0
 10
26.2656000646
 20
59.2337135206
 30
0.0
 10
26.2600006339
 20
59.2928634222
 30
0.0
 10
26.2550785872
 20
59.3331163862
 30
0.0
 10
26.2508938877
 20
59.3580045779
 30
0.0
 10
26.2480675224
 20
59.3712937674
 30
0.0
 10
26.2452623435
 20
59.3809305216
 30
0.0
 10
26.2430351625
 20
59.3860940933
 30
0.0
 10
26.241735242
 20
59.3878720082
 30
0.0
  0
SPLINE
  5
2BC
100
AcDbEntity
  8
0
100
AcDbSpline
 62
7
  6
CONTINUOUS
 70
0
 71
3
 72
65
 73
61
 74
0
 42
0.0000001
 43
0.0000001
 44
0.0000000001
 40
0.0
 40
0.0
 40
0.0
 40
0.0
 40
0.0001277153
 40
0.0003246194
 40
0.0005932451
 40
0.0009344375
 40
0.001835556
 40
0.003028706
 40
0.0045134334
 40
0.0062889692
 40
0.0083548202
 40
0.010710703
 40
0.0133562897
 40
0.0162912223
 40
0.0230273336
 40
0.0309052781
 40
0.0398976206
 40
0.0499760091
 40
0.0611134392
 40
0.0732843468
 40
0.0864630987
 40
0.1157306005
 40
0.1486664067
 40
0.184931026
 40
0.2241602535
 40
0.2660033071
 40
0.3100743728
 40
0.3559508465
 40
0.4031821773
 40
0.4513292794
 40
0.4999409558
 40
0.5485506637
 40
0.5967033026
 40
0.6439427762
 40
0.6898135447
 40
0.7338767187
 40
0.7757299265
 40
0.8149876319
 40
0.8512481012
 40
0.8841646233
 40
0.9134450631
 40
0.9266424809
 40
0.9388346564
 40
0.9499861823
 40
0.9600620199
 40
0.9690376461
 40
0.9768987695
 40
0.9836316554
 40
0.9865711143
 40
0.9892240781
 40
0.991589199
 40
0.9936651577
 40
0.9954506829
 40
0.9969446257
 40
0.9981460612
 40
0.9990544297
 40
0.9993988318
 40
0.9996703814
 40
0.9998699248
 40
1.0
 40
1.0
 40
1.0
 40
1.0
 10
35.9855497209
 20
10.0931709486
 30
0.0
 10
35.984290992
 20
10.0948507765
 30
0.0
 10
35.9821437985
 20
10.09982858
 30
0.0
 10
35.9794053595
 20
10.1091603236
 30
0.0
 10
35.9766117036
 20
10.1221451555
 30
0.0
 10
35.9724193227
 20
10.1466180257
 30
0.0
 10
35.9674240906
 20
10.1863543839
 30
0.0
 10
35.9616991044
 20
10.2448976244
 30
0.0
 10
35.9559363382
 20
10.3178706999
 30
0.0
 10
35.9501568143
 20
10.4052193839
 30
0.0
 10
35.9443846809
 20
10.506913972
 30
0.0
 10
35.9386158211
 20
10.6229281285
 30
0.0
 10
35.9328493405
 20
10.7532420411
 30
0.0
 10
35.9247844328
 20
10.9555151441
 30
0.0
 10
35.9148655615
 20
11.2437776625
 30
0.0
 10
35.9033736397
 20
11.6315976926
 30
0.0
 10
35.8918425243
 20
12.0743706243
 30
0.0
 10
35.8802910291
 20
12.5707311423
 30
0.0
 10
35.8687321368
 20
13.1193463576
 30
0.0
 10
35.8571634139
 20
13.7189284937
 30
0.0
 10
35.8411610743
 20
14.6164613026
 30
0.0
 10
35.8213921136
 20
15.8552669433
 30
0.0
 10
35.7983889701
 20
17.4735003521
 30
0.0
 10
35.7753439287
 20
19.2554767539
 30
0.0
 10
35.7522566853
 20
21.1838612874
 30
0.0
 10
35.7291497679
 20
23.2405591188
 30
0.0
 10
35.7060324498
 20
25.4065159493
 30
0.0
 10
35.6829124095
 20
27.6610380522
 30
0.0
 10
35.6597793078
 20
29.9825562253
 30
0.0
 10
35.636639758
 20
32.3490316787
 30
0.0
 10
35.6134980453
 20
34.7381628682
 30
0.0
 10
35.5903580683
 20
37.1273850799
 30
0.0
 10
35.5672234717
 20
39.4940530707
 30
0.0
 10
35.5440934651
 20
41.8157023492
 30
0.0
 10
35.520964728
 20
44.0701347177
 30
0.0
 10
35.49784447
 20
46.2360349286
 30
0.0
 10
35.4747407869
 20
48.2932380641
 30
0.0
 10
35.451670404
 20
50.2221895805
 30
0.0
 10
35.4286165746
 20
52.0042487895
 30
0.0
 10
35.4055924688
 20
53.6223093642
 30
0.0
 10
35.3858331821
 20
54.8613176468
 30
0.0
 10
35.3698377897
 20
55.7597197027
 30
0.0
 10
35.358270793
 20
56.3601900545
 30
0.0
 10
35.3467160355
 20
56.9093447845
 30
0.0
 10
35.3351677579
 20
57.405620376
 30
0.0
 10
35.3236334532
 20
57.8477999001
 30
0.0
 10
35.3121301224
 20
58.2350151226
 30
0.0
 10
35.302197543
 20
58.5230218951
 30
0.0
 10
35.2941266067
 20
58.7254374832
 30
0.0
 10
35.2883550532
 20
58.8560989671
 30
0.0
 10
35.2825878018
 20
58.972552927
 30
0.0
 10
35.2768267714
 20
59.0747310037
 30
0.0
 10
35.2710719549
 20
59.1625640569
 30
0.0
 10
35.2653445607
 20
59.235992988
 30
0.0
 10
35.2596519783
 20
59.2949481267
 30
0.0
 10
35.2546736879
 20
59.3349968977
 30
0.0
 10
35.2504797168
 20
59.3596930137
 30
0.0
 10
35.2476740247
 20
59.372822215
 30
0.0
 10
35.2449136369
 20
59.382284567
 30
0.0
 10
35.2427417795
 20
59.3873398503
 30
0.0
 10
35.2414697463
 20
59.3890581321
 30
0.0
  0
SPLINE
  5
2BD
100
AcDbEntity
  8
0
100
AcDbSpline
 62
7
  6
CONTINUOUS
 70
0
 71
3
 72
65
 73
61
 74
0
 42
0.0000001
 43
0.0000001
 44
0.0000000001
 40
0.0
 40
0.0
 40
0.0
 40
0.0
 40
0.000133887
 40
0.0003358716
 40
0.0006086549
 40
0.0009532198
 40
0.0018591682
 40
0.0030556132
 40
0.0045433998
 40
0.0063229828
 40
0.0083946449
 40
0.0107585818
 40
0.0134148238
 40
0.0163618301
 40
0.0231174764
 40
0.031004003
 40
0.0399994314
 40
0.0500792009
 40
0.0612174987
 40
0.0733885079
 40
0.0865666267
 40
0.1158411099
 40
0.1487761858
 40
0.1850210098
 40
0.2242329407
 40
0.2660587341
 40
0.3101128797
 40
0.3559635058
 40
0.4031663531
 40
0.4512883382
 40
0.499873448
 40
0.5484577072
 40
0.5965873204
 40
0.6438031785
 40
0.6896509864
 40
0.733699417
 40
0.7755454523
 40
0.8147966721
 40
0.8510486349
 40
0.8839647677
 40
0.9132631701
 40
0.9264691688
 40
0.938667578
 40
0.9498258115
 40
0.9599115129
 40
0.9688978704
 40
0.9767720391
 40
0.9835233914
 40
0.9864745008
 40
0.9891401335
 40
0.9915183455
 40
0.993607222
 40
0.9954048971
 40
0.9969095943
 40
0.9981201429
 40
0.9990367178
 40
0.9993851751
 40
0.999660921
 40
0.9998649584
 40
1.0
 40
1.0
 40
1.0
 40
1.0
 10
29.9916049548
 20
58.3873782283
 30
0.0
 10
29.9928680327
 20
58.3856864732
 30
0.0
 10
29.9950578396
 20
58.3807785628
 30
0.0
 10
29.9978329677
 20
58.3716101957
 30
0.0
 10
30.0006471069
 20
58.3589797363
 30
0.0
 10
30.0048331248
 20
58.3353287678
 30
0.0
 10
30.009795788
 20
58.2970433075
 30
0.0
 10
30.0154598225
 20
58.2407145293
 30
0.0
 10
30.0211581149
 20
58.1705511506
 30
0.0
 10
30.0268938278
 20
58.08655503
 30
0.0
 10
30.0326464598
 20
57.9887158856
 30
0.0
 10
30.0384126334
 20
57.8770332303
 30
0.0
 10
30.0441864041
 20
57.7515314117
 30
0.0
 10
30.0522654492
 20
57.5568118592
 30
0.0
 10
30.0621996147
 20
57.2796252074
 30
0.0
 10
30.0736916313
 20
56.9070617158
 30
0.0
 10
30.0852081002
 20
56.4820592855
 30
0.0
 10
30.0967459847
 20
56.0057639359
 30
0.0
 10
30.1082989305
 20
55.479380223
 30
0.0
 10
30.1198649371
 20
54.9041284447
 30
0.0
 10
30.135865768
 20
54.0429207405
 30
0.0
 10
30.1556136644
 20
52.8543004441
 30
0.0
 10
30.1786003279
 20
51.3019495279
 30
0.0
 10
30.20164025
 20
49.592880905
 30
0.0
 10
30.2247138663
 20
47.7436039685
 30
0.0
 10
30.247809925
 20
45.7711737164
 30
0.0
 10
30.2709095557
 20
43.6940516117
 30
0.0
 10
30.294018591
 20
41.5321342086
 30
0.0
 10
30.3171407871
 20
39.3060679171
 30
0.0
 10
30.3402678601
 20
37.0368795186
 30
0.0
 10
30.3633965855
 20
34.7459066304
 30
0.0
 10
30.3865227851
 20
32.4548134255
 30
0.0
 10
30.4096441476
 20
30.1853129127
 30
0.0
 10
30.4327628249
 20
27.9589655567
 30
0.0
 10
30.4558810725
 20
25.7969776377
 30
0.0
 10
30.4789873522
 20
23.7196709636
 30
0.0
 10
30.5020759936
 20
21.7463919538
 30
0.0
 10
30.5251345623
 20
19.8960634402
 30
0.0
 10
30.548178275
 20
18.1865614094
 30
0.0
 10
30.5711943972
 20
16.6340198719
 30
0.0
 10
30.5909328728
 20
15.4448812825
 30
0.0
 10
30.6069190533
 20
14.5824242083
 30
0.0
 10
30.618482669
 20
14.0059860726
 30
0.0
 10
30.6300339097
 20
13.4787621419
 30
0.0
 10
30.6415711047
 20
13.0022018141
 30
0.0
 10
30.6530950921
 20
12.5774440325
 30
0.0
 10
30.6645939687
 20
12.2052865557
 30
0.0
 10
30.6745312355
 20
11.928298073
 30
0.0
 10
30.6826051786
 20
11.7334331338
 30
0.0
 10
30.6883789067
 20
11.607492991
 30
0.0
 10
30.694143356
 20
11.4951647886
 30
0.0
 10
30.6998942078
 20
11.3965423911
 30
0.0
 10
30.7056278905
 20
11.3117208771
 30
0.0
 10
30.711323973
 20
11.2407804958
 30
0.0
 10
30.7169876929
 20
11.1837918587
 30
0.0
 10
30.7219500814
 20
11.1450513602
 30
0.0
 10
30.7261376818
 20
11.1211208813
 30
0.0
 10
30.7289519571
 20
11.1083465032
 30
0.0
 10
30.7317276232
 20
11.0990770351
 30
0.0
 10
30.733917022
 20
11.0941135633
 30
0.0
 10
30.7351825714
 20
11.0924009644
 30
0.0
  0
SPLINE
  5
2BE
100
AcDbEntity
  8
0
100
AcDbSpline
 62
7
  6
CONTINUOUS
 70
0
 71
3
 72
15
 73
11
 74
0
 42
0.0000001
 43
0.0000001
 44
0.0000000001
 40
0.0
 40
0.0
 40
0.0
 40
0.0
 40
0.1561012513
 40
0.3080553346
 40
0.4518381263
 40
0.5846324664
 40
0.7047067719
 40
0.8120870116
 40
0.9090446856
 40
1.0
 40
1.0
 40
1.0
 40
1.0
 10
9.9879983079
 20
13.9048789939
 30
0.0
 10
9.8893742391
 20
13.9048789939
 30
0.0
 10
9.6945577685
 20
13.9159524793
 30
0.0
 10
9.4126931777
 20
13.9651601098
 30
0.0
 10
9.153173056
 20
14.0450845023
 30
0.0
 10
8.9256664825
 20
14.1525275725
 30
0.0
 10
8.7381872286
 20
14.2838913193
 30
0.0
 10
8.5971367629
 20
14.4352082539
 30
0.0
 10
8.5085489112
 20
14.6022466135
 30
0.0
 10
8.4879983079
 20
14.7217523722
 30
0.0
 10
8.4879983079
 20
14.7792175309
 30
0.0
  0
SPLINE
  5
2BF
100
AcDbEntity
  8
0
100
AcDbSpline
 62
7
  6
CONTINUOUS
 70
0
 71
3
 72
65
 73
61
 74
0
 42
0.0000001
 43
0.0000001
 44
0.0000000001
 40
0.0
 40
0.0
 40
0.0
 40
0.0
 40
0.000133887
 40
0.0003358716
 40
0.0006086549
 40
0.0009532198
 40
0.0018591682
 40
0.0030556132
 40
0.0045433998
 40
0.0063229828
 40
0.0083946449
 40
0.0107585818
 40
0.0134148238
 40
0.0163618301
 40
0.0231174764
 40
0.031004003
 40
0.0399994314
 40
0.0500792009
 40
0.0612174987
 40
0.0733885079
 40
0.0865666267
 40
0.1158411099
 40
0.1487761858
 40
0.1850210098
 40
0.2242329407
 40
0.2660587341
 40
0.3101128797
 40
0.3559635058
 40
0.4031663531
 40
0.4512883382
 40
0.499873448
 40
0.5484577072
 40
0.5965873204
 40
0.6438031785
 40
0.6896509864
 40
0.733699417
 40
0.7755454523
 40
0.8147966721
 40
0.8510486349
 40
0.8839647677
 40
0.9132631701
 40
0.9264691688
 40
0.938667578
 40
0.9498258115
 40
0.9599115129
 40
0.9688978704
 40
0.9767720391
 40
0.9835233914
 40
0.9864745008
 40
0.9891401335
 40
0.9915183455
 40
0.993607222
 40
0.9954048971
 40
0.9969095943
 40
0.9981201429
 40
0.9990367178
 40
0.9993851751
 40
0.999660921
 40
0.9998649584
 40
1.0
 40
1.0
 40
1.0
 40
1.0
 10
23.9916049548
 20
58.3873782283
 30
0.0
 10
23.9928680328
 20
58.3856864732
 30
0.0
 10
23.9950578396
 20
58.3807785628
 30
0.0
 10
23.9978329677
 20
58.3716101957
 30
0.0
 10
24.0006471069
 20
58.3589797363
 30
0.0
 10
24.0048331248
 20
58.3353287678
 30
0.0
 10
24.009795788
 20
58.2970433075
 30
0.0
 10
24.0154598225
 20
58.2407145293
 30
0.0
 10
24.0211581149
 20
58.1705511506
 30
0.0
 10
24.0268938278
 20
58.08655503
 30
0.0
 10
24.0326464598
 20
57.9887158856
 30
0.0
 10
24.0384126334
 20
57.8770332304
 30
0.0
 10
24.0441864042
 20
57.7515314117
 30
0.0
 10
24.0522654492
 20
57.5568118592
 30
0.0
 10
24.0621996147
 20
57.2796252074
 30
0.0
 10
24.0736916313
 20
56.9070617158
 30
0.0
 10
24.0852081002
 20
56.4820592855
 30
0.0
 10
24.0967459847
 20
56.0057639359
 30
0.0
 10
24.1082989305
 20
55.479380223
 30
0.0
 10
24.1198649371
 20
54.9041284447
 30
0.0
 10
24.1358657681
 20
54.0429207405
 30
0.0
 10
24.1556136644
 20
52.8543004441
 30
0.0
 10
24.1786003279
 20
51.3019495278
 30
0.0
 10
24.20164025
 20
49.592880905
 30
0.0
 10
24.2247138663
 20
47.7436039684
 30
0.0
 10
24.247809925
 20
45.7711737164
 30
0.0
 10
24.2709095557
 20
43.6940516117
 30
0.0
 10
24.294018591
 20
41.5321342085
 30
0.0
 10
24.3171407871
 20
39.3060679171
 30
0.0
 10
24.3402678601
 20
37.0368795185
 30
0.0
 10
24.3633965855
 20
34.7459066304
 30
0.0
 10
24.3865227851
 20
32.4548134255
 30
0.0
 10
24.4096441476
 20
30.1853129127
 30
0.0
 10
24.4327628249
 20
27.9589655567
 30
0.0
 10
24.4558810725
 20
25.7969776376
 30
0.0
 10
24.4789873522
 20
23.7196709636
 30
0.0
 10
24.5020759936
 20
21.7463919538
 30
0.0
 10
24.5251345623
 20
19.8960634401
 30
0.0
 10
24.548178275
 20
18.1865614094
 30
0.0
 10
24.5711943972
 20
16.6340198719
 30
0.0
 10
24.5909328729
 20
15.4448812825
 30
0.0
 10
24.6069190533
 20
14.5824242083
 30
0.0
 10
24.618482669
 20
14.0059860726
 30
0.0
 10
24.6300339097
 20
13.4787621419
 30
0.0
 10
24.6415711047
 20
13.0022018141
 30
0.0
 10
24.6530950921
 20
12.5774440325
 30
0.0
 10
24.6645939687
 20
12.2052865557
 30
0.0
 10
24.6745312355
 20
11.928298073
 30
0.0
 10
24.6826051786
 20
11.7334331338
 30
0.0
 10
24.6883789067
 20
11.607492991
 30
0.0
 10
24.694143356
 20
11.4951647886
 30
0.0
 10
24.6998942078
 20
11.3965423911
 30
0.0
 10
24.7056278905
 20
11.3117208771
 30
0.0
 10
24.711323973
 20
11.2407804958
 30
0.0
 10
24.7169876929
 20
11.1837918587
 30
0.0
 10
24.7219500814
 20
11.1450513602
 30
0.0
 10
24.7261376818
 20
11.1211208813
 30
0.0
 10
24.7289519571
 20
11.1083465032
 30
0.0
 10
24.7317276232
 20
11.0990770351
 30
0.0
 10
24.733917022
 20
11.0941135633
 30
0.0
 10
24.7351825714
 20
11.0924009644
 30
0.0
  0
SPLINE
  5
2C0
100
AcDbEntity
  8
0
100
AcDbSpline
 62
7
  6
CONTINUOUS
 70
0
 71
3
 72
15
 73
11
 74
0
 42
0.0000001
 43
0.0000001
 44
0.0000000001
 40
0.0
 40
0.0
 40
0.0
 40
0.0
 40
0.1221388785
 40
0.2448629346
 40
0.3683144994
 40
0.4928119223
 40
0.6183948455
 40
0.7449363862
 40
0.8723093629
 40
1.0
 40
1.0
 40
1.0
 40
1.0
 10
8.4879983079
 20
10.5823360765
 30
0.0
 10
8.4879983079
 20
10.4877103593
 30
0.0
 10
8.5070952393
 20
10.2974765658
 30
0.0
 10
8.5916550565
 20
10.0230652227
 30
0.0
 10
8.7296066729
 20
9.7690323332
 30
0.0
 10
8.9159711135
 20
9.5452079523
 30
0.0
 10
9.1442724069
 20
9.3605300026
 30
0.0
 10
9.4059931411
 20
9.2224832891
 30
0.0
 10
9.6909360589
 20
9.1372316432
 30
0.0
 10
9.8890714284
 20
9.1179460096
 30
0.0
 10
9.9879983079
 20
9.1179460096
 30
0.0
  0
SPLINE
  5
2C1
100
AcDbEntity
  8
0
100
AcDbSpline
 62
7
  6
CONTINUOUS
 70
0
 71
3
 72
65
 73
61
 74
0
 42
0.0000001
 43
0.0000001
 44
0.0000000001
 40
0.0
 40
0.0
 40
0.0
 40
0.0
 40
0.0001342007
 40
0.0003377213
 40
0.0006132022
 40
0.0009615265
 40
0.0018777097
 40
0.0030868126
 40
0.0045880678
 40
0.006380323
 40
0.0084623901
 40
0.0108331214
 40
0.0134913258
 40
0.0164357833
 40
0.0231784672
 40
0.0310493596
 40
0.0400331412
 40
0.0501140046
 40
0.0612698466
 40
0.0734662208
 40
0.0866672396
 40
0.1159499566
 40
0.1488670769
 40
0.1851237821
 40
0.2243724227
 40
0.26621702
 40
0.3102661117
 40
0.3561247739
 40
0.4033484178
 40
0.4514839314
 40
0.5000782264
 40
0.5486704383
 40
0.5968008159
 40
0.6440156678
 40
0.6898741806
 40
0.7339348536
 40
0.7757624156
 40
0.8149840899
 40
0.8512412102
 40
0.8841716649
 40
0.9134465965
 40
0.9266254188
 40
0.9387982089
 40
0.9499408781
 40
0.9600256852
 40
0.9690226465
 40
0.9769026127
 40
0.9836463719
 40
0.9865882203
 40
0.989241311
 40
0.9916041199
 40
0.9936755901
 40
0.9954555313
 40
0.99694393
 40
0.9981409453
 40
0.9990471308
 40
0.9993916545
 40
0.9996643529
 40
0.9998662363
 40
1.0
 40
1.0
 40
1.0
 40
1.0
 10
22.4916212907
 20
58.3889531157
 30
0.0
 10
22.4928908519
 20
58.387259996
 30
0.0
 10
22.4950806463
 20
58.3823167227
 30
0.0
 10
22.4978546549
 20
58.3730749606
 30
0.0
 10
22.5006678981
 20
58.3603141046
 30
0.0
 10
22.5048550067
 20
58.3363962284
 30
0.0
 10
22.5098157891
 20
58.2976860272
 30
0.0
 10
22.5154794099
 20
58.2407803727
 30
0.0
 10
22.5211775938
 20
58.1700021659
 30
0.0
 10
22.5269135083
 20
58.0854272682
 30
0.0
 10
22.5326662413
 20
57.9871148744
 30
0.0
 10
22.5384322782
 20
57.8751280446
 30
0.0
 10
22.5442074482
 20
57.749526482
 30
0.0
 10
22.5522860416
 20
57.5550179238
 30
0.0
 10
22.5622253913
 20
57.2783188913
 30
0.0
 10
22.5737230256
 20
56.9063850417
 30
0.0
 10
22.5852480811
 20
56.481789747
 30
0.0
 10
22.5967908811
 20
56.0053772864
 30
0.0
 10
22.6083413133
 20
55.4782917909
 30
0.0
 10
22.6199047239
 20
54.901993625
 30
0.0
 10
22.6358934277
 20
54.0398820803
 30
0.0
 10
22.6556461982
 20
52.8510367699
 30
0.0
 10
22.6786594733
 20
51.2986296045
 30
0.0
 10
22.7017056441
 20
49.5890530549
 30
0.0
 10
22.724768999
 20
47.738686247
 30
0.0
 10
22.7478623866
 20
45.7654315165
 30
0.0
 10
22.770976794
 20
43.6879357936
 30
0.0
 10
22.7940947137
 20
41.5256120431
 30
0.0
 10
22.8172183827
 20
39.2988453509
 30
0.0
 10
22.840345019
 20
37.0289377851
 30
0.0
 10
22.8634764007
 20
34.7374479939
 30
0.0
 10
22.8866102599
 20
32.4460392213
 30
0.0
 10
22.9097417447
 20
30.176384199
 30
0.0
 10
22.9328651503
 20
27.9498395053
 30
0.0
 10
22.9559802798
 20
25.7874740958
 30
0.0
 10
22.9790841553
 20
23.7100666215
 30
0.0
 10
23.0021858673
 20
21.7373232591
 30
0.0
 10
23.0252628387
 20
19.8876440035
 30
0.0
 10
23.0482980022
 20
18.1782757495
 30
0.0
 10
23.0713014218
 20
16.6257743804
 30
0.0
 10
23.0910508077
 20
15.437191539
 30
0.0
 10
23.1070531935
 20
14.5759250785
 30
0.0
 10
23.1186216567
 20
14.0005568492
 30
0.0
 10
23.1301760835
 20
13.4739890121
 30
0.0
 10
23.1417143751
 20
12.9975141452
 30
0.0
 10
23.1532290224
 20
12.5725053136
 30
0.0
 10
23.1647230764
 20
12.2002032914
 30
0.0
 10
23.1746650544
 20
11.9233853447
 30
0.0
 10
23.1827474838
 20
11.7289818519
 30
0.0
 10
23.1885228891
 20
11.603627262
 30
0.0
 10
23.1942888719
 20
11.4920135771
 30
0.0
 10
23.2000420716
 20
11.3941882326
 30
0.0
 10
23.2057782124
 20
11.3101786213
 30
0.0
 10
23.2114767606
 20
11.2399898553
 30
0.0
 10
23.2171408678
 20
11.1836377975
 30
0.0
 10
23.2221037246
 20
11.1453395235
 30
0.0
 10
23.2262912771
 20
11.121686728
 30
0.0
 10
23.2291060746
 20
11.1090597844
 30
0.0
 10
23.2318816166
 20
11.0998966933
 30
0.0
 10
23.2340720507
 20
11.0949924091
 30
0.0
 10
23.2353358659
 20
11.0933035941
 30
0.0
  0
SPLINE
  5
2C2
100
AcDbEntity
  8
0
100
AcDbSpline
 62
7
  6
CONTINUOUS
 70
0
 71
3
 72
26
 73
22
 74
0
 42
0.0000001
 43
0.0000001
 44
0.0000000001
 40
0.0
 40
0.0
 40
0.0
 40
0.0
 40
0.1967925113
 40
0.3857374641
 40
0.4747721704
 40
0.5590415998
 40
0.6377645651
 40
0.7101943194
 40
0.7756347566
 40
0.8335369933
 40
0.8833817774
 40
0.9247408971
 40
0.9421387457
 40
0.9572971698
 40
0.9701781708
 40
0.9807559224
 40
0.9890191155
 40
0.9949599774
 40
0.9985807779
 40
0.9995390061
 40
1.0
 40
1.0
 40
1.0
 40
1.0
 10
9.9879983079
 20
29.7404692082
 30
0.0
 10
9.8895367063
 20
29.7404692082
 30
0.0
 10
9.6965395356
 20
29.7399634873
 30
0.0
 10
9.4590019256
 20
29.7380967419
 30
0.0
 10
9.2777700527
 20
29.7359116799
 30
0.0
 10
9.1516866924
 20
29.7340283716
 30
0.0
 10
9.0339162583
 20
29.7319125631
 30
0.0
 10
8.9255719508
 20
29.729612852
 30
0.0
 10
8.8276508296
 20
29.7271743298
 30
0.0
 10
8.7410360339
 20
29.7246520717
 30
0.0
 10
8.6664767363
 20
29.7220964531
 30
0.0
 10
8.6121849265
 20
29.7198749468
 30
0.0
 10
8.575245547
 20
29.7180767299
 30
0.0
 10
8.5525475876
 20
29.7168281364
 30
0.0
 10
8.5332598409
 20
29.7156039014
 30
0.0
 10
8.5174455706
 20
29.7144207117
 30
0.0
 10
8.505064386
 20
29.7132628588
 30
0.0
 10
8.4962873826
 20
29.7122131426
 30
0.0
 10
8.4909673782
 20
29.7112247815
 30
0.0
 10
8.4886915008
 20
29.7105065578
 30
0.0
 10
8.4879983079
 20
29.7099955611
 30
0.0
 10
8.4879983079
 20
29.7097649111
 30
0.0
  0
SPLINE
  5
2C3
100
AcDbEntity
  8
0
100
AcDbSpline
 62
7
  6
CONTINUOUS
 70
0
 71
3
 72
31
 73
27
 74
0
 42
0.0000001
 43
0.0000001
 44
0.0000000001
 40
0.0
 40
0.0
 40
0.0
 40
0.0
 40
0.2149338874
 40
0.3150468207
 40
0.4096469306
 40
0.4983417229
 40
0.5807523527
 40
0.6565198292
 40
0.7253606392
 40
0.7870178844
 40
0.8412556592
 40
0.8655209236
 40
0.8878479867
 40
0.9082113953
 40
0.9265857215
 40
0.9429464582
 40
0.957276618
 40
0.9695630362
 40
0.9797927149
 40
0.9879532602
 40
0.9912549343
 40
0.9940368281
 40
0.9962989655
 40
0.9980424273
 40
0.9992711479
 40
1.0
 40
1.0
 40
1.0
 40
1.0
 10
41.4897746223
 20
47.0639534449
 30
0.0
 10
41.4800949028
 20
47.9471174712
 30
0.0
 10
41.4661258177
 20
49.2416492912
 30
0.0
 10
41.4440534094
 20
50.9248468932
 30
0.0
 10
41.4275044595
 20
52.0893230148
 30
0.0
 10
41.411512401
 20
53.1810563721
 30
0.0
 10
41.3961854071
 20
54.1954030719
 30
0.0
 10
41.3816384663
 20
55.128167164
 30
0.0
 10
41.3672823752
 20
55.9756428267
 30
0.0
 10
41.3523964629
 20
56.7346236261
 30
0.0
 10
41.3390695373
 20
57.3104250238
 30
0.0
 10
41.3279217298
 20
57.7246115792
 30
0.0
 10
41.3197611809
 20
57.999628775
 30
0.0
 10
41.3115495533
 20
58.2504253479
 30
0.0
 10
41.3033446674
 20
58.476690546
 30
0.0
 10
41.2952025094
 20
58.6781480999
 30
0.0
 10
41.2871975237
 20
58.8545717436
 30
0.0
 10
41.2794259786
 20
59.0057844535
 30
0.0
 10
41.2719511378
 20
59.1316206003
 30
0.0
 10
41.2657433449
 20
59.2205478149
 30
0.0
 10
41.2607708712
 20
59.2788666219
 30
0.0
 10
41.2573694111
 20
59.3130015954
 30
0.0
 10
41.25399327
 20
59.3406699292
 30
0.0
 10
41.2507026468
 20
59.3619851812
 30
0.0
 10
41.2473773955
 20
59.3767291209
 30
0.0
 10
41.2447885161
 20
59.3845462946
 30
0.0
 10
41.2430369238
 20
59.3869757311
 30
0.0
  0
SPLINE
  5
2C4
100
AcDbEntity
  8
0
100
AcDbSpline
 62
7
  6
CONTINUOUS
 70
0
 71
3
 72
66
 73
62
 74
0
 42
0.0000001
 43
0.0000001
 44
0.0000000001
 40
0.0
 40
0.0
 40
0.0
 40
0.0
 40
0.0001319519
 40
0.0003318133
 40
0.0006025533
 40
0.0009453838
 40
0.0018496211
 40
0.0030476485
 40
0.0045412677
 40
0.0063316915
 40
0.0084177529
 40
0.0107967968
 40
0.0134661035
 40
0.0164229285
 40
0.0231881372
 40
0.0310728822
 40
0.0400609644
 40
0.0501362497
 40
0.0612788662
 40
0.0734646042
 40
0.0866686405
 40
0.1159914893
 40
0.1489285353
 40
0.1851775566
 40
0.2244198009
 40
0.2662841052
 40
0.3103541892
 40
0.3562091207
 40
0.4034331077
 40
0.4515746241
 40
0.5001737807
 40
0.5487720174
 40
0.5969072389
 40
0.644120855
 40
0.6899669303
 40
0.7340270488
 40
0.7758732463
 40
0.8150880974
 40
0.8513164054
 40
0.8842362116
 40
0.8993578222
 40
0.9135322533
 40
0.9267181617
 40
0.9388840707
 40
0.950008238
 40
0.9600693895
 40
0.9690469806
 40
0.9769210876
 40
0.9836718577
 40
0.9866198213
 40
0.989279564
 40
0.9916486544
 40
0.993724691
 40
0.9955053493
 40
0.9969896796
 40
0.9981787102
 40
0.9990739759
 40
0.9994122295
 40
0.9996782631
 40
0.9998732188
 40
1.0
 40
1.0
 40
1.0
 40
1.0
 10
28.4851386992
 20
10.0934205573
 30
0.0
 10
28.4838401953
 20
10.0951574928
 30
0.0
 10
28.4816066441
 20
10.1002240098
 30
0.0
 10
28.4788002233
 20
10.1096995645
 30
0.0
 10
28.4759735268
 20
10.1227883299
 30
0.0
 10
28.4717875032
 20
10.1473773182
 30
0.0
 10
28.4668694121
 20
10.1872815376
 30
0.0
 10
28.4612799076
 20
10.2461146336
 30
0.0
 10
28.4556577452
 20
10.3195681674
 30
0.0
 10
28.4499729178
 20
10.4076441986
 30
0.0
 10
28.4442423412
 20
10.5102963636
 30
0.0
 10
28.438476924
 20
10.6274104665
 30
0.0
 10
28.4326880336
 20
10.7588500812
 30
0.0
 10
28.4245827086
 20
10.96234314
 30
0.0
 10
28.4146180339
 20
11.2515441034
 30
0.0
 10
28.4031201942
 20
11.6398703102
 30
0.0
 10
28.3916075753
 20
12.0826186006
 30
0.0
 10
28.3800722804
 20
12.5789259266
 30
0.0
 10
28.3685141832
 20
13.1277995514
 30
0.0
 10
28.3569404109
 20
13.7281048018
 30
0.0
 10
28.3409410325
 20
14.6271747226
 30
0.0
 10
28.3212113551
 20
15.8672823679
 30
0.0
 10
28.2981989635
 20
17.4861314115
 30
0.0
 10
28.2751455482
 20
19.2680218819
 30
0.0
 10
28.2520680478
 20
21.1966443697
 30
0.0
 10
28.2289810089
 20
23.2538159003
 30
0.0
 10
28.2058761233
 20
25.4196744064
 30
0.0
 10
28.1827534486
 20
27.6736248802
 30
0.0
 10
28.1596259008
 20
29.9944934384
 30
0.0
 10
28.1364955993
 20
32.3604659958
 30
0.0
 10
28.1133660021
 20
34.7490256686
 30
0.0
 10
28.0902361713
 20
37.1374818782
 30
0.0
 10
28.0671046363
 20
39.5031653866
 30
0.0
 10
28.0439761396
 20
41.8236144569
 30
0.0
 10
28.02085554
 20
44.0770851395
 30
0.0
 10
27.9977518952
 20
46.2423366989
 30
0.0
 10
27.9746642896
 20
48.2985965757
 30
0.0
 10
27.9515823633
 20
50.226130726
 30
0.0
 10
27.9285292739
 20
52.0069470602
 30
0.0
 10
27.9088419869
 20
53.3917961224
 30
0.0
 10
27.8929426958
 20
54.4142015324
 30
0.0
 10
27.881364748
 20
55.1123043265
 30
0.0
 10
27.8697909664
 20
55.761822564
 30
0.0
 10
27.8582211633
 20
56.3612006717
 30
0.0
 10
27.8466622138
 20
56.9092126925
 30
0.0
 10
27.8351154238
 20
57.4048116335
 30
0.0
 10
27.823590251
 20
57.8469798521
 30
0.0
 10
27.8120955341
 20
58.2347212882
 30
0.0
 10
27.8021700029
 20
58.5233654495
 30
0.0
 10
27.794100919
 20
58.7263194057
 30
0.0
 10
27.7883304929
 20
58.8572929955
 30
0.0
 10
27.7825653598
 20
58.9739210332
 30
0.0
 10
27.7768087116
 20
59.0760822405
 30
0.0
 10
27.7710595266
 20
59.1636753156
 30
0.0
 10
27.7653378844
 20
59.2366590955
 30
0.0
 10
27.759652136
 20
59.2950327259
 30
0.0
 10
27.7546775958
 20
59.3345570968
 30
0.0
 10
27.750483778
 20
59.3588391455
 30
0.0
 10
27.7476807963
 20
59.3716961621
 30
0.0
 10
27.7449243047
 20
59.3809286511
 30
0.0
 10
27.7427490834
 20
59.3858449412
 30
0.0
 10
27.7414783451
 20
59.3874962785
 30
0.0
  0
SPLINE
  5
2C5
100
AcDbEntity
  8
0
100
AcDbSpline
 62
7
  6
CONTINUOUS
 70
0
 71
3
 72
65
 73
61
 74
0
 42
0.0000001
 43
0.0000001
 44
0.0000000001
 40
0.0
 40
0.0
 40
0.0
 40
0.0
 40
0.0001334476
 40
0.000335284
 40
0.0006084196
 40
0.0009540256
 40
0.0018647917
 40
0.0030697348
 40
0.0045687261
 40
0.0063611657
 40
0.0084462802
 40
0.0108232091
 40
0.0134910307
 40
0.0164480819
 40
0.0232186413
 40
0.0311118762
 40
0.0401048396
 40
0.0501780258
 40
0.0613142731
 40
0.073495702
 40
0.0866941238
 40
0.1159986856
 40
0.1489275916
 40
0.185158125
 40
0.2243702805
 40
0.2662108575
 40
0.3102566279
 40
0.3560869756
 40
0.4032792922
 40
0.451390976
 40
0.4999642327
 40
0.5485360691
 40
0.5966503538
 40
0.6438472168
 40
0.6896761247
 40
0.7337226167
 40
0.7755655345
 40
0.8147878731
 40
0.8510226024
 40
0.8839468689
 40
0.913262232
 40
0.9264664799
 40
0.9386508623
 40
0.9497916816
 40
0.9598684545
 40
0.9688610626
 40
0.9767508836
 40
0.9835197403
 40
0.9864781756
 40
0.9891497381
 40
0.9915323535
 40
0.9936239769
 40
0.9954226128
 40
0.9969263544
 40
0.9981337174
 40
0.999045497
 40
0.9993913836
 40
0.9996646788
 40
0.9998665731
 40
1.0
 40
1.0
 40
1.0
 40
1.0
 10
20.9917556283
 20
58.3874104325
 30
0.0
 10
20.9930201739
 20
58.3857284818
 30
0.0
 10
20.9952107734
 20
58.3808295808
 30
0.0
 10
20.9979846454
 20
58.3716655356
 30
0.0
 10
21.0007977609
 20
58.3590145183
 30
0.0
 10
21.0049861498
 20
58.3352650931
 30
0.0
 10
21.0099463676
 20
58.2967513972
 30
0.0
 10
21.0156061128
 20
58.2400347652
 30
0.0
 10
21.0213015865
 20
58.1693572898
 30
0.0
 10
21.0270351682
 20
58.0847696535
 30
0.0
 10
21.0327858686
 20
57.9863113609
 30
0.0
 10
21.0385500626
 20
57.8740302223
 30
0.0
 10
21.0443224817
 20
57.74798415
 30
0.0
 10
21.0523950248
 20
57.5526911478
 30
0.0
 10
21.0623222954
 20
57.2750095493
 30
0.0
 10
21.0738096544
 20
56.9021503192
 30
0.0
 10
21.0853267567
 20
56.4771923601
 30
0.0
 10
21.0968667129
 20
56.0010805583
 30
0.0
 10
21.1084209735
 20
55.47467802
 30
0.0
 10
21.1199823973
 20
54.8989841165
 30
0.0
 10
21.1359697243
 20
54.0368324898
 30
0.0
 10
21.1557015896
 20
52.8475357387
 30
0.0
 10
21.1786909395
 20
51.2950606755
 30
0.0
 10
21.2017331178
 20
49.5863414603
 30
0.0
 10
21.2248032622
 20
47.7370858958
 30
0.0
 10
21.2478779284
 20
45.7645857093
 30
0.0
 10
21.2709720145
 20
43.6877190408
 30
0.0
 10
21.2940791291
 20
41.5264578066
 30
0.0
 10
21.3171965791
 20
39.3010791635
 30
0.0
 10
21.3403153306
 20
37.0324462753
 30
0.0
 10
21.3634329706
 20
34.7420590949
 30
0.0
 10
21.3865505583
 20
32.451630899
 30
0.0
 10
21.4096687381
 20
30.1829076946
 30
0.0
 10
21.4327839633
 20
27.9574390231
 30
0.0
 10
21.4558948829
 20
25.7961174605
 30
0.0
 10
21.4789880885
 20
23.7192251951
 30
0.0
 10
21.5020627205
 20
21.7465161311
 30
0.0
 10
21.5251304303
 20
19.8969968703
 30
0.0
 10
21.5481702038
 20
18.1881240226
 30
0.0
 10
21.5711714303
 20
16.6354857941
 30
0.0
 10
21.5908956192
 20
15.4459998669
 30
0.0
 10
21.6068790313
 20
14.5835393471
 30
0.0
 10
21.6184435234
 20
14.0076349233
 30
0.0
 10
21.6299973792
 20
13.4810571116
 30
0.0
 10
21.6415363578
 20
13.0048221991
 30
0.0
 10
21.6530534318
 20
12.5798671126
 30
0.0
 10
21.6645438068
 20
12.2070942926
 30
0.0
 10
21.6744733412
 20
11.9294716827
 30
0.0
 10
21.6825454144
 20
11.7341246596
 30
0.0
 10
21.6883179599
 20
11.6079079419
 30
0.0
 10
21.694081277
 20
11.4953751481
 30
0.0
 10
21.6998307045
 20
11.3966262848
 30
0.0
 10
21.7055626904
 20
11.3117626813
 30
0.0
 10
21.7112551269
 20
11.2408734844
 30
0.0
 10
21.7169156827
 20
11.1840272179
 30
0.0
 10
21.7218781317
 20
11.1454546952
 30
0.0
 10
21.7260672346
 20
11.1216821552
 30
0.0
 10
21.7288805057
 20
11.1090230449
 30
0.0
 10
21.7316545145
 20
11.0998559317
 30
0.0
 10
21.7338454586
 20
11.0949562567
 30
0.0
 10
21.7351105058
 20
11.0932750919
 30
0.0
  0
SPLINE
  5
2C6
100
AcDbEntity
  8
0
100
AcDbSpline
 62
7
  6
CONTINUOUS
 70
0
 71
3
 72
65
 73
61
 74
0
 42
0.0000001
 43
0.0000001
 44
0.0000000001
 40
0.0
 40
0.0
 40
0.0
 40
0.0
 40
0.0001342007
 40
0.0003377213
 40
0.0006132022
 40
0.0009615265
 40
0.0018777097
 40
0.0030868126
 40
0.0045880678
 40
0.006380323
 40
0.0084623901
 40
0.0108331214
 40
0.0134913258
 40
0.0164357833
 40
0.0231784672
 40
0.0310493596
 40
0.0400331412
 40
0.0501140046
 40
0.0612698466
 40
0.0734662208
 40
0.0866672396
 40
0.1159499566
 40
0.1488670769
 40
0.1851237821
 40
0.2243724227
 40
0.26621702
 40
0.3102661117
 40
0.3561247739
 40
0.4033484178
 40
0.4514839314
 40
0.5000782264
 40
0.5486704383
 40
0.5968008159
 40
0.6440156678
 40
0.6898741806
 40
0.7339348536
 40
0.7757624156
 40
0.8149840899
 40
0.8512412102
 40
0.8841716649
 40
0.9134465965
 40
0.9266254188
 40
0.9387982089
 40
0.9499408781
 40
0.9600256852
 40
0.9690226465
 40
0.9769026127
 40
0.9836463719
 40
0.9865882203
 40
0.989241311
 40
0.9916041199
 40
0.9936755901
 40
0.9954555313
 40
0.99694393
 40
0.9981409453
 40
0.9990471308
 40
0.9993916545
 40
0.9996643529
 40
0.9998662363
 40
1.0
 40
1.0
 40
1.0
 40
1.0
 10
34.4916212907
 20
58.3889531157
 30
0.0
 10
34.4928908519
 20
58.387259996
 30
0.0
 10
34.4950806463
 20
58.3823167227
 30
0.0
 10
34.4978546549
 20
58.3730749606
 30
0.0
 10
34.5006678981
 20
58.3603141046
 30
0.0
 10
34.5048550067
 20
58.3363962284
 30
0.0
 10
34.509815789
 20
58.2976860272
 30
0.0
 10
34.5154794099
 20
58.2407803727
 30
0.0
 10
34.5211775938
 20
58.1700021659
 30
0.0
 10
34.5269135083
 20
58.0854272682
 30
0.0
 10
34.5326662413
 20
57.9871148744
 30
0.0
 10
34.5384322782
 20
57.8751280446
 30
0.0
 10
34.5442074482
 20
57.749526482
 30
0.0
 10
34.5522860416
 20
57.5550179238
 30
0.0
 10
34.5622253913
 20
57.2783188913
 30
0.0
 10
34.5737230256
 20
56.9063850417
 30
0.0
 10
34.5852480811
 20
56.481789747
 30
0.0
 10
34.5967908811
 20
56.0053772864
 30
0.0
 10
34.6083413133
 20
55.4782917909
 30
0.0
 10
34.6199047239
 20
54.901993625
 30
0.0
 10
34.6358934277
 20
54.0398820803
 30
0.0
 10
34.6556461981
 20
52.8510367699
 30
0.0
 10
34.6786594733
 20
51.2986296045
 30
0.0
 10
34.7017056441
 20
49.5890530549
 30
0.0
 10
34.724768999
 20
47.738686247
 30
0.0
 10
34.7478623866
 20
45.7654315165
 30
0.0
 10
34.7709767939
 20
43.6879357936
 30
0.0
 10
34.7940947137
 20
41.5256120431
 30
0.0
 10
34.8172183827
 20
39.2988453509
 30
0.0
 10
34.840345019
 20
37.0289377851
 30
0.0
 10
34.8634764007
 20
34.7374479939
 30
0.0
 10
34.8866102599
 20
32.4460392213
 30
0.0
 10
34.9097417447
 20
30.176384199
 30
0.0
 10
34.9328651503
 20
27.9498395053
 30
0.0
 10
34.9559802798
 20
25.7874740958
 30
0.0
 10
34.9790841553
 20
23.7100666215
 30
0.0
 10
35.0021858673
 20
21.7373232591
 30
0.0
 10
35.0252628387
 20
19.8876440035
 30
0.0
 10
35.0482980022
 20
18.1782757495
 30
0.0
 10
35.0713014218
 20
16.6257743804
 30
0.0
 10
35.0910508077
 20
15.437191539
 30
0.0
 10
35.1070531935
 20
14.5759250785
 30
0.0
 10
35.1186216567
 20
14.0005568492
 30
0.0
 10
35.1301760835
 20
13.473989012
 30
0.0
 10
35.1417143751
 20
12.9975141452
 30
0.0
 10
35.1532290224
 20
12.5725053136
 30
0.0
 10
35.1647230764
 20
12.2002032914
 30
0.0
 10
35.1746650544
 20
11.9233853447
 30
0.0
 10
35.1827474838
 20
11.7289818519
 30
0.0
 10
35.1885228891
 20
11.603627262
 30
0.0
 10
35.1942888719
 20
11.4920135771
 30
0.0
 10
35.2000420716
 20
11.3941882326
 30
0.0
 10
35.2057782124
 20
11.3101786213
 30
0.0
 10
35.2114767606
 20
11.2399898553
 30
0.0
 10
35.2171408678
 20
11.1836377975
 30
0.0
 10
35.2221037245
 20
11.1453395235
 30
0.0
 10
35.2262912771
 20
11.121686728
 30
0.0
 10
35.2291060746
 20
11.1090597844
 30
0.0
 10
35.2318816166
 20
11.0998966933
 30
0.0
 10
35.2340720507
 20
11.0949924091
 30
0.0
 10
35.2353358659
 20
11.0933035941
 30
0.0
  0
SPLINE
  5
2C7
100
AcDbEntity
  8
0
100
AcDbSpline
 62
7
  6
CONTINUOUS
 70
0
 71
3
 72
15
 73
11
 74
0
 42
0.0000001
 43
0.0000001
 44
0.0000000001
 40
0.0
 40
0.0
 40
0.0
 40
0.0
 40
0.0932227355
 40
0.1923586932
 40
0.3012607416
 40
0.4218886353
 40
0.5541941892
 40
0.69655531
 40
0.8463892248
 40
1.0
 40
1.0
 40
1.0
 40
1.0
 10
8.4879983079
 20
22.9190680711
 30
0.0
 10
8.4879983079
 20
22.859200207
 30
0.0
 10
8.5085159836
 20
22.7349310089
 30
0.0
 10
8.5966632103
 20
22.5600120007
 30
0.0
 10
8.7373929055
 20
22.4001719453
 30
0.0
 10
8.9247957706
 20
22.2604744023
 30
0.0
 10
9.1524054054
 20
22.1456427473
 30
0.0
 10
9.4121323692
 20
22.0599060154
 30
0.0
 10
9.6942593875
 20
22.0069809639
 30
0.0
 10
9.8893491001
 20
21.9950489377
 30
0.0
 10
9.9879983079
 20
21.9950489377
 30
0.0
  0
SPLINE
  5
2C8
100
AcDbEntity
  8
0
100
AcDbSpline
 62
7
  6
CONTINUOUS
 70
0
 71
3
 72
15
 73
11
 74
0
 42
0.0000001
 43
0.0000001
 44
0.0000000001
 40
0.0
 40
0.0
 40
0.0
 40
0.0
 40
0.153610602
 40
0.3034443399
 40
0.4458055469
 40
0.57811123
 40
0.6987392422
 40
0.8076413667
 40
0.9067773089
 40
1.0
 40
1.0
 40
1.0
 40
1.0
 10
9.9879983079
 20
47.4858894787
 30
0.0
 10
9.8893492112
 20
47.4858894787
 30
0.0
 10
9.694259716
 20
47.4739575545
 30
0.0
 10
9.4121328746
 20
47.4210324796
 30
0.0
 10
9.1524058534
 20
47.3352958554
 30
0.0
 10
8.9247959882
 20
47.2204641718
 30
0.0
 10
8.7373929351
 20
47.0807665185
 30
0.0
 10
8.5966631989
 20
46.9209263511
 30
0.0
 10
8.5085159182
 20
46.7460073521
 30
0.0
 10
8.4879983079
 20
46.621738181
 30
0.0
 10
8.4879983079
 20
46.5618703454
 30
0.0
  0
SPLINE
  5
2C9
100
AcDbEntity
  8
0
100
AcDbSpline
 62
7
  6
CONTINUOUS
 70
0
 71
3
 72
26
 73
22
 74
0
 42
0.0000001
 43
0.0000001
 44
0.0000000001
 40
0.0
 40
0.0
 40
0.0
 40
0.0
 40
0.0004609946
 40
0.0014192255
 40
0.0050400351
 40
0.0109809081
 40
0.0192441109
 40
0.0298218674
 40
0.0427028672
 40
0.0578612915
 40
0.0752591402
 40
0.1166182485
 40
0.1664629903
 40
0.2243651627
 40
0.2898055354
 40
0.3622352152
 40
0.4409580843
 40
0.5252274385
 40
0.6142620953
 40
0.8032072695
 40
1.0
 40
1.0
 40
1.0
 40
1.0
 10
8.4879983079
 20
39.7711735054
 30
0.0
 10
8.4879983079
 20
39.770942855
 30
0.0
 10
8.488691504
 20
39.7704318584
 30
0.0
 10
8.4909673865
 20
39.7697136347
 30
0.0
 10
8.4962874037
 20
39.7687252728
 30
0.0
 10
8.5050644214
 20
39.7676755558
 30
0.0
 10
8.5174456191
 20
39.766517702
 30
0.0
 10
8.533259896
 20
39.7653345116
 30
0.0
 10
8.5525476447
 20
39.7641102761
 30
0.0
 10
8.5752456034
 20
39.7628616823
 30
0.0
 10
8.6121849774
 20
39.7610634654
 30
0.0
 10
8.6664767604
 20
39.7588419604
 30
0.0
 10
8.741035999
 20
39.7562863464
 30
0.0
 10
8.8276507093
 20
39.7537640953
 30
0.0
 10
8.9255717287
 20
39.7513255794
 30
0.0
 10
9.0339159186
 20
39.7490258689
 30
0.0
 10
9.1516862294
 20
39.7469100559
 30
0.0
 10
9.2777694791
 20
39.745026745
 30
0.0
 10
9.4590014001
 20
39.7428416694
 30
0.0
 10
9.6965392056
 20
39.7409749288
 30
0.0
 10
9.8895365966
 20
39.7404692082
 30
0.0
 10
9.9879983079
 20
39.7404692082
 30
0.0
  0
SPLINE
  5
2CA
100
AcDbEntity
  8
0
100
AcDbSpline
 62
7
  6
CONTINUOUS
 70
0
 71
3
 72
66
 73
62
 74
0
 42
0.0000001
 43
0.0000001
 44
0.0000000001
 40
0.0
 40
0.0
 40
0.0
 40
0.0
 40
0.0001319519
 40
0.0003318133
 40
0.0006025533
 40
0.0009453838
 40
0.0018496211
 40
0.0030476485
 40
0.0045412677
 40
0.0063316915
 40
0.0084177529
 40
0.0107967968
 40
0.0134661035
 40
0.0164229285
 40
0.0231881372
 40
0.0310728822
 40
0.0400609644
 40
0.0501362497
 40
0.0612788662
 40
0.0734646042
 40
0.0866686405
 40
0.1159914893
 40
0.1489285353
 40
0.1851775566
 40
0.2244198009
 40
0.2662841052
 40
0.3103541892
 40
0.3562091207
 40
0.4034331077
 40
0.4515746241
 40
0.5001737807
 40
0.5487720174
 40
0.5969072389
 40
0.644120855
 40
0.6899669303
 40
0.7340270488
 40
0.7758732463
 40
0.8150880974
 40
0.8513164054
 40
0.8842362116
 40
0.8993578222
 40
0.9135322533
 40
0.9267181617
 40
0.9388840707
 40
0.950008238
 40
0.9600693895
 40
0.9690469806
 40
0.9769210876
 40
0.9836718577
 40
0.9866198213
 40
0.989279564
 40
0.9916486544
 40
0.993724691
 40
0.9955053493
 40
0.9969896796
 40
0.9981787102
 40
0.9990739759
 40
0.9994122295
 40
0.9996782631
 40
0.9998732188
 40
1.0
 40
1.0
 40
1.0
 40
1.0
 10
22.4851386992
 20
10.0934205573
 30
0.0
 10
22.4838401953
 20
10.0951574928
 30
0.0
 10
22.4816066441
 20
10.1002240098
 30
0.0
 10
22.4788002233
 20
10.1096995645
 30
0.0
 10
22.4759735268
 20
10.1227883299
 30
0.0
 10
22.4717875032
 20
10.1473773182
 30
0.0
 10
22.4668694121
 20
10.1872815376
 30
0.0
 10
22.4612799076
 20
10.2461146336
 30
0.0
 10
22.4556577452
 20
10.3195681674
 30
0.0
 10
22.4499729178
 20
10.4076441986
 30
0.0
 10
22.4442423412
 20
10.5102963636
 30
0.0
 10
22.438476924
 20
10.6274104665
 30
0.0
 10
22.4326880336
 20
10.7588500812
 30
0.0
 10
22.4245827086
 20
10.9623431399
 30
0.0
 10
22.4146180339
 20
11.2515441034
 30
0.0
 10
22.4031201942
 20
11.6398703102
 30
0.0
 10
22.3916075753
 20
12.0826186006
 30
0.0
 10
22.3800722805
 20
12.5789259266
 30
0.0
 10
22.3685141832
 20
13.1277995514
 30
0.0
 10
22.3569404109
 20
13.7281048018
 30
0.0
 10
22.3409410326
 20
14.6271747226
 30
0.0
 10
22.3212113551
 20
15.8672823679
 30
0.0
 10
22.2981989635
 20
17.4861314115
 30
0.0
 10
22.2751455482
 20
19.2680218819
 30
0.0
 10
22.2520680478
 20
21.1966443697
 30
0.0
 10
22.2289810089
 20
23.2538159003
 30
0.0
 10
22.2058761233
 20
25.4196744064
 30
0.0
 10
22.1827534486
 20
27.6736248802
 30
0.0
 10
22.1596259008
 20
29.9944934384
 30
0.0
 10
22.1364955993
 20
32.3604659959
 30
0.0
 10
22.1133660021
 20
34.7490256686
 30
0.0
 10
22.0902361713
 20
37.1374818782
 30
0.0
 10
22.0671046363
 20
39.5031653866
 30
0.0
 10
22.0439761396
 20
41.8236144569
 30
0.0
 10
22.02085554
 20
44.0770851395
 30
0.0
 10
21.9977518952
 20
46.2423366989
 30
0.0
 10
21.9746642896
 20
48.2985965757
 30
0.0
 10
21.9515823633
 20
50.226130726
 30
0.0
 10
21.928529274
 20
52.0069470602
 30
0.0
 10
21.9088419869
 20
53.3917961224
 30
0.0
 10
21.8929426958
 20
54.4142015324
 30
0.0
 10
21.881364748
 20
55.1123043265
 30
0.0
 10
21.8697909664
 20
55.761822564
 30
0.0
 10
21.8582211633
 20
56.3612006718
 30
0.0
 10
21.8466622138
 20
56.9092126925
 30
0.0
 10
21.8351154238
 20
57.4048116335
 30
0.0
 10
21.823590251
 20
57.8469798521
 30
0.0
 10
21.8120955341
 20
58.2347212882
 30
0.0
 10
21.8021700029
 20
58.5233654495
 30
0.0
 10
21.794100919
 20
58.7263194057
 30
0.0
 10
21.7883304929
 20
58.8572929955
 30
0.0
 10
21.7825653598
 20
58.9739210332
 30
0.0
 10
21.7768087116
 20
59.0760822405
 30
0.0
 10
21.7710595266
 20
59.1636753156
 30
0.0
 10
21.7653378844
 20
59.2366590955
 30
0.0
 10
21.7596521361
 20
59.2950327259
 30
0.0
 10
21.7546775958
 20
59.3345570968
 30
0.0
 10
21.750483778
 20
59.3588391455
 30
0.0
 10
21.7476807963
 20
59.3716961621
 30
0.0
 10
21.7449243047
 20
59.3809286511
 30
0.0
 10
21.7427490834
 20
59.3858449412
 30
0.0
 10
21.7414783451
 20
59.3874962785
 30
0.0
  0
SPLINE
  5
2CB
100
AcDbEntity
  8
0
100
AcDbSpline
 62
7
  6
CONTINUOUS
 70
0
 71
3
 72
65
 73
61
 74
0
 42
0.0000001
 43
0.0000001
 44
0.0000000001
 40
0.0
 40
0.0
 40
0.0
 40
0.0
 40
0.0001277153
 40
0.0003246194
 40
0.0005932451
 40
0.0009344375
 40
0.001835556
 40
0.003028706
 40
0.0045134334
 40
0.0062889692
 40
0.0083548202
 40
0.010710703
 40
0.0133562897
 40
0.0162912223
 40
0.0230273336
 40
0.0309052781
 40
0.0398976206
 40
0.0499760091
 40
0.0611134392
 40
0.0732843468
 40
0.0864630987
 40
0.1157306005
 40
0.1486664067
 40
0.184931026
 40
0.2241602535
 40
0.2660033071
 40
0.3100743728
 40
0.3559508465
 40
0.4031821773
 40
0.4513292794
 40
0.4999409558
 40
0.5485506637
 40
0.5967033026
 40
0.6439427762
 40
0.6898135447
 40
0.7338767187
 40
0.7757299265
 40
0.8149876319
 40
0.8512481012
 40
0.8841646233
 40
0.9134450631
 40
0.9266424809
 40
0.9388346564
 40
0.9499861823
 40
0.9600620199
 40
0.9690376461
 40
0.9768987695
 40
0.9836316554
 40
0.9865711143
 40
0.9892240781
 40
0.991589199
 40
0.9936651577
 40
0.9954506829
 40
0.9969446257
 40
0.9981460612
 40
0.9990544297
 40
0.9993988318
 40
0.9996703814
 40
0.9998699248
 40
1.0
 40
1.0
 40
1.0
 40
1.0
 10
29.9855497209
 20
10.0931709486
 30
0.0
 10
29.984290992
 20
10.0948507765
 30
0.0
 10
29.9821437985
 20
10.09982858
 30
0.0
 10
29.9794053595
 20
10.1091603236
 30
0.0
 10
29.9766117036
 20
10.1221451555
 30
0.0
 10
29.9724193227
 20
10.1466180257
 30
0.0
 10
29.9674240906
 20
10.1863543839
 30
0.0
 10
29.9616991044
 20
10.2448976244
 30
0.0
 10
29.9559363382
 20
10.3178706999
 30
0.0
 10
29.9501568143
 20
10.4052193839
 30
0.0
 10
29.9443846809
 20
10.506913972
 30
0.0
 10
29.9386158211
 20
10.6229281285
 30
0.0
 10
29.9328493405
 20
10.7532420411
 30
0.0
 10
29.9247844328
 20
10.9555151441
 30
0.0
 10
29.9148655615
 20
11.2437776625
 30
0.0
 10
29.9033736397
 20
11.6315976926
 30
0.0
 10
29.8918425243
 20
12.0743706243
 30
0.0
 10
29.8802910291
 20
12.5707311422
 30
0.0
 10
29.8687321368
 20
13.1193463576
 30
0.0
 10
29.8571634139
 20
13.7189284937
 30
0.0
 10
29.8411610743
 20
14.6164613026
 30
0.0
 10
29.8213921136
 20
15.8552669433
 30
0.0
 10
29.7983889701
 20
17.4735003521
 30
0.0
 10
29.7753439287
 20
19.2554767539
 30
0.0
 10
29.7522566853
 20
21.1838612874
 30
0.0
 10
29.7291497679
 20
23.2405591188
 30
0.0
 10
29.7060324498
 20
25.4065159493
 30
0.0
 10
29.6829124095
 20
27.6610380522
 30
0.0
 10
29.6597793078
 20
29.9825562253
 30
0.0
 10
29.636639758
 20
32.3490316787
 30
0.0
 10
29.6134980453
 20
34.7381628682
 30
0.0
 10
29.5903580683
 20
37.1273850799
 30
0.0
 10
29.5672234717
 20
39.4940530707
 30
0.0
 10
29.5440934651
 20
41.8157023492
 30
0.0
 10
29.520964728
 20
44.0701347177
 30
0.0
 10
29.49784447
 20
46.2360349285
 30
0.0
 10
29.4747407869
 20
48.2932380641
 30
0.0
 10
29.451670404
 20
50.2221895805
 30
0.0
 10
29.4286165746
 20
52.0042487895
 30
0.0
 10
29.4055924688
 20
53.6223093642
 30
0.0
 10
29.3858331821
 20
54.8613176468
 30
0.0
 10
29.3698377897
 20
55.7597197027
 30
0.0
 10
29.358270793
 20
56.3601900545
 30
0.0
 10
29.3467160355
 20
56.9093447845
 30
0.0
 10
29.3351677579
 20
57.405620376
 30
0.0
 10
29.3236334532
 20
57.8477999001
 30
0.0
 10
29.3121301224
 20
58.2350151226
 30
0.0
 10
29.302197543
 20
58.5230218951
 30
0.0
 10
29.2941266067
 20
58.7254374832
 30
0.0
 10
29.2883550532
 20
58.8560989671
 30
0.0
 10
29.2825878018
 20
58.972552927
 30
0.0
 10
29.2768267714
 20
59.0747310037
 30
0.0
 10
29.2710719549
 20
59.1625640569
 30
0.0
 10
29.2653445607
 20
59.235992988
 30
0.0
 10
29.2596519783
 20
59.2949481267
 30
0.0
 10
29.2546736879
 20
59.3349968977
 30
0.0
 10
29.2504797168
 20
59.3596930137
 30
0.0
 10
29.2476740247
 20
59.372822215
 30
0.0
 10
29.2449136369
 20
59.382284567
 30
0.0
 10
29.2427417795
 20
59.3873398503
 30
0.0
 10
29.2414697463
 20
59.3890581321
 30
0.0
  0
SPLINE
  5
2CC
100
AcDbEntity
  8
0
100
AcDbSpline
 62
7
  6
CONTINUOUS
 70
0
 71
3
 72
15
 73
11
 74
0
 42
0.0000001
 43
0.0000001
 44
0.0000000001
 40
0.0
 40
0.0
 40
0.0
 40
0.0
 40
0.1276904907
 40
0.2550633156
 40
0.381604918
 40
0.5071879476
 40
0.6316854857
 40
0.755137141
 40
0.8778611768
 40
1.0
 40
1.0
 40
1.0
 40
1.0
 10
9.9879983079
 20
60.3629924068
 30
0.0
 10
9.8890715416
 20
60.3629924068
 30
0.0
 10
9.6909363863
 20
60.3437069384
 30
0.0
 10
9.4059936657
 20
60.2584552669
 30
0.0
 10
9.1442728476
 20
60.1204087058
 30
0.0
 10
8.915971313
 20
59.9357306892
 30
0.0
 10
8.729606689
 20
59.7119061355
 30
0.0
 10
8.5916550471
 20
59.4578730978
 30
0.0
 10
8.5070951725
 20
59.1834617577
 30
0.0
 10
8.4879983079
 20
58.9932280145
 30
0.0
 10
8.4879983079
 20
58.8986023399
 30
0.0
  0
SPLINE
  5
2CD
100
AcDbEntity
  8
0
100
AcDbSpline
 62
7
  6
CONTINUOUS
 70
0
 71
3
 72
66
 73
62
 74
0
 42
0.0000001
 43
0.0000001
 44
0.0000000001
 40
0.0
 40
0.0
 40
0.0
 40
0.0
 40
0.0001322064
 40
0.0003335301
 40
0.0006066866
 40
0.0009526317
 40
0.0018642001
 40
0.0030694037
 40
0.0045681207
 40
0.0063597864
 40
0.008443062
 40
0.0108161695
 40
0.0134772851
 40
0.0164245601
 40
0.0231701513
 40
0.0310393535
 40
0.0400202021
 40
0.05010039
 40
0.0612571334
 40
0.0734563992
 40
0.0866636054
 40
0.115965388
 40
0.1488898802
 40
0.1851523911
 40
0.2244177041
 40
0.2662805482
 40
0.3103468246
 40
0.3562137813
 40
0.4034520794
 40
0.4516033372
 40
0.5002092144
 40
0.5488163015
 40
0.5969568604
 40
0.6441784036
 40
0.6900431967
 40
0.7341083986
 40
0.7759458813
 40
0.8151598386
 40
0.8514078332
 40
0.8843351268
 40
0.8994436698
 40
0.9136014846
 40
0.9267755258
 40
0.9389376191
 40
0.9500649271
 40
0.9601347434
 40
0.9691215054
 40
0.9769971233
 40
0.9837342788
 40
0.9866703966
 40
0.989316844
 40
0.991672667
 40
0.9937369411
 40
0.9955088001
 40
0.9969879063
 40
0.9981746871
 40
0.9990699817
 40
0.999408885
 40
0.9996758721
 40
0.9998719873
 40
1.0
 40
1.0
 40
1.0
 40
1.0
 10
25.4852598814
 20
10.0921384674
 30
0.0
 10
25.4839622764
 20
10.0938813579
 30
0.0
 10
25.4817423181
 20
10.0989867298
 30
0.0
 10
25.4789459358
 20
10.1085343408
 30
0.0
 10
25.4761243009
 20
10.1217427059
 30
0.0
 10
25.4719379827
 20
10.1465461101
 30
0.0
 10
25.4670094797
 20
10.1867416806
 30
0.0
 10
25.4613990207
 20
10.2458977355
 30
0.0
 10
25.4557548984
 20
10.3195740953
 30
0.0
 10
25.4500530187
 20
10.4077096539
 30
0.0
 10
25.4443135901
 20
10.5102406364
 30
0.0
 10
25.4385459132
 20
10.627079102
 30
0.0
 10
25.432759124
 20
10.7581324087
 30
0.0
 10
25.4246588932
 20
10.9610160177
 30
0.0
 10
25.4146971911
 20
11.2494886918
 30
0.0
 10
25.4031944917
 20
11.6371269228
 30
0.0
 10
25.39167338
 20
12.0795916699
 30
0.0
 10
25.3801348741
 20
12.5761046565
 30
0.0
 10
25.3685799069
 20
13.1255266123
 30
0.0
 10
25.3570095312
 20
13.7263529047
 30
0.0
 10
25.3410131888
 20
14.6253724273
 30
0.0
 10
25.321265521
 20
15.8650087159
 30
0.0
 10
25.2982408945
 20
17.483565181
 30
0.0
 10
25.2751854637
 20
19.2658925332
 30
0.0
 10
25.2521176695
 20
21.1951378603
 30
0.0
 10
25.2290194415
 20
23.2526507264
 30
0.0
 10
25.2059031327
 20
25.4186716419
 30
0.0
 10
25.1827748
 20
27.6730459038
 30
0.0
 10
25.1596469509
 20
29.9945625929
 30
0.0
 10
25.1365150634
 20
32.3610971493
 30
0.0
 10
25.1133785721
 20
34.7501295521
 30
0.0
 10
25.0902403471
 20
37.1389860868
 30
0.0
 10
25.0671026563
 20
39.5050892309
 30
0.0
 10
25.0439708275
 20
41.8261190753
 30
0.0
 10
25.0208524634
 20
44.0801648256
 30
0.0
 10
24.9977399038
 20
46.2457157096
 30
0.0
 10
24.974638318
 20
48.3019499086
 30
0.0
 10
24.9515507131
 20
50.2296954372
 30
0.0
 10
24.928503603
 20
52.0109861241
 30
0.0
 10
24.9088178783
 20
53.3961000022
 30
0.0
 10
24.8929037435
 20
54.418164623
 30
0.0
 10
24.8813190262
 20
55.1156008816
 30
0.0
 10
24.8697415323
 20
55.7646035465
 30
0.0
 10
24.8581714637
 20
56.3637897146
 30
0.0
 10
24.8466119011
 20
56.9119460921
 30
0.0
 10
24.8350653743
 20
57.4079016673
 30
0.0
 10
24.8235418012
 20
57.8503985216
 30
0.0
 10
24.8120514871
 20
58.2381010977
 30
0.0
 10
24.802120537
 20
58.5263581474
 30
0.0
 10
24.7940428048
 20
58.7286791264
 30
0.0
 10
24.7882701821
 20
58.8590238655
 30
0.0
 10
24.782502314
 20
58.9750238895
 30
0.0
 10
24.7767418266
 20
59.0766304219
 30
0.0
 10
24.7709884929
 20
59.1638006072
 30
0.0
 10
24.7652637743
 20
59.2365175032
 30
0.0
 10
24.7595737873
 20
59.2947693296
 30
0.0
 10
24.7545946482
 20
59.3342676103
 30
0.0
 10
24.7503972605
 20
59.3585772115
 30
0.0
 10
24.7475887093
 20
59.3714790051
 30
0.0
 10
24.744825362
 20
59.3807684559
 30
0.0
 10
24.7426464462
 20
59.3857232916
 30
0.0
 10
24.7413755463
 20
59.387400036
 30
0.0
  0
SPLINE
  5
2CE
100
AcDbEntity
  8
0
100
AcDbSpline
 62
7
  6
CONTINUOUS
 70
0
 71
3
 72
65
 73
61
 74
0
 42
0.0000001
 43
0.0000001
 44
0.0000000001
 40
0.0
 40
0.0
 40
0.0
 40
0.0
 40
0.0001277153
 40
0.0003246194
 40
0.0005932451
 40
0.0009344375
 40
0.001835556
 40
0.003028706
 40
0.0045134334
 40
0.0062889692
 40
0.0083548202
 40
0.010710703
 40
0.0133562897
 40
0.0162912223
 40
0.0230273336
 40
0.0309052781
 40
0.0398976206
 40
0.0499760091
 40
0.0611134392
 40
0.0732843468
 40
0.0864630987
 40
0.1157306005
 40
0.1486664067
 40
0.184931026
 40
0.2241602535
 40
0.2660033071
 40
0.3100743728
 40
0.3559508465
 40
0.4031821773
 40
0.4513292794
 40
0.4999409558
 40
0.5485506637
 40
0.5967033026
 40
0.6439427762
 40
0.6898135447
 40
0.7338767187
 40
0.7757299265
 40
0.8149876319
 40
0.8512481012
 40
0.8841646233
 40
0.9134450631
 40
0.9266424809
 40
0.9388346564
 40
0.9499861823
 40
0.9600620199
 40
0.9690376461
 40
0.9768987695
 40
0.9836316554
 40
0.9865711143
 40
0.9892240781
 40
0.991589199
 40
0.9936651577
 40
0.9954506829
 40
0.9969446257
 40
0.9981460612
 40
0.9990544297
 40
0.9993988318
 40
0.9996703814
 40
0.9998699248
 40
1.0
 40
1.0
 40
1.0
 40
1.0
 10
23.9855497209
 20
10.0931709486
 30
0.0
 10
23.984290992
 20
10.0948507765
 30
0.0
 10
23.9821437985
 20
10.09982858
 30
0.0
 10
23.9794053595
 20
10.1091603236
 30
0.0
 10
23.9766117036
 20
10.1221451555
 30
0.0
 10
23.9724193227
 20
10.1466180257
 30
0.0
 10
23.9674240906
 20
10.1863543839
 30
0.0
 10
23.9616991044
 20
10.2448976244
 30
0.0
 10
23.9559363382
 20
10.3178706999
 30
0.0
 10
23.9501568143
 20
10.4052193839
 30
0.0
 10
23.944384681
 20
10.506913972
 30
0.0
 10
23.9386158211
 20
10.6229281285
 30
0.0
 10
23.9328493405
 20
10.7532420411
 30
0.0
 10
23.9247844328
 20
10.9555151441
 30
0.0
 10
23.9148655615
 20
11.2437776625
 30
0.0
 10
23.9033736397
 20
11.6315976926
 30
0.0
 10
23.8918425243
 20
12.0743706243
 30
0.0
 10
23.8802910291
 20
12.5707311422
 30
0.0
 10
23.8687321368
 20
13.1193463576
 30
0.0
 10
23.8571634139
 20
13.7189284937
 30
0.0
 10
23.8411610743
 20
14.6164613026
 30
0.0
 10
23.8213921136
 20
15.8552669433
 30
0.0
 10
23.7983889701
 20
17.4735003521
 30
0.0
 10
23.7753439287
 20
19.2554767539
 30
0.0
 10
23.7522566853
 20
21.1838612874
 30
0.0
 10
23.729149768
 20
23.2405591188
 30
0.0
 10
23.7060324498
 20
25.4065159493
 30
0.0
 10
23.6829124095
 20
27.6610380522
 30
0.0
 10
23.6597793078
 20
29.9825562253
 30
0.0
 10
23.636639758
 20
32.3490316787
 30
0.0
 10
23.6134980453
 20
34.7381628682
 30
0.0
 10
23.5903580683
 20
37.1273850799
 30
0.0
 10
23.5672234718
 20
39.4940530707
 30
0.0
 10
23.5440934651
 20
41.8157023492
 30
0.0
 10
23.520964728
 20
44.0701347177
 30
0.0
 10
23.49784447
 20
46.2360349285
 30
0.0
 10
23.4747407869
 20
48.2932380641
 30
0.0
 10
23.451670404
 20
50.2221895805
 30
0.0
 10
23.4286165746
 20
52.0042487895
 30
0.0
 10
23.4055924688
 20
53.6223093642
 30
0.0
 10
23.3858331821
 20
54.8613176468
 30
0.0
 10
23.3698377897
 20
55.7597197027
 30
0.0
 10
23.358270793
 20
56.3601900545
 30
0.0
 10
23.3467160356
 20
56.9093447845
 30
0.0
 10
23.3351677579
 20
57.405620376
 30
0.0
 10
23.3236334532
 20
57.8477999001
 30
0.0
 10
23.3121301224
 20
58.2350151226
 30
0.0
 10
23.302197543
 20
58.5230218951
 30
0.0
 10
23.2941266067
 20
58.7254374832
 30
0.0
 10
23.2883550532
 20
58.8560989671
 30
0.0
 10
23.2825878018
 20
58.972552927
 30
0.0
 10
23.2768267714
 20
59.0747310037
 30
0.0
 10
23.2710719549
 20
59.1625640569
 30
0.0
 10
23.2653445607
 20
59.235992988
 30
0.0
 10
23.2596519783
 20
59.2949481267
 30
0.0
 10
23.2546736879
 20
59.3349968977
 30
0.0
 10
23.2504797168
 20
59.3596930137
 30
0.0
 10
23.2476740248
 20
59.372822215
 30
0.0
 10
23.2449136369
 20
59.382284567
 30
0.0
 10
23.2427417795
 20
59.3873398503
 30
0.0
 10
23.2414697463
 20
59.3890581321
 30
0.0
  0
ENDSEC
  0
SECTION
  2
OBJECTS
  0
DICTIONARY
  5
C
100
AcDbDictionary
280
0
281
1
  3
ACAD_GROUP
350
D
  3
ACAD_MLINESTYLE
350
17
  3
ACAD_LAYOUT
350
1A
  3
ACAD_PLOTSETTINGS
350
19
  3
ACAD_PLOTSTYLENAME
350
E
  0
DICTIONARY
  5
D
102
{ACAD_REACTORS
330
C
102
}
100
AcDbDictionary
280
0
281
1
  0
ACDBDICTIONARYWDFLT
  5
E
102
{ACAD_REACTORS
330
C
102
}
100
AcDbDictionary
281
1
  3
Normal
350
F
100
AcDbDictionaryWithDefault
340
F
  0
DICTIONARY
  5
17
102
{ACAD_REACTORS
330
C
102
}
100
AcDbDictionary
280
0
281
1
  3
Standard
350
18
  0
DICTIONARY
  5
19
102
{ACAD_REACTORS
330
C
102
}
100
AcDbDictionary
281
1
  0
DICTIONARY
  5
1A
102
{ACAD_REACTORS
330
C
102
}
100
AcDbDictionary
281
1
  3
Model
350
2CF
  3
Layout1
350
2D0
  0
ACDBPLACEHOLDER
  5
F
102
{ACAD_REACTORS
330
E
102
}
  0
MLINESTYLE
  5
18
102
{ACAD_REACTORS
330
17
102
}
100
AcDbMlineStyle
  2
STANDARD
 70
0
  3

 62
256
 51
90.0
 52
90.0
 71
2
 49
0.5
 62
256
  6
BYLAYER
 49
-0.5
 62
256
  6
BYLAYER
  0
LAYOUT
  5
2CF
102
{ACAD_REACTORS
330
1A
102
}
100
AcDbPlotSettings
  1

  2
none_device
  4

  6

 40
0.0
 41
0.0
 42
0.0
 43
0.0
 44
210.0
 45
297.0
 46
0.0
 47
0.0
 48
0.0
 49
0.0
140
0.0
141
0.0
142
1.0
143
1.0
 70
1024
 72
1
 73
0
 74
0
  7

 75
0
147
1.0
148
0.0
149
0.0
100
AcDbLayout
  1
Model
 70
0
 71
0
 10
0.0
 20
0.0
 11
210.0
 21
297.0
 12
0.0
 22
0.0
 32
0.0
 14
0.0
 24
0.0
 34
0.0
 15
0.0
 25
0.0
 35
0.0
146
0.0
 13
0.0
 23
0.0
 33
0.0
 16
1.0
 26
0.0
 36
0.0
 17
0.0
 27
1.0
 37
0.0
 76
0
330
210
345
0
346
0
  0
LAYOUT
  5
2D0
102
{ACAD_REACTORS
330
1A
102
}
100
AcDbPlotSettings
  1

  2
none_device
  4

  6

 40
0.0
 41
0.0
 42
0.0
 43
0.0
 44
210.0
 45
297.0
 46
0.0
 47
0.0
 48
0.0
 49
0.0
140
0.0
141
0.0
142
1.0
143
1.0
 70
0
 72
1
 73
0
 74
0
  7

 75
0
147
1.0
148
0.0
149
0.0
100
AcDbLayout
  1
Layout1
 70
0
 71
1
 10
0.0
 20
0.0
 11
210.0
 21
297.0
 12
0.0
 22
0.0
 32
0.0
 14
0.0
 24
0.0
 34
0.0
 15
0.0
 25
0.0
 35
0.0
146
0.0
 13
0.0
 23
0.0
 33
0.0
 16
1.0
 26
0.0
 36
0.0
 17
0.0
 27
1.0
 37
0.0
 76
0
330
211
345
0
346
0
  0
ENDSEC
  0
EOF
