ISO-10303-21;
HEADER;
FILE_DESCRIPTION(('CATIA V5R20 STEP214','CAx-IF Rec.Pracs.--- Model Styling and Organization---1.2---2011-12-15'),'2;1');

FILE_NAME('Z:\\w006775_CT07295\\463100000.stp','2018-01-23T13:27:49+00:00',('Weidmueller Interface'),('WI'),'CATIA Version 5-6 Release 2014 SP4 HF52','CATIA V5 STEP AP214','none');

FILE_SCHEMA(('AUTOMOTIVE_DESIGN { 1 0 10303 214 1 1 1 1 }'));

ENDSEC;
DATA;
#5=PRODUCT('463100000_H1,5-14 R','','Aderendh\X2\00FC\X0\lse mit Kunststoffkragen',(#2)) ;
#2=PRODUCT_CONTEXT(' ',#1,'mechanical') ;
#1=APPLICATION_CONTEXT('automotive design') ;
#10=PRODUCT_DEFINITION('',' ',#6,#3) ;
#3=PRODUCT_DEFINITION_CONTEXT('part definition',#1,' ') ;
#11=PRODUCT_DEFINITION_SHAPE(' ',' ',#10) ;
#376=MECHANICAL_DESIGN_GEOMETRIC_PRESENTATION_REPRESENTATION(' ',(#79,#97,#138,#156,#171,#210,#223,#255,#268,#309,#327,#350,#358,#373,#29),#16) ;
#19=SHAPE_REPRESENTATION(' ',(#18),#16) ;
#18=AXIS2_PLACEMENT_3D(' ',#17,$,$) ;
#35=AXIS2_PLACEMENT_3D('Cylinder Axis2P3D',#32,#33,#34) ;
#39=AXIS2_PLACEMENT_3D('Circle Axis2P3D',#37,#38,$) ;
#55=AXIS2_PLACEMENT_3D('Circle Axis2P3D',#53,#54,$) ;
#82=AXIS2_PLACEMENT_3D('Circle Axis2P3D',#80,#81,$) ;
#87=AXIS2_PLACEMENT_3D('Circle Axis2P3D',#85,#86,$) ;
#101=AXIS2_PLACEMENT_3D('Cylinder Axis2P3D',#98,#99,#100) ;
#114=AXIS2_PLACEMENT_3D('Circle Axis2P3D',#112,#113,$) ;
#128=AXIS2_PLACEMENT_3D('Circle Axis2P3D',#126,#127,$) ;
#141=AXIS2_PLACEMENT_3D('Circle Axis2P3D',#139,#140,$) ;
#146=AXIS2_PLACEMENT_3D('Circle Axis2P3D',#144,#145,$) ;
#160=AXIS2_PLACEMENT_3D('Plane Axis2P3D',#157,#158,#159) ;
#175=AXIS2_PLACEMENT_3D('Cone Axis2P3D',#172,#173,#174) ;
#186=AXIS2_PLACEMENT_3D('Circle Axis2P3D',#184,#185,$) ;
#213=AXIS2_PLACEMENT_3D('Circle Axis2P3D',#211,#212,$) ;
#227=AXIS2_PLACEMENT_3D('Cylinder Axis2P3D',#224,#225,#226) ;
#238=AXIS2_PLACEMENT_3D('Circle Axis2P3D',#236,#237,$) ;
#258=AXIS2_PLACEMENT_3D('Circle Axis2P3D',#256,#257,$) ;
#272=AXIS2_PLACEMENT_3D('Cylinder Axis2P3D',#269,#270,#271) ;
#276=AXIS2_PLACEMENT_3D('Circle Axis2P3D',#274,#275,$) ;
#292=AXIS2_PLACEMENT_3D('Circle Axis2P3D',#290,#291,$) ;
#312=AXIS2_PLACEMENT_3D('Circle Axis2P3D',#310,#311,$) ;
#317=AXIS2_PLACEMENT_3D('Circle Axis2P3D',#315,#316,$) ;
#331=AXIS2_PLACEMENT_3D('Cone Axis2P3D',#328,#329,#330) ;
#362=AXIS2_PLACEMENT_3D('Plane Axis2P3D',#359,#360,#361) ;
#17=CARTESIAN_POINT(' ',(0.,0.,0.)) ;
#32=CARTESIAN_POINT('Axis2P3D Location',(2.,2.,10.)) ;
#37=CARTESIAN_POINT('Axis2P3D Location',(2.,2.,14.)) ;
#41=CARTESIAN_POINT('Vertex',(2.4794255386,1.12241743811,14.)) ;
#43=CARTESIAN_POINT('Vertex',(1.5205744614,2.87758256189,14.)) ;
#46=CARTESIAN_POINT('Line Origine',(2.4794255386,1.12241743811,10.)) ;
#50=CARTESIAN_POINT('Vertex',(2.4794255386,1.12241743811,6.)) ;
#53=CARTESIAN_POINT('Axis2P3D Location',(2.,2.,6.)) ;
#57=CARTESIAN_POINT('Vertex',(1.5205744614,2.87758256189,6.)) ;
#60=CARTESIAN_POINT('Line Origine',(1.5205744614,2.87758256189,10.)) ;
#80=CARTESIAN_POINT('Axis2P3D Location',(2.,2.,14.)) ;
#85=CARTESIAN_POINT('Axis2P3D Location',(2.,2.,6.)) ;
#98=CARTESIAN_POINT('Axis2P3D Location',(2.,2.,10.)) ;
#103=CARTESIAN_POINT('Line Origine',(2.40751170781,1.25405482239,10.)) ;
#107=CARTESIAN_POINT('Vertex',(2.40751170781,1.25405482239,5.75980762114)) ;
#109=CARTESIAN_POINT('Vertex',(2.40751170781,1.25405482239,14.)) ;
#112=CARTESIAN_POINT('Axis2P3D Location',(2.,2.,14.)) ;
#116=CARTESIAN_POINT('Vertex',(1.59248829219,2.74594517761,14.)) ;
#119=CARTESIAN_POINT('Line Origine',(1.59248829219,2.74594517761,10.)) ;
#123=CARTESIAN_POINT('Vertex',(1.59248829219,2.74594517761,5.75980762114)) ;
#126=CARTESIAN_POINT('Axis2P3D Location',(2.,2.,5.75980762114)) ;
#139=CARTESIAN_POINT('Axis2P3D Location',(2.,2.,14.)) ;
#144=CARTESIAN_POINT('Axis2P3D Location',(2.,2.,5.75980762114)) ;
#157=CARTESIAN_POINT('Axis2P3D Location',(2.,1.,14.)) ;
#172=CARTESIAN_POINT('Axis2P3D Location',(2.,2.,6.)) ;
#177=CARTESIAN_POINT('Line Origine',(2.71913830791,0.683626157164,5.13397459622)) ;
#181=CARTESIAN_POINT('Vertex',(2.95885107721,0.244834876219,4.26794919243)) ;
#184=CARTESIAN_POINT('Axis2P3D Location',(2.,2.,4.26794919243)) ;
#188=CARTESIAN_POINT('Vertex',(1.04114892279,3.75516512378,4.26794919243)) ;
#191=CARTESIAN_POINT('Line Origine',(1.28086169209,3.31637384284,5.13397459622)) ;
#211=CARTESIAN_POINT('Axis2P3D Location',(2.,2.,4.26794919243)) ;
#224=CARTESIAN_POINT('Axis2P3D Location',(2.,2.,3.)) ;
#229=CARTESIAN_POINT('Line Origine',(2.95885107721,0.244834876219,2.13397459622)) ;
#233=CARTESIAN_POINT('Vertex',(2.95885107721,0.244834876219,0.)) ;
#236=CARTESIAN_POINT('Axis2P3D Location',(2.,2.,0.)) ;
#240=CARTESIAN_POINT('Vertex',(1.04114892279,3.75516512378,0.)) ;
#243=CARTESIAN_POINT('Line Origine',(1.04114892279,3.75516512378,2.13397459622)) ;
#256=CARTESIAN_POINT('Axis2P3D Location',(2.,2.,0.)) ;
#269=CARTESIAN_POINT('Axis2P3D Location',(2.,2.,3.)) ;
#274=CARTESIAN_POINT('Axis2P3D Location',(2.,2.,0.)) ;
#278=CARTESIAN_POINT('Vertex',(2.83899469256,0.464230516692,-4.4408920985E-016)) ;
#280=CARTESIAN_POINT('Vertex',(1.16100530744,3.53576948331,-4.4408920985E-016)) ;
#283=CARTESIAN_POINT('Line Origine',(2.83899469256,0.464230516692,2.10048094716)) ;
#287=CARTESIAN_POINT('Vertex',(2.83899469256,0.464230516692,4.20096189432)) ;
#290=CARTESIAN_POINT('Axis2P3D Location',(2.,2.,4.20096189432)) ;
#294=CARTESIAN_POINT('Vertex',(1.16100530744,3.53576948331,4.20096189432)) ;
#297=CARTESIAN_POINT('Line Origine',(1.16100530744,3.53576948331,2.10048094716)) ;
#310=CARTESIAN_POINT('Axis2P3D Location',(2.,2.,0.)) ;
#315=CARTESIAN_POINT('Axis2P3D Location',(2.,2.,4.20096189432)) ;
#328=CARTESIAN_POINT('Axis2P3D Location',(2.,2.,5.75980762114)) ;
#333=CARTESIAN_POINT('Line Origine',(2.62325320019,0.859142669543,4.98038475773)) ;
#338=CARTESIAN_POINT('Line Origine',(1.37674679981,3.14085733046,4.98038475773)) ;
#359=CARTESIAN_POINT('Axis2P3D Location',(2.,0.,0.)) ;
#33=DIRECTION('Axis2P3D Direction',(0.,0.,1.)) ;
#34=DIRECTION('Axis2P3D XDirection',(0.479425538604,-0.87758256189,0.)) ;
#38=DIRECTION('Axis2P3D Direction',(0.,0.,1.)) ;
#47=DIRECTION('Vector Direction',(0.,0.,1.)) ;
#54=DIRECTION('Axis2P3D Direction',(0.,0.,1.)) ;
#61=DIRECTION('Vector Direction',(0.,0.,1.)) ;
#81=DIRECTION('Axis2P3D Direction',(0.,0.,1.)) ;
#86=DIRECTION('Axis2P3D Direction',(0.,0.,1.)) ;
#99=DIRECTION('Axis2P3D Direction',(0.,0.,1.)) ;
#100=DIRECTION('Axis2P3D XDirection',(0.479425538604,-0.87758256189,0.)) ;
#104=DIRECTION('Vector Direction',(0.,0.,1.)) ;
#113=DIRECTION('Axis2P3D Direction',(0.,0.,1.)) ;
#120=DIRECTION('Vector Direction',(0.,0.,1.)) ;
#127=DIRECTION('Axis2P3D Direction',(0.,0.,1.)) ;
#140=DIRECTION('Axis2P3D Direction',(0.,0.,1.)) ;
#145=DIRECTION('Axis2P3D Direction',(0.,0.,1.)) ;
#158=DIRECTION('Axis2P3D Direction',(0.,0.,1.)) ;
#159=DIRECTION('Axis2P3D XDirection',(1.,0.,0.)) ;
#173=DIRECTION('Axis2P3D Direction',(-0.,-0.,-1.)) ;
#174=DIRECTION('Axis2P3D XDirection',(0.479425538604,-0.87758256189,0.)) ;
#178=DIRECTION('Vector Direction',(0.239712769302,-0.438791280945,-0.866025403784)) ;
#185=DIRECTION('Axis2P3D Direction',(0.,0.,-1.)) ;
#192=DIRECTION('Vector Direction',(-0.239712769302,0.438791280945,-0.866025403784)) ;
#212=DIRECTION('Axis2P3D Direction',(0.,0.,-1.)) ;
#225=DIRECTION('Axis2P3D Direction',(0.,0.,1.)) ;
#226=DIRECTION('Axis2P3D XDirection',(0.479425538604,-0.87758256189,0.)) ;
#230=DIRECTION('Vector Direction',(0.,0.,1.)) ;
#237=DIRECTION('Axis2P3D Direction',(0.,0.,1.)) ;
#244=DIRECTION('Vector Direction',(0.,0.,1.)) ;
#257=DIRECTION('Axis2P3D Direction',(0.,0.,1.)) ;
#270=DIRECTION('Axis2P3D Direction',(0.,0.,1.)) ;
#271=DIRECTION('Axis2P3D XDirection',(0.479425538604,-0.87758256189,0.)) ;
#275=DIRECTION('Axis2P3D Direction',(0.,0.,1.)) ;
#284=DIRECTION('Vector Direction',(0.,0.,1.)) ;
#291=DIRECTION('Axis2P3D Direction',(0.,0.,1.)) ;
#298=DIRECTION('Vector Direction',(0.,0.,1.)) ;
#311=DIRECTION('Axis2P3D Direction',(0.,0.,1.)) ;
#316=DIRECTION('Axis2P3D Direction',(0.,0.,1.)) ;
#329=DIRECTION('Axis2P3D Direction',(-0.,-0.,-1.)) ;
#330=DIRECTION('Axis2P3D XDirection',(0.479425538604,-0.87758256189,0.)) ;
#334=DIRECTION('Vector Direction',(0.239712769302,-0.438791280945,-0.866025403784)) ;
#339=DIRECTION('Vector Direction',(-0.239712769302,0.438791280945,-0.866025403784)) ;
#360=DIRECTION('Axis2P3D Direction',(0.,0.,1.)) ;
#361=DIRECTION('Axis2P3D XDirection',(1.,0.,0.)) ;
#30=PRESENTATION_LAYER_ASSIGNMENT('41',' ',(#21)) ;
#8=PRODUCT_RELATED_PRODUCT_CATEGORY('part',$,(#5)) ;
#7=PRODUCT_CATEGORY('part','specification') ;
#29=STYLED_ITEM(' ',(#28),#21) ;
#28=PRESENTATION_STYLE_ASSIGNMENT((#27)) ;
#78=PRESENTATION_STYLE_ASSIGNMENT((#77)) ;
#209=PRESENTATION_STYLE_ASSIGNMENT((#208)) ;
#27=SURFACE_STYLE_USAGE(.BOTH.,#26) ;
#77=SURFACE_STYLE_USAGE(.BOTH.,#76) ;
#208=SURFACE_STYLE_USAGE(.BOTH.,#207) ;
#26=SURFACE_SIDE_STYLE(' ',(#25)) ;
#76=SURFACE_SIDE_STYLE(' ',(#75)) ;
#207=SURFACE_SIDE_STYLE(' ',(#206)) ;
#25=SURFACE_STYLE_FILL_AREA(#24) ;
#75=SURFACE_STYLE_FILL_AREA(#74) ;
#206=SURFACE_STYLE_FILL_AREA(#205) ;
#24=FILL_AREA_STYLE(' ',(#23)) ;
#74=FILL_AREA_STYLE(' ',(#73)) ;
#205=FILL_AREA_STYLE(' ',(#204)) ;
#23=FILL_AREA_STYLE_COLOUR(' ',#22) ;
#73=FILL_AREA_STYLE_COLOUR(' ',#72) ;
#204=FILL_AREA_STYLE_COLOUR(' ',#203) ;
#48=VECTOR('Line Direction',#47,1.) ;
#62=VECTOR('Line Direction',#61,1.) ;
#105=VECTOR('Line Direction',#104,1.) ;
#121=VECTOR('Line Direction',#120,1.) ;
#179=VECTOR('Line Direction',#178,1.) ;
#193=VECTOR('Line Direction',#192,1.) ;
#231=VECTOR('Line Direction',#230,1.) ;
#245=VECTOR('Line Direction',#244,1.) ;
#285=VECTOR('Line Direction',#284,1.) ;
#299=VECTOR('Line Direction',#298,1.) ;
#335=VECTOR('Line Direction',#334,1.) ;
#340=VECTOR('Line Direction',#339,1.) ;
#15=UNCERTAINTY_MEASURE_WITH_UNIT(LENGTH_MEASURE(0.005),#12,'distance_accuracy_value','CONFUSED CURVE UNCERTAINTY') ;
#375=SHAPE_REPRESENTATION_RELATIONSHIP(' ',' ',#19,#374) ;
#66=ORIENTED_EDGE('',*,*,#45,.F.) ;
#67=ORIENTED_EDGE('',*,*,#52,.T.) ;
#68=ORIENTED_EDGE('',*,*,#59,.T.) ;
#69=ORIENTED_EDGE('',*,*,#64,.F.) ;
#91=ORIENTED_EDGE('',*,*,#84,.F.) ;
#92=ORIENTED_EDGE('',*,*,#64,.T.) ;
#93=ORIENTED_EDGE('',*,*,#89,.T.) ;
#94=ORIENTED_EDGE('',*,*,#52,.F.) ;
#132=ORIENTED_EDGE('',*,*,#111,.T.) ;
#133=ORIENTED_EDGE('',*,*,#118,.T.) ;
#134=ORIENTED_EDGE('',*,*,#125,.F.) ;
#135=ORIENTED_EDGE('',*,*,#130,.F.) ;
#150=ORIENTED_EDGE('',*,*,#125,.T.) ;
#151=ORIENTED_EDGE('',*,*,#143,.T.) ;
#152=ORIENTED_EDGE('',*,*,#111,.F.) ;
#153=ORIENTED_EDGE('',*,*,#148,.F.) ;
#163=ORIENTED_EDGE('',*,*,#84,.T.) ;
#164=ORIENTED_EDGE('',*,*,#45,.T.) ;
#167=ORIENTED_EDGE('',*,*,#118,.F.) ;
#168=ORIENTED_EDGE('',*,*,#143,.F.) ;
#197=ORIENTED_EDGE('',*,*,#59,.F.) ;
#198=ORIENTED_EDGE('',*,*,#183,.T.) ;
#199=ORIENTED_EDGE('',*,*,#190,.T.) ;
#200=ORIENTED_EDGE('',*,*,#195,.F.) ;
#217=ORIENTED_EDGE('',*,*,#89,.F.) ;
#218=ORIENTED_EDGE('',*,*,#195,.T.) ;
#219=ORIENTED_EDGE('',*,*,#215,.T.) ;
#220=ORIENTED_EDGE('',*,*,#183,.F.) ;
#249=ORIENTED_EDGE('',*,*,#190,.F.) ;
#250=ORIENTED_EDGE('',*,*,#235,.T.) ;
#251=ORIENTED_EDGE('',*,*,#242,.T.) ;
#252=ORIENTED_EDGE('',*,*,#247,.F.) ;
#262=ORIENTED_EDGE('',*,*,#215,.F.) ;
#263=ORIENTED_EDGE('',*,*,#247,.T.) ;
#264=ORIENTED_EDGE('',*,*,#260,.T.) ;
#265=ORIENTED_EDGE('',*,*,#235,.F.) ;
#303=ORIENTED_EDGE('',*,*,#282,.F.) ;
#304=ORIENTED_EDGE('',*,*,#289,.T.) ;
#305=ORIENTED_EDGE('',*,*,#296,.T.) ;
#306=ORIENTED_EDGE('',*,*,#301,.F.) ;
#321=ORIENTED_EDGE('',*,*,#314,.F.) ;
#322=ORIENTED_EDGE('',*,*,#301,.T.) ;
#323=ORIENTED_EDGE('',*,*,#319,.T.) ;
#324=ORIENTED_EDGE('',*,*,#289,.F.) ;
#344=ORIENTED_EDGE('',*,*,#296,.F.) ;
#345=ORIENTED_EDGE('',*,*,#337,.T.) ;
#346=ORIENTED_EDGE('',*,*,#130,.T.) ;
#347=ORIENTED_EDGE('',*,*,#342,.F.) ;
#352=ORIENTED_EDGE('',*,*,#319,.F.) ;
#353=ORIENTED_EDGE('',*,*,#342,.T.) ;
#354=ORIENTED_EDGE('',*,*,#148,.T.) ;
#355=ORIENTED_EDGE('',*,*,#337,.F.) ;
#365=ORIENTED_EDGE('',*,*,#242,.F.) ;
#366=ORIENTED_EDGE('',*,*,#260,.F.) ;
#369=ORIENTED_EDGE('',*,*,#314,.T.) ;
#370=ORIENTED_EDGE('',*,*,#282,.T.) ;
#169=FACE_BOUND('',#166,.T.) ;
#371=FACE_BOUND('',#368,.T.) ;
#31=CLOSED_SHELL('Closed Shell',(#71,#96,#137,#155,#170,#202,#222,#254,#267,#308,#326,#349,#357,#372)) ;
#374=ADVANCED_BREP_SHAPE_REPRESENTATION('NONE',(#21),#16) ;
#71=ADVANCED_FACE('S3D',(#70),#36,.T.) ;
#96=ADVANCED_FACE('S3D',(#95),#36,.T.) ;
#137=ADVANCED_FACE('S3D',(#136),#102,.F.) ;
#155=ADVANCED_FACE('S3D',(#154),#102,.F.) ;
#170=ADVANCED_FACE('S3D',(#165,#169),#161,.T.) ;
#202=ADVANCED_FACE('S3D',(#201),#176,.T.) ;
#222=ADVANCED_FACE('S3D',(#221),#176,.T.) ;
#254=ADVANCED_FACE('S3D',(#253),#228,.T.) ;
#267=ADVANCED_FACE('S3D',(#266),#228,.T.) ;
#308=ADVANCED_FACE('S3D',(#307),#273,.F.) ;
#326=ADVANCED_FACE('S3D',(#325),#273,.F.) ;
#349=ADVANCED_FACE('S3D',(#348),#332,.F.) ;
#357=ADVANCED_FACE('S3D',(#356),#332,.F.) ;
#372=ADVANCED_FACE('S3D',(#367,#371),#363,.F.) ;
#4=APPLICATION_PROTOCOL_DEFINITION('international standard','automotive_design',2001,#1) ;
#21=MANIFOLD_SOLID_BREP('S3D',#31) ;
#40=CIRCLE('generated circle',#39,1.) ;
#56=CIRCLE('generated circle',#55,1.) ;
#83=CIRCLE('generated circle',#82,1.) ;
#88=CIRCLE('generated circle',#87,1.) ;
#115=CIRCLE('generated circle',#114,0.85) ;
#129=CIRCLE('generated circle',#128,0.85) ;
#142=CIRCLE('generated circle',#141,0.85) ;
#147=CIRCLE('generated circle',#146,0.85) ;
#187=CIRCLE('generated circle',#186,2.) ;
#214=CIRCLE('generated circle',#213,2.) ;
#239=CIRCLE('generated circle',#238,2.) ;
#259=CIRCLE('generated circle',#258,2.) ;
#277=CIRCLE('generated circle',#276,1.75) ;
#293=CIRCLE('generated circle',#292,1.75) ;
#313=CIRCLE('generated circle',#312,1.75) ;
#318=CIRCLE('generated circle',#317,1.75) ;
#22=COLOUR_RGB('Colour',0.823529411765,0.823529411765,1.) ;
#72=COLOUR_RGB('Colour',0.756862745098,0.76862745098,0.752941176471) ;
#203=COLOUR_RGB('Colour',0.639215686275,0.0901960784314,0.101960784314) ;
#176=CONICAL_SURFACE('Cone',#175,1.,0.523598775598) ;
#332=CONICAL_SURFACE('Cone',#331,0.85,0.523598775598) ;
#79=OVER_RIDING_STYLED_ITEM(' ',(#78),#71,#29) ;
#97=OVER_RIDING_STYLED_ITEM(' ',(#78),#96,#29) ;
#138=OVER_RIDING_STYLED_ITEM(' ',(#78),#137,#29) ;
#156=OVER_RIDING_STYLED_ITEM(' ',(#78),#155,#29) ;
#171=OVER_RIDING_STYLED_ITEM(' ',(#78),#170,#29) ;
#210=OVER_RIDING_STYLED_ITEM(' ',(#209),#202,#29) ;
#223=OVER_RIDING_STYLED_ITEM(' ',(#209),#222,#29) ;
#255=OVER_RIDING_STYLED_ITEM(' ',(#209),#254,#29) ;
#268=OVER_RIDING_STYLED_ITEM(' ',(#209),#267,#29) ;
#309=OVER_RIDING_STYLED_ITEM(' ',(#209),#308,#29) ;
#327=OVER_RIDING_STYLED_ITEM(' ',(#209),#326,#29) ;
#350=OVER_RIDING_STYLED_ITEM(' ',(#209),#349,#29) ;
#358=OVER_RIDING_STYLED_ITEM(' ',(#209),#357,#29) ;
#373=OVER_RIDING_STYLED_ITEM(' ',(#209),#372,#29) ;
#36=CYLINDRICAL_SURFACE('generated cylinder',#35,1.) ;
#102=CYLINDRICAL_SURFACE('generated cylinder',#101,0.85) ;
#228=CYLINDRICAL_SURFACE('generated cylinder',#227,2.) ;
#273=CYLINDRICAL_SURFACE('generated cylinder',#272,1.75) ;
#45=EDGE_CURVE('',#42,#44,#40,.T.) ;
#52=EDGE_CURVE('',#42,#51,#49,.F.) ;
#59=EDGE_CURVE('',#51,#58,#56,.T.) ;
#64=EDGE_CURVE('',#44,#58,#63,.F.) ;
#84=EDGE_CURVE('',#44,#42,#83,.T.) ;
#89=EDGE_CURVE('',#58,#51,#88,.T.) ;
#111=EDGE_CURVE('',#108,#110,#106,.T.) ;
#118=EDGE_CURVE('',#110,#117,#115,.T.) ;
#125=EDGE_CURVE('',#124,#117,#122,.T.) ;
#130=EDGE_CURVE('',#108,#124,#129,.T.) ;
#143=EDGE_CURVE('',#117,#110,#142,.T.) ;
#148=EDGE_CURVE('',#124,#108,#147,.T.) ;
#183=EDGE_CURVE('',#51,#182,#180,.T.) ;
#190=EDGE_CURVE('',#182,#189,#187,.F.) ;
#195=EDGE_CURVE('',#58,#189,#194,.T.) ;
#215=EDGE_CURVE('',#189,#182,#214,.F.) ;
#235=EDGE_CURVE('',#182,#234,#232,.F.) ;
#242=EDGE_CURVE('',#234,#241,#239,.T.) ;
#247=EDGE_CURVE('',#189,#241,#246,.F.) ;
#260=EDGE_CURVE('',#241,#234,#259,.T.) ;
#282=EDGE_CURVE('',#279,#281,#277,.T.) ;
#289=EDGE_CURVE('',#279,#288,#286,.T.) ;
#296=EDGE_CURVE('',#288,#295,#293,.T.) ;
#301=EDGE_CURVE('',#281,#295,#300,.T.) ;
#314=EDGE_CURVE('',#281,#279,#313,.T.) ;
#319=EDGE_CURVE('',#295,#288,#318,.T.) ;
#337=EDGE_CURVE('',#288,#108,#336,.F.) ;
#342=EDGE_CURVE('',#295,#124,#341,.F.) ;
#65=EDGE_LOOP('',(#66,#67,#68,#69)) ;
#90=EDGE_LOOP('',(#91,#92,#93,#94)) ;
#131=EDGE_LOOP('',(#132,#133,#134,#135)) ;
#149=EDGE_LOOP('',(#150,#151,#152,#153)) ;
#162=EDGE_LOOP('',(#163,#164)) ;
#166=EDGE_LOOP('',(#167,#168)) ;
#196=EDGE_LOOP('',(#197,#198,#199,#200)) ;
#216=EDGE_LOOP('',(#217,#218,#219,#220)) ;
#248=EDGE_LOOP('',(#249,#250,#251,#252)) ;
#261=EDGE_LOOP('',(#262,#263,#264,#265)) ;
#302=EDGE_LOOP('',(#303,#304,#305,#306)) ;
#320=EDGE_LOOP('',(#321,#322,#323,#324)) ;
#343=EDGE_LOOP('',(#344,#345,#346,#347)) ;
#351=EDGE_LOOP('',(#352,#353,#354,#355)) ;
#364=EDGE_LOOP('',(#365,#366)) ;
#368=EDGE_LOOP('',(#369,#370)) ;
#70=FACE_OUTER_BOUND('',#65,.T.) ;
#95=FACE_OUTER_BOUND('',#90,.T.) ;
#136=FACE_OUTER_BOUND('',#131,.T.) ;
#154=FACE_OUTER_BOUND('',#149,.T.) ;
#165=FACE_OUTER_BOUND('',#162,.T.) ;
#201=FACE_OUTER_BOUND('',#196,.T.) ;
#221=FACE_OUTER_BOUND('',#216,.T.) ;
#253=FACE_OUTER_BOUND('',#248,.T.) ;
#266=FACE_OUTER_BOUND('',#261,.T.) ;
#307=FACE_OUTER_BOUND('',#302,.T.) ;
#325=FACE_OUTER_BOUND('',#320,.T.) ;
#348=FACE_OUTER_BOUND('',#343,.T.) ;
#356=FACE_OUTER_BOUND('',#351,.T.) ;
#367=FACE_OUTER_BOUND('',#364,.T.) ;
#49=LINE('Line',#46,#48) ;
#63=LINE('Line',#60,#62) ;
#106=LINE('Line',#103,#105) ;
#122=LINE('Line',#119,#121) ;
#180=LINE('Line',#177,#179) ;
#194=LINE('Line',#191,#193) ;
#232=LINE('Line',#229,#231) ;
#246=LINE('Line',#243,#245) ;
#286=LINE('Line',#283,#285) ;
#300=LINE('Line',#297,#299) ;
#336=LINE('Line',#333,#335) ;
#341=LINE('Line',#338,#340) ;
#161=PLANE('',#160) ;
#363=PLANE('',#362) ;
#9=PRODUCT_CATEGORY_RELATIONSHIP(' ',' ',#7,#8) ;
#6=PRODUCT_DEFINITION_FORMATION_WITH_SPECIFIED_SOURCE('',' ',#5,.BOUGHT.) ;
#20=SHAPE_DEFINITION_REPRESENTATION(#11,#19) ;
#42=VERTEX_POINT('',#41) ;
#44=VERTEX_POINT('',#43) ;
#51=VERTEX_POINT('',#50) ;
#58=VERTEX_POINT('',#57) ;
#108=VERTEX_POINT('',#107) ;
#110=VERTEX_POINT('',#109) ;
#117=VERTEX_POINT('',#116) ;
#124=VERTEX_POINT('',#123) ;
#182=VERTEX_POINT('',#181) ;
#189=VERTEX_POINT('',#188) ;
#234=VERTEX_POINT('',#233) ;
#241=VERTEX_POINT('',#240) ;
#279=VERTEX_POINT('',#278) ;
#281=VERTEX_POINT('',#280) ;
#288=VERTEX_POINT('',#287) ;
#295=VERTEX_POINT('',#294) ;
#12=(LENGTH_UNIT()NAMED_UNIT(*)SI_UNIT(.MILLI.,.METRE.)) ;
#13=(NAMED_UNIT(*)PLANE_ANGLE_UNIT()SI_UNIT($,.RADIAN.)) ;
#14=(NAMED_UNIT(*)SI_UNIT($,.STERADIAN.)SOLID_ANGLE_UNIT()) ;
#16=(GEOMETRIC_REPRESENTATION_CONTEXT(3)GLOBAL_UNCERTAINTY_ASSIGNED_CONTEXT((#15))GLOBAL_UNIT_ASSIGNED_CONTEXT((#12,#13,#14))REPRESENTATION_CONTEXT(' ',' ')) ;
ENDSEC;
END-ISO-10303-21;
